  0
SECTION
  2
HEADER
  9
$ACADVER
  1
AC1009
  9
$INSBASE
 10
5643.1923874095382416
 20
25.7057192946871211
 30
0.0
  9
$EXTMIN
 10
5636.7719111880833225
 20
19.8894798326079716
 30
-0.0000000000000058
  9
$EXTMAX
 10
5649.6651887302359683
 20
25.7073759429353288
 30
0.0000000000000104
  9
$LIMMIN
 10
0.0
 20
0.0
  9
$LIMMAX
 10
11.6929133858000007
 20
8.2677165353999982
  9
$ORTHOMODE
 70
     0
  9
$REGENMODE
 70
     1
  9
$FILLMODE
 70
     1
  9
$QTEXTMODE
 70
     0
  9
$MIRRTEXT
 70
     0
  9
$DRAGMODE
 70
     2
  9
$LTSCALE
 40
0.6431102362
  9
$OSMODE
 70
  4095
  9
$ATTMODE
 70
     1
  9
$TEXTSIZE
 40
0.2
  9
$TRACEWID
 40
0.05
  9
$TEXTSTYLE
  7
STANDARD
  9
$CLAYER
  8
0
  9
$CELTYPE
  6
BYLAYER
  9
$CECOLOR
 62
   256
  9
$DIMSCALE
 40
1.0
  9
$DIMASZ
 40
0.1875
  9
$DIMEXO
 40
0.0625
  9
$DIMDLI
 40
0.4443307087
  9
$DIMRND
 40
0.0
  9
$DIMDLE
 40
0.0
  9
$DIMEXE
 40
0.125
  9
$DIMTP
 40
0.01
  9
$DIMTM
 40
0.01
  9
$DIMTXT
 40
2.0
  9
$DIMCEN
 40
0.1052362205
  9
$DIMTSZ
 40
0.0
  9
$DIMTOL
 70
     1
  9
$DIMLIM
 70
     0
  9
$DIMTIH
 70
     1
  9
$DIMTOH
 70
     1
  9
$DIMSE1
 70
     0
  9
$DIMSE2
 70
     0
  9
$DIMTAD
 70
     0
  9
$DIMZIN
 70
     0
  9
$DIMBLK
  1

  9
$DIMASO
 70
     1
  9
$DIMSHO
 70
     1
  9
$DIMPOST
  1
\X
  9
$DIMAPOST
  1

  9
$DIMALT
 70
     1
  9
$DIMALTD
 70
     2
  9
$DIMALTF
 40
25.3999999999999986
  9
$DIMLFAC
 40
1.0
  9
$DIMTOFL
 70
     0
  9
$DIMTVP
 40
0.0
  9
$DIMTIX
 70
     0
  9
$DIMSOXD
 70
     0
  9
$DIMSAH
 70
     0
  9
$DIMBLK1
  1

  9
$DIMBLK2
  1

  9
$DIMSTYLE
  2
STANDARD
  9
$DIMCLRD
 70
     0
  9
$DIMCLRE
 70
     0
  9
$DIMCLRT
 70
     0
  9
$DIMTFAC
 40
1.0
  9
$DIMGAP
 40
0.09
  9
$LUNITS
 70
     2
  9
$LUPREC
 70
     4
  9
$SKETCHINC
 40
0.1
  9
$FILLETRAD
 40
0.0
  9
$AUNITS
 70
     0
  9
$AUPREC
 70
     0
  9
$MENU
  1
.
  9
$ELEVATION
 40
0.0
  9
$PELEVATION
 40
0.0
  9
$THICKNESS
 40
0.0
  9
$LIMCHECK
 70
     0
  9
$BLIPMODE
 70
     0
  9
$CHAMFERA
 40
0.0
  9
$CHAMFERB
 40
0.0
  9
$SKPOLY
 70
     0
  9
$TDCREATE
 40
2458060.468368056230247
  9
$TDUPDATE
 40
2460154.6070138891227543
  9
$TDINDWG
 40
0.6426228009
  9
$TDUSRTIMER
 40
0.6426228009
  9
$USRTIMER
 70
     1
  9
$ANGBASE
 50
0.0
  9
$ANGDIR
 70
     0
  9
$PDMODE
 70
     0
  9
$PDSIZE
 40
0.3125
  9
$PLINEWID
 40
0.0
  9
$COORDS
 70
     1
  9
$SPLFRAME
 70
     0
  9
$SPLINETYPE
 70
     6
  9
$SPLINESEGS
 70
     8
  9
$ATTDIA
 70
     1
  9
$ATTREQ
 70
     1
  9
$HANDLING
 70
     1
  9
$HANDSEED
  5
243B5
  9
$SURFTAB1
 70
     6
  9
$SURFTAB2
 70
     6
  9
$SURFTYPE
 70
     6
  9
$SURFU
 70
     6
  9
$SURFV
 70
     6
  9
$UCSNAME
  2

  9
$UCSORG
 10
0.0
 20
0.0
 30
0.0
  9
$UCSXDIR
 10
1.0
 20
0.0
 30
0.0
  9
$UCSYDIR
 10
0.0
 20
1.0
 30
0.0
  9
$PUCSNAME
  2

  9
$PUCSORG
 10
0.0
 20
0.0
 30
0.0
  9
$PUCSXDIR
 10
1.0
 20
0.0
 30
0.0
  9
$PUCSYDIR
 10
0.0
 20
1.0
 30
0.0
  9
$USERI1
 70
     0
  9
$USERI2
 70
     0
  9
$USERI3
 70
     0
  9
$USERI4
 70
     0
  9
$USERI5
 70
     0
  9
$USERR1
 40
0.0
  9
$USERR2
 40
0.0
  9
$USERR3
 40
0.0
  9
$USERR4
 40
0.0
  9
$USERR5
 40
0.0
  9
$WORLDVIEW
 70
     1
  9
$SHADEDGE
 70
     3
  9
$SHADEDIF
 70
    70
  9
$TILEMODE
 70
     1
  9
$MAXACTVP
 70
    64
  9
$PLIMCHECK
 70
     0
  9
$PEXTMIN
 10
1.0000000000000000E+20
 20
1.0000000000000000E+20
 30
1.0000000000000000E+20
  9
$PEXTMAX
 10
-1.0000000000000000E+20
 20
-1.0000000000000000E+20
 30
-1.0000000000000000E+20
  9
$PLIMMIN
 10
0.0
 20
0.0
  9
$PLIMMAX
 10
12.0
 20
9.0
  9
$UNITMODE
 70
     0
  9
$VISRETAIN
 70
     1
  9
$PLINEGEN
 70
     0
  9
$PSLTSCALE
 70
     1
  0
ENDSEC
  0
SECTION
  2
TABLES
  0
TABLE
  2
VPORT
 70
     1
  0
VPORT
  2
*ACTIVE
 70
     0
 10
0.0
 20
0.0
 11
1.0
 21
1.0
 12
1850.8606398029101001
 22
-97.382228545333831
 13
0.0
 23
0.0
 14
1.0
 24
1.0
 15
0.0
 25
0.0
 16
0.0
 26
0.0
 36
5.1040778033513332
 17
3792.35791015625
 27
120.1806564331053977
 37
0.0
 40
5.8679784297849826
 41
2.7227011494252871
 42
50.0
 43
0.0
 44
0.0
 50
0.0
 51
0.0
 71
     0
 72
   100
 73
     1
 74
     1
 75
     0
 76
     0
 77
     0
 78
     0
  0
ENDTAB
  0
TABLE
  2
LTYPE
 70
     2
  0
LTYPE
  2
CONTINUOUS
 70
     0
  3
Solid line
 72
    65
 73
     0
 40
0.0
  0
LTYPE
  2
PHANTOM2
 70
     0
  3
___ _ _ ___ _ _ ___ _ _ ___ _ _
 72
    65
 73
     6
 40
1.25
 49
0.625
 49
-0.125
 49
0.125
 49
-0.125
 49
0.125
 49
-0.125
  0
ENDTAB
  0
TABLE
  2
LAYER
 70
     2
  0
LAYER
  2
0
 70
     0
 62
   255
  6
CONTINUOUS
  0
LAYER
  2
DEFPOINTS
 70
     0
 62
     7
  6
CONTINUOUS
  0
ENDTAB
  0
TABLE
  2
STYLE
 70
     1
  0
STYLE
  2
STANDARD
 70
     0
 40
0.0
 41
0.8
 50
0.0
 71
     0
 42
0.2
  3
txt
  4

  0
ENDTAB
  0
TABLE
  2
VIEW
 70
     0
  0
ENDTAB
  0
TABLE
  2
UCS
 70
     0
  0
ENDTAB
  0
TABLE
  2
APPID
 70
     9
  0
APPID
  2
ACAD
 70
     0
  0
APPID
  2
ACAD_MLEADERVER
 70
     0
  0
APPID
  2
ACAD_EXEMPT_FROM_CAD_STANDARDS
 70
     0
  0
APPID
  2
ACAD_NAV_VCDISPLAY
 70
     0
  0
APPID
  2
ACAECLAYERSTANDARD
 70
     0
  0
APPID
  2
ACCMTRANSPARENCY
 70
     0
  0
APPID
  2
ACAD_DSTYLE_DIMJAG
 70
     0
  0
APPID
  2
ACAD_DSTYLE_DIMTALN
 70
     0
  0
APPID
  2
ACDBATTR
 70
     0
  0
ENDTAB
  0
TABLE
  2
DIMSTYLE
 70
     1
  0
DIMSTYLE
  2
STANDARD
 70
     0
  3

  4

  5

  6

  7

 40
1.0
 41
0.1875
 42
0.0625
 43
0.38
 44
0.125
 45
0.0
 46
0.0
 47
0.01
 48
0.01
140
0.15625
141
0.09
142
0.0
143
25.3999999999999986
144
1.0
145
0.0
146
1.0
147
0.09
 71
     1
 72
     0
 73
     1
 74
     1
 75
     0
 76
     0
 77
     0
 78
     4
170
     0
171
     2
172
     0
173
     0
174
     0
175
     0
176
     0
177
     0
178
     0
  0
ENDTAB
  0
ENDSEC
  0
SECTION
  2
BLOCKS
  0
BLOCK
  8
0
  2
$MODEL_SPACE
 70
     0
 10
0.0
 20
0.0
 30
0.0
  3
$MODEL_SPACE
  1

  0
ENDBLK
  5
21
  8
0
  0
BLOCK
 67
     1
  8
0
  2
$PAPER_SPACE
 70
     0
 10
0.0
 20
0.0
 30
0.0
  3
$PAPER_SPACE
  1

  0
ENDBLK
  5
1D
 67
     1
  8
0
  0
BLOCK
  8
0
  2
_FILLED
 70
     0
 10
0.0
 20
0.0
 30
0.0
  3
_FILLED
  1

  0
SOLID
  5
1CCA0
  8
0
  6
BYBLOCK
 62
     0
 10
0.0
 20
0.0
 30
0.0
 11
-1.0
 21
0.1666666667
 31
0.0
 12
-1.0
 22
-0.1666666667
 32
0.0
 13
-1.0
 23
-0.1666666667
 33
0.0
  0
ENDBLK
  5
1CCA1
  8
0
  6
BYBLOCK
 62
     0
  0
BLOCK
  8
0
  2
A$C54BF7565
 70
     0
 10
0.0
 20
0.0
 30
0.0
  3
A$C54BF7565
  1

  0
LINE
  5
1EDB5
  8
0
 10
4.213411105075707
 20
0.392500014379415
 30
0.0
 11
4.2134111050757026
 21
29.1282889381617487
 31
0.0
  0
LINE
  5
1EDB6
  8
0
 10
4.6059111050757053
 20
29.5207889381617505
 30
0.0
 11
70.7849254185449297
 21
29.5207889381617505
 31
0.0
  0
ARC
  5
1EDB7
  8
0
 10
4.6059111050757009
 20
29.1282889381617487
 30
0.0
 40
0.3925
 50
89.9999999999993889
 51
180.0
  0
LINE
  5
1EDB8
  8
0
 10
5.89937377115979
 20
28.8903825271539816
 30
0.0
 11
69.4914627524608335
 21
28.8903825271539816
 31
0.0
  0
LINE
  5
1EDB9
  8
0
 10
4.8893737711618419
 20
1.6404064253871229
 30
0.0
 11
4.8893737711597574
 21
27.8803825271538983
 31
0.0
  0
ARC
  5
1EDBA
  8
0
 10
5.8993737711597944
 20
27.8803825271539587
 30
0.0
 40
1.01
 50
90.0000000000001847
 51
180.0000000000036096
  0
LINE
  5
1EDBB
  8
0
 10
10.9121358131603206
 20
28.1376674354441683
 30
0.0
 11
64.4787007104603163
 21
28.1376674354441683
 31
0.0
  0
LINE
  5
1EDBC
  8
0
 10
8.9771358131603112
 20
26.2026674354441695
 30
0.0
 11
8.9771358131603094
 21
3.3181215170969902
 31
0.0
  0
ARC
  5
1EDBD
  8
0
 10
10.9121358131603099
 20
26.2026674354441802
 30
0.0
 40
1.9350000000000001
 50
89.999999999999801
 51
180.000000000000199
  0
LINE
  5
1EDBE
  8
0
 10
5.1851959221613591
 20
28.5945603761523515
 30
0.0
 11
9.5438841915643415
 21
27.5709190570401397
 31
0.0
  0
CIRCLE
  5
1EDBF
  8
0
 10
17.9746459467603117
 20
14.7603944762705801
 30
0.0
 40
2.6574803149999968
  0
CIRCLE
  5
1EDC0
  8
0
 10
17.9746459467603117
 20
14.7603944762705801
 30
0.0
 40
1.318897637799999
  0
LINE
  5
1EDC1
  8
0
 10
19.4313388601603094
 20
16.6895283345705785
 30
0.0
 11
16.5179530334603086
 21
16.6895283345705785
 31
0.0
  0
LINE
  5
1EDC2
  8
0
 10
16.5179530334603086
 20
12.8312606180704591
 30
0.0
 11
16.5179530334603086
 21
16.6895283345705785
 31
0.0
  0
LINE
  5
1EDC3
  8
0
 10
19.4313388601603094
 20
12.8312606180707007
 30
0.0
 11
19.4313388601603094
 21
16.6895283345705785
 31
0.0
  0
LINE
  5
1EDC4
  8
0
 10
16.5179530334603086
 20
12.8312606180704591
 30
0.0
 11
19.4313388601603094
 21
12.8312606180707007
 31
0.0
  0
LINE
  5
1EDC5
  8
0
 10
71.1774254185449422
 20
0.392500014379415
 30
0.0
 11
71.177425418544928
 21
29.1282889381617487
 31
0.0
  0
ARC
  5
1EDC6
  8
0
 10
70.7849254185449297
 20
29.1282889381617487
 30
0.0
 40
0.3925
 50
0.0
 51
90.0000000000003979
  0
LINE
  5
1EDC7
  8
0
 10
70.5014627524587922
 20
1.6404064253871229
 30
0.0
 11
70.5014627524608812
 21
27.8803825271538983
 31
0.0
  0
ARC
  5
1EDC8
  8
0
 10
69.4914627524608477
 20
27.8803825271539587
 30
0.0
 40
1.01
 50
359.9999999999964189
 51
89.999999999999801
  0
LINE
  5
1EDC9
  8
0
 10
66.4137007104603185
 20
26.2026674354441695
 30
0.0
 11
66.4137007104603185
 21
3.3181215170969902
 31
0.0
  0
ARC
  5
1EDCA
  8
0
 10
64.4787007104603163
 20
26.2026674354441802
 30
0.0
 40
1.9350000000000001
 50
359.9999999999997726
 51
90.0
  0
LINE
  5
1EDCB
  8
0
 10
70.2056406014592795
 20
28.5945603761523515
 30
0.0
 11
65.8469523320562757
 21
27.5709190570401397
 31
0.0
  0
LINE
  5
1EDCC
  8
0
 10
6.0587804917603156
 20
16.9648612744813292
 30
0.0
 11
6.0587804917603156
 21
12.5707899059285495
 31
0.0
  0
LINE
  5
1EDCD
  8
0
 10
6.1845708572603106
 20
16.9745707898439697
 30
0.0
 11
6.1845708572603106
 21
12.5516456001736803
 31
0.0
  0
ARC
  5
1EDCE
  8
0
 10
6.6768621544985933
 20
16.9224693827637793
 30
0.0
 40
0.6195337071513586
 50
164.1442345569018073
 51
176.0764429610183868
  0
ARC
  5
1EDCF
  8
0
 10
6.2840565643031701
 20
17.0322553910392891
 30
0.0
 40
0.2116849357968146
 50
148.9114272159978043
 51
163.6808251279447859
  0
ARC
  5
1EDD0
  8
0
 10
6.1492013395549563
 20
17.1135685847582408
 30
0.0
 40
0.0542118678941835
 50
122.0236997237583978
 51
148.9114272159970938
  0
ARC
  5
1EDD1
  8
0
 10
6.1294117326997544
 20
17.1440896121663009
 30
0.0
 40
0.0178513052483979
 50
68.3637245332240724
 51
120.1174353847827945
  0
ARC
  5
1EDD2
  8
0
 10
6.1093204837146011
 20
17.1172519626224791
 30
0.0
 40
0.0509679580751473
 50
18.2421840615057
 51
58.4438507226990467
  0
ARC
  5
1EDD3
  8
0
 10
5.8217205392181093
 20
17.0102690391100708
 30
0.0
 40
0.3577903413166022
 50
5.3853596804652684
 51
20.0965078311244412
  0
ARC
  5
1EDD4
  8
0
 10
3.097786928403635
 20
16.7137066941642907
 30
0.0
 40
3.0977871295269188
 50
4.8305879622378782
 51
6.1178368155844636
  0
ARC
  5
1EDD5
  8
0
 10
6.6288147452080004
 20
12.5871305066994204
 30
0.0
 40
0.5702684151671137
 50
181.6419910366743125
 51
196.0954335816371099
  0
ARC
  5
1EDD6
  8
0
 10
6.2840565643031701
 20
12.4885112934841995
 30
0.0
 40
0.2116849357968146
 50
196.3191748720554131
 51
211.0885727840025083
  0
ARC
  5
1EDD7
  8
0
 10
6.1492013395549563
 20
12.4071980997652496
 30
0.0
 40
0.0542118678941835
 50
211.0885727840025936
 51
237.9763002762416022
  0
ARC
  5
1EDD8
  8
0
 10
6.1294117326997544
 20
12.3766770723571895
 30
0.0
 40
0.0178513052483979
 50
239.8825646152172055
 51
291.636275466775885
  0
ARC
  5
1EDD9
  8
0
 10
6.1093204837146011
 20
12.4035147219010096
 30
0.0
 40
0.0509679580751473
 50
301.5561492773010173
 51
341.7578159384942751
  0
ARC
  5
1EDDA
  8
0
 10
5.8217205392181093
 20
12.5104976454134196
 30
0.0
 40
0.3577903413166022
 50
339.9034921688755162
 51
354.6146403195347148
  0
ARC
  5
1EDDB
  8
0
 10
4.494339004003983
 20
12.6641567549704206
 30
0.0
 40
1.6939723957951669
 50
353.6539827235096141
 51
356.1916950896656999
  0
LINE
  5
1EDDC
  8
0
 10
4.6059111050757053
 20
0.0000000143794168
 30
0.0
 11
70.7849254185449297
 21
0.0000000143794168
 31
0.0
  0
ARC
  5
1EDDD
  8
0
 10
4.6059111050757009
 20
0.392500014379415
 30
0.0
 40
0.3925
 50
180.0
 51
270.0000000000003979
  0
LINE
  5
1EDDE
  8
0
 10
5.89937377115979
 20
0.6304064253871929
 30
0.0
 11
69.4914627524608335
 21
0.6304064253871929
 31
0.0
  0
ARC
  5
1EDDF
  8
0
 10
5.8993737711597944
 20
1.640406425387205
 30
0.0
 40
1.01
 50
179.9999999999967031
 51
269.9999999999997726
  0
LINE
  5
1EDE0
  8
0
 10
10.9121358131603206
 20
1.383121517096995
 30
0.0
 11
64.4787007104603163
 21
1.383121517096995
 31
0.0
  0
ARC
  5
1EDE1
  8
0
 10
10.9121358131603099
 20
3.3181215170969902
 30
0.0
 40
1.9350000000000001
 50
180.0
 51
270.0
  0
LINE
  5
1EDE2
  8
0
 10
5.1851959221613591
 20
0.9262285763888158
 30
0.0
 11
9.5438841915643415
 21
1.9498698955010241
 31
0.0
  0
ARC
  5
1EDE3
  8
0
 10
70.7849254185449297
 20
0.392500014379415
 30
0.0
 40
0.3925
 50
269.9999999999993747
 51
0.0
  0
ARC
  5
1EDE4
  8
0
 10
69.4914627524608477
 20
1.640406425387205
 30
0.0
 40
1.01
 50
270.0000000000002274
 51
0.0000000000032569
  0
ARC
  5
1EDE5
  8
0
 10
64.4787007104603163
 20
3.3181215170969902
 30
0.0
 40
1.9350000000000001
 50
269.9999999999997726
 51
0.0
  0
LINE
  5
1EDE6
  8
0
 10
70.2056406014592795
 20
0.9262285763888158
 30
0.0
 11
65.8469523320562757
 21
1.9498698955010241
 31
0.0
  0
LINE
  5
1EDE7
  8
0
 10
37.6954182618103175
 20
14.7603944762705801
 30
0.0
 11
52.5300195105287386
 21
42.8960013024525324
 31
0.0
  0
ENDBLK
  5
1EDEB
  8
0
  0
ENDSEC
  0
SECTION
  2
ENTITIES
  0
ATTDEF
  5
3930
  8
DEFPOINTS
 10
5643.1822091517724402
 20
25.7041404564842715
 30
0.0
 40
0.001
  1
P21513-00
  3

  2
MODELNUMBER
 70
     0
1001
ACDBATTR
1070
     0
1070
     1
  0
ATTDEF
  5
3931
  8
DEFPOINTS
 10
5643.1822091517724402
 20
25.7024737898175992
 30
0.0
 40
0.001
  1

  3

  2
TRADENAME
 70
     0
1001
ACDBATTR
1070
     0
1070
     1
  0
ATTDEF
  5
3932
  8
DEFPOINTS
 10
5643.1822091517724402
 20
25.7008071231509412
 30
0.0
 40
0.001
  1
SHOWERHEAD
  3

  2
PRODUCT
 70
     0
1001
ACDBATTR
1070
     0
1070
     1
  0
LINE
  5
23F1A
  8
0
 10
5642.0085464890298681
 20
25.7057192946871211
 30
0.0
 11
5644.3762283300447962
 21
25.7057192946871211
 31
0.0
  0
LINE
  5
23F1B
  8
0
 10
5636.9968295988392128
 20
20.4127074596871196
 30
0.0
 11
5649.3879452202381799
 21
20.4127074596871196
 31
0.0
  0
LINE
  5
23F1C
  8
0
 10
5637.2647124162540422
 20
19.9417074596871196
 30
0.0
 11
5649.1200624028224411
 21
19.9417074596871089
 31
0.0
  0
LINE
  5
23F1D
  8
0
 10
5637.1798638631053109
 20
20.0639770639314996
 30
0.0
 11
5637.1851449910318479
 21
20.01339934055067
 31
0.0
  0
LINE
  5
23F1E
  8
0
 10
5637.0859094684310548
 20
20.1267074596871183
 30
0.0
 11
5649.2988653506472474
 21
20.1267074596871183
 31
0.0
  0
LINE
  5
23F1F
  8
0
 10
5636.9968295988392128
 20
20.4127074596871196
 30
0.0
 11
5637.0059857687383555
 21
20.2032142910173711
 31
0.0
  0
ARC
  5
23F20
  8
0
 10
5637.0859094684310548
 20
20.2067074596871201
 30
0.0
 40
0.08
 50
182.5025934437582009
 51
270.0
  0
ARC
  5
23F21
  8
0
 10
5637.1102423660349814
 20
20.0567074596871109
 30
0.0
 40
0.07
 50
5.9609999816480856
 51
90.0
  0
ARC
  5
23F22
  8
0
 10
5637.2647124162540422
 20
20.0217074596871214
 30
0.0
 40
0.08
 50
185.9609999816480013
 51
270.0
  0
LINE
  5
23F23
  8
0
 10
5642.4719149685379307
 20
21.4780854124871183
 30
0.0
 11
5643.9128598505367336
 21
21.4780854124871183
 31
0.0
  0
LINE
  5
23F24
  8
0
 10
5642.4719149685379307
 20
20.4127074596871196
 30
0.0
 11
5642.4719149685379307
 21
21.4780854124871183
 31
0.0
  0
LINE
  5
23F25
  8
0
 10
5642.7173874095378778
 20
22.684620845487121
 30
0.0
 11
5643.6673874095386054
 21
22.684620845487121
 31
0.0
  0
LINE
  5
23F26
  8
0
 10
5642.6973874095383508
 20
21.9334440522871184
 30
0.0
 11
5642.6973874095383508
 21
22.6646208454871285
 31
0.0
  0
ARC
  5
23F27
  8
0
 10
5643.199189794268932
 20
21.1892897385254884
 30
0.0
 40
0.5366201861549768
 50
129.1280755832412979
 51
147.4404972646821079
  0
ARC
  5
23F28
  8
0
 10
5642.8123874095381325
 20
21.6563610320885189
 30
0.0
 40
0.0699999999999993
 50
313.477633071180378
 51
67.4596895364909273
  0
ARC
  5
23F29
  8
0
 10
5642.9273873756874309
 20
21.9334440295367514
 30
0.0
 40
0.2299999661483512
 50
179.9999943326050982
 51
247.459695166827089
  0
ARC
  5
23F2A
  8
0
 10
5642.7173874095378778
 20
22.6646208454871285
 30
0.0
 40
0.02
 50
90.0
 51
179.9999999999974989
  0
LINE
  5
23F2B
  8
0
 10
5642.9865575357380294
 20
21.4780854124871183
 30
0.0
 11
5642.9865575357380294
 21
21.0168256480884992
 31
0.0
  0
LINE
  5
23F2C
  8
0
 10
5642.9865575357380294
 20
21.0168256480884992
 30
0.0
 11
5643.3982172833366349
 21
21.0168256480884992
 31
0.0
  0
ARC
  5
23F2D
  8
0
 10
5643.1897011434521119
 20
20.4960003159580495
 30
0.0
 40
0.604962491406806
 50
265.8301904118068819
 51
270.2544161288591908
  0
LINE
  5
23F2E
  8
0
 10
5643.1384704414376756
 20
19.8993740068634892
 30
0.0
 11
5643.1322732518374323
 21
19.9417074596871196
 31
0.0
  0
LINE
  5
23F2F
  8
0
 10
5642.1449869602565741
 20
19.8987293421755709
 30
0.0
 11
5642.1515233958380122
 21
19.9417074596871196
 31
0.0
  0
LINE
  5
23F30
  8
0
 10
5642.0372447933050353
 20
19.8997315288885588
 30
0.0
 11
5642.0316350338380289
 21
19.9417074596871196
 31
0.0
  0
LINE
  5
23F31
  8
0
 10
5642.3659150964040236
 20
19.8994085697505199
 30
0.0
 11
5642.3721072263379028
 21
19.9417074596871196
 31
0.0
  0
LINE
  5
23F32
  8
0
 10
5642.2580710175698187
 20
19.899408569768589
 30
0.0
 11
5642.2518788877368934
 21
19.9417074596871196
 31
0.0
  0
LINE
  5
23F33
  8
0
 10
5641.9707168267832458
 20
19.8994084808360014
 30
0.0
 11
5641.9769089697383606
 21
19.9417074596871196
 31
0.0
  0
LINE
  5
23F34
  8
0
 10
5638.3144842108868033
 20
19.8978080318142183
 30
0.0
 11
5638.3221132765365837
 21
19.9417074596871196
 31
0.0
  0
LINE
  5
23F35
  8
0
 10
5638.2067286346609762
 20
19.9010660193841282
 30
0.0
 11
5638.2021741060380009
 21
19.9417074596871196
 31
0.0
  0
LINE
  5
23F36
  8
0
 10
5638.0325865823988352
 20
19.90131278398718
 30
0.0
 11
5638.0282516538391064
 21
19.9417074596871196
 31
0.0
  0
LINE
  5
23F37
  8
0
 10
5638.1403239984292668
 20
19.8975549684639503
 30
0.0
 11
5638.1482096020527024
 21
19.9417074596871196
 31
0.0
  0
LINE
  5
23F38
  8
0
 10
5638.0401657758902729
 20
19.8942649977532113
 30
0.0
 11
5638.1322713277977527
 21
19.8910486010741714
 31
0.0
  0
ARC
  5
23F39
  8
0
 10
5638.0404327959922739
 20
19.9021513790313911
 30
0.0
 40
0.0078909004175642
 50
186.1005538048642052
 51
268.06079846613261
  0
ARC
  5
23F3A
  8
0
 10
5638.1325470338160812
 20
19.89894378860782
 30
0.0
 40
0.0079
 50
268.0000000422834887
 51
349.8747824239832767
  0
ARC
  5
23F3B
  8
0
 10
5638.300182123806735
 20
21.2084279283131814
 30
0.0
 40
1.317183496041044
 50
266.2512544137529176
 51
270.2852691463020278
  0
ARC
  5
23F3C
  8
0
 10
5638.3067008699563303
 20
19.8991606603521802
 30
0.0
 40
0.0079
 50
270.2852691463020278
 51
350.1413096496925732
  0
ARC
  5
23F3D
  8
0
 10
5638.2145794897578526
 20
19.9019458342723716
 30
0.0
 40
0.0079
 50
186.3942368866437107
 51
266.2512544137529176
  0
ARC
  5
23F3E
  8
0
 10
5638.2839557493152824
 20
20.6815526177507714
 30
0.0
 40
0.7897219375134487
 50
266.3348402963977719
 51
270.2467840546258913
  0
ARC
  5
23F3F
  8
0
 10
5638.2392749428190655
 20
19.1841968678055501
 30
0.0
 40
0.7092727865933305
 50
86.1128830406755981
 51
90.4687413103847859
  0
LINE
  5
23F40
  8
0
 10
5641.9200340268671425
 20
19.8926527565546003
 30
0.0
 11
5641.9629001401726782
 21
19.8926527649736009
 31
0.0
  0
ARC
  5
23F41
  8
0
 10
5641.9629001386210803
 20
19.9005527649736109
 30
0.0
 40
0.0079
 50
270.000011252990987
 51
351.6716330991762902
  0
LINE
  5
23F42
  8
0
 10
5642.2658877057328937
 20
19.8926528538871317
 30
0.0
 11
5642.3880969693427687
 21
19.8926528538871317
 31
0.0
  0
ARC
  5
23F43
  8
0
 10
5642.2658877057328937
 20
19.9005528538871204
 30
0.0
 40
0.0079
 50
188.3283667609383087
 51
270.0
  0
ARC
  5
23F44
  8
0
 10
5642.3580984082427676
 20
19.9005528538871204
 30
0.0
 40
0.0079
 50
270.0
 51
351.6716331065215968
  0
ARC
  5
23F45
  8
0
 10
5642.0984133110023322
 20
20.6800363987135007
 30
0.0
 40
0.7889816921385862
 50
266.0843658458351229
 51
272.8446388978011896
  0
ARC
  5
23F46
  8
0
 10
5642.0946300275445537
 20
20.2925333159981989
 30
0.0
 40
0.4008058028724488
 50
265.6261968964424796
 51
273.3403498659293973
  0
ARC
  5
23F47
  8
0
 10
5642.0874306799996702
 20
19.4942755308169318
 30
0.0
 40
0.3993035577184291
 50
85.6116638606689406
 51
93.354882901676234
  0
ARC
  5
23F48
  8
0
 10
5642.1371767711234497
 20
19.8999171745217609
 30
0.0
 40
0.0079
 50
272.8446388978533719
 51
351.3522958380398791
  0
ARC
  5
23F49
  8
0
 10
5642.0450751764292363
 20
19.9007779992114813
 30
0.0
 40
0.0079
 50
187.6120353066004895
 51
266.0843658457828269
  0
ARC
  5
23F4A
  8
0
 10
5643.1462871295989316
 20
19.9005182910016707
 30
0.0
 40
0.0079
 50
188.3283669049407933
 51
265.8301904120158952
  0
ARC
  5
23F4B
  8
0
 10
5643.1898450923263226
 20
19.5811577624923885
 30
0.0
 40
0.3124471048191202
 50
89.5337909952494471
 51
94.4836636758890762
  0
ARC
  5
23F4C
  8
0
 10
5643.189255175562721
 20
20.1902583752727303
 30
0.0
 40
0.2985626726759703
 50
265.4209496965382868
 51
270.6011035395878821
  0
ARC
  5
23F4D
  8
0
 10
5643.1950736756243714
 20
20.4960003159580495
 30
0.0
 40
0.604962491406806
 50
269.7455838711408092
 51
274.1698095881930044
  0
LINE
  5
23F4E
  8
0
 10
5643.2463043776378981
 20
19.8993740068634892
 30
0.0
 11
5643.2525015672372319
 21
19.9417074596871196
 31
0.0
  0
ARC
  5
23F4F
  8
0
 10
5643.2384876894757326
 20
19.9005182910016707
 30
0.0
 40
0.0079
 50
274.1698095879839912
 51
351.6716330950591214
  0
ARC
  5
23F50
  8
0
 10
5643.1949297267492511
 20
19.5811577624923885
 30
0.0
 40
0.3124471048191202
 50
85.5163363241109238
 51
90.4662090047505245
  0
ARC
  5
23F51
  8
0
 10
5643.1955196435110338
 20
20.1902583752727303
 30
0.0
 40
0.2985626726759703
 50
269.3988964604121179
 51
274.5790503034617132
  0
LINE
  5
23F52
  8
0
 10
5638.824394631486939
 20
19.8978080318142183
 30
0.0
 11
5638.8320236971394479
 21
19.9417074596871196
 31
0.0
  0
LINE
  5
23F53
  8
0
 10
5638.7166390552620214
 20
19.9010660193841282
 30
0.0
 11
5638.7120845266390461
 21
19.9417074596871196
 31
0.0
  0
ARC
  5
23F54
  8
0
 10
5638.8100925444077802
 20
21.2084279283131814
 30
0.0
 40
1.317183496041044
 50
266.2512544137529176
 51
270.2852691463020278
  0
ARC
  5
23F55
  8
0
 10
5638.816611290558285
 20
19.8991606603521802
 30
0.0
 40
0.0079
 50
270.2852691463020278
 51
350.1413096496925732
  0
ARC
  5
23F56
  8
0
 10
5638.7244899103588978
 20
19.9019458342723716
 30
0.0
 40
0.0079
 50
186.3942368866437107
 51
266.2512544137529176
  0
ARC
  5
23F57
  8
0
 10
5638.7938661699163276
 20
20.6815526177507714
 30
0.0
 40
0.7897219375134487
 50
266.3348402963977719
 51
270.2467840546258913
  0
ARC
  5
23F58
  8
0
 10
5638.7491853634201107
 20
19.1841968678055501
 30
0.0
 40
0.7092727865933305
 50
86.1128830406755981
 51
90.4687413103847859
  0
LINE
  5
23F59
  8
0
 10
5639.6355312728874196
 20
19.8978080318142183
 30
0.0
 11
5639.6431603385381095
 21
19.9417074596871196
 31
0.0
  0
LINE
  5
23F5A
  8
0
 10
5639.527775696660683
 20
19.9010660193841282
 30
0.0
 11
5639.5232211680386172
 21
19.9417074596871196
 31
0.0
  0
ARC
  5
23F5B
  8
0
 10
5639.6212291858082608
 20
21.2084279283131814
 30
0.0
 40
1.317183496041044
 50
266.2512544137529176
 51
270.2852691463020278
  0
ARC
  5
23F5C
  8
0
 10
5639.6277479319569466
 20
19.8991606603521802
 30
0.0
 40
0.0079
 50
270.2852691463020278
 51
350.1413096496925732
  0
ARC
  5
23F5D
  8
0
 10
5639.5356265517575594
 20
19.9019458342723716
 30
0.0
 40
0.0079
 50
186.3942368866437107
 51
266.2512544137529176
  0
ARC
  5
23F5E
  8
0
 10
5639.6050028113158987
 20
20.6815526177507714
 30
0.0
 40
0.7897219375134487
 50
266.3348402963977719
 51
270.2467840546258913
  0
ARC
  5
23F5F
  8
0
 10
5639.5603220048196818
 20
19.1841968678055501
 30
0.0
 40
0.7092727865933305
 50
86.1128830406755981
 51
90.4687413103847859
  0
LINE
  5
23F60
  8
0
 10
5641.1183578797872542
 20
19.8978080318142183
 30
0.0
 11
5641.1259869454379441
 21
19.9417074596871196
 31
0.0
  0
LINE
  5
23F61
  8
0
 10
5641.0106023035623366
 20
19.9010660193841282
 30
0.0
 11
5641.0060477749384518
 21
19.9417074596871196
 31
0.0
  0
ARC
  5
23F62
  8
0
 10
5641.1040557927080954
 20
21.2084279283131814
 30
0.0
 40
1.317183496041044
 50
266.2512544137529176
 51
270.2852691463020278
  0
ARC
  5
23F63
  8
0
 10
5641.1105745388558717
 20
19.8991606603521802
 30
0.0
 40
0.0079
 50
270.2852691463020278
 51
350.1413096496925732
  0
ARC
  5
23F64
  8
0
 10
5641.0184531586583034
 20
19.9019458342723716
 30
0.0
 40
0.0079
 50
186.3942368866437107
 51
266.2512544137529176
  0
ARC
  5
23F65
  8
0
 10
5641.0878294182157333
 20
20.6815526177507714
 30
0.0
 40
0.7897219375134487
 50
266.3348402963977719
 51
270.2467840546258913
  0
ARC
  5
23F66
  8
0
 10
5641.0431486117204258
 20
19.1841968678055501
 30
0.0
 40
0.7092727865933305
 50
86.1128830406755981
 51
90.4687413103847859
  0
LINE
  5
23F67
  8
0
 10
5638.9915768559567368
 20
19.8975641669738117
 30
0.0
 11
5638.9994372415376347
 21
19.9417074596871196
 31
0.0
  0
LINE
  5
23F68
  8
0
 10
5638.8839033442172877
 20
19.9009879661019404
 30
0.0
 11
5638.8794843596369901
 21
19.9417074596871196
 31
0.0
  0
LINE
  5
23F69
  8
0
 10
5638.8914937264098626
 20
19.8941199274919391
 30
0.0
 11
5638.9835347493017252
 21
19.8910481844428801
 31
0.0
  0
ARC
  5
23F6A
  8
0
 10
5638.8914268096568776
 20
19.9016743411020798
 30
0.0
 40
0.0075547099775646
 50
185.2127342542866018
 51
270.5075109120288062
  0
ARC
  5
23F6B
  8
0
 10
5638.9837982542740065
 20
19.89894378860782
 30
0.0
 40
0.0079
 50
268.0885412998139259
 51
349.9425441140850808
  0
LINE
  5
23F6C
  8
0
 10
5639.1364902809573323
 20
19.8975641669738117
 30
0.0
 11
5639.1443506665382301
 21
19.9417074596871196
 31
0.0
  0
LINE
  5
23F6D
  8
0
 10
5639.0288167692178831
 20
19.9009879661019404
 30
0.0
 11
5639.0243977846394046
 21
19.9417074596871196
 31
0.0
  0
LINE
  5
23F6E
  8
0
 10
5639.0364071514113675
 20
19.8941199274919391
 30
0.0
 11
5639.1284481743023207
 21
19.8910481844428801
 31
0.0
  0
ARC
  5
23F6F
  8
0
 10
5639.0363402346556541
 20
19.9016743411020798
 30
0.0
 40
0.0075547099775682
 50
185.2127342542941051
 51
270.5075109119766807
  0
ARC
  5
23F70
  8
0
 10
5639.1287116792736924
 20
19.89894378860782
 30
0.0
 40
0.0079
 50
268.0885412998139259
 51
349.9425441140850808
  0
LINE
  5
23F71
  8
0
 10
5639.4536813928189076
 20
19.9009879661019404
 30
0.0
 11
5639.4492624082386101
 21
19.9417074596871196
 31
0.0
  0
LINE
  5
23F72
  8
0
 10
5639.461271775010573
 20
19.8941199274919391
 30
0.0
 11
5639.5533127979033452
 21
19.8910481844428801
 31
0.0
  0
ARC
  5
23F73
  8
0
 10
5639.4612048582557691
 20
19.9016743411020798
 30
0.0
 40
0.0075547099775683
 50
185.2127342543043085
 51
270.5075109119766807
  0
ARC
  5
23F74
  8
0
 10
5639.5535763028747169
 20
19.89894378860782
 30
0.0
 40
0.0079
 50
268.0885412998139259
 51
308.2584051480122866
  0
LINE
  5
23F75
  8
0
 10
5640.928461353865714
 20
19.8995176690349886
 30
0.0
 11
5640.9228876954375664
 21
19.9417074596871196
 31
0.0
  0
LINE
  5
23F76
  8
0
 10
5640.9362933046259059
 20
19.8926523415871195
 30
0.0
 11
5641.0284884828533905
 21
19.8926523415871195
 31
0.0
  0
ARC
  5
23F77
  8
0
 10
5640.9362933046259059
 20
19.9005523415871295
 30
0.0
 40
0.0079
 50
187.5257183692419005
 51
270.0
  0
ARC
  5
23F78
  8
0
 10
5641.0284884828533905
 20
19.9005523415871117
 30
0.0
 40
0.0079
 50
270.0
 51
292.3313333196804251
  0
LINE
  5
23F79
  8
0
 10
5640.8403745883433658
 20
19.8995221411722198
 30
0.0
 11
5640.8470418750366662
 21
19.9419049203871204
 31
0.0
  0
LINE
  5
23F7A
  8
0
 10
5640.7325434316662722
 20
19.8997151297349895
 30
0.0
 11
5640.7269697732381246
 21
19.9419049203871204
 31
0.0
  0
LINE
  5
23F7B
  8
0
 10
5640.7403753824273736
 20
19.8928498022871203
 30
0.0
 11
5640.8325705606530391
 21
19.8928498022871203
 31
0.0
  0
ARC
  5
23F7C
  8
0
 10
5640.7403753824273736
 20
19.9007498022871303
 30
0.0
 40
0.0079
 50
187.5257183692419005
 51
270.0
  0
ARC
  5
23F7D
  8
0
 10
5640.8325705606530391
 20
19.900749802287109
 30
0.0
 40
0.0079
 50
270.0
 51
351.0599961439230015
  0
LINE
  5
23F7E
  8
0
 10
5639.8441054083432391
 20
19.899324680472219
 30
0.0
 11
5639.8485081545777575
 21
19.9273121707647292
 31
0.0
  0
LINE
  5
23F7F
  8
0
 10
5639.7362742516661456
 20
19.8995176690349886
 30
0.0
 11
5639.730700593237998
 21
19.9417074596871196
 31
0.0
  0
LINE
  5
23F80
  8
0
 10
5639.7441062024263374
 20
19.8926523415871195
 30
0.0
 11
5639.8363013806529125
 21
19.8926523415871195
 31
0.0
  0
ARC
  5
23F81
  8
0
 10
5639.7441062024263374
 20
19.9005523415871295
 30
0.0
 40
0.0079
 50
187.5257183692419005
 51
270.0
  0
ARC
  5
23F82
  8
0
 10
5639.8363013806529125
 20
19.9005523415871117
 30
0.0
 40
0.0079
 50
270.0
 51
351.0599961439230015
  0
LINE
  5
23F83
  8
0
 10
5639.9600112199441355
 20
19.899324680472219
 30
0.0
 11
5639.9666785066374359
 21
19.9417074596871196
 31
0.0
  0
LINE
  5
23F84
  8
0
 10
5639.8521800632661325
 20
19.8995176690349886
 30
0.0
 11
5639.8466064048370754
 21
19.9417074596871196
 31
0.0
  0
LINE
  5
23F85
  8
0
 10
5639.8600120140263243
 20
19.8926523415871195
 30
0.0
 11
5639.9522071922528994
 21
19.8926523415871195
 31
0.0
  0
ARC
  5
23F86
  8
0
 10
5639.8600120140263243
 20
19.9005523415871295
 30
0.0
 40
0.0079
 50
187.5257183692419005
 51
270.0
  0
ARC
  5
23F87
  8
0
 10
5639.9522071922528994
 20
19.9005523415871117
 30
0.0
 40
0.0079
 50
270.0
 51
351.0599961439230015
  0
LINE
  5
23F88
  8
0
 10
5640.6926344073872315
 20
19.8980848678142195
 30
0.0
 11
5640.7002634730379214
 21
19.9419842956871207
 31
0.0
  0
LINE
  5
23F89
  8
0
 10
5640.5848788311623139
 20
19.9013428553841294
 30
0.0
 11
5640.5803243025393385
 21
19.9419842956871207
 31
0.0
  0
ARC
  5
23F8A
  8
0
 10
5640.6783323203080727
 20
21.208704764313179
 30
0.0
 40
1.317183496041044
 50
266.2512544137529176
 51
270.2852691463020278
  0
ARC
  5
23F8B
  8
0
 10
5640.6848510664558489
 20
19.8994374963521814
 30
0.0
 40
0.0079
 50
270.2852691463020278
 51
350.1413096496925732
  0
ARC
  5
23F8C
  8
0
 10
5640.5927296862582807
 20
19.9022226702723586
 30
0.0
 40
0.0079
 50
186.3942368866435118
 51
266.2512544137529176
  0
ARC
  5
23F8D
  8
0
 10
5640.6621059458157106
 20
20.681829453750769
 30
0.0
 40
0.7897219375134487
 50
266.3348402963977719
 51
270.2467840546258913
  0
ARC
  5
23F8E
  8
0
 10
5640.6174251393185841
 20
19.1844737038055513
 30
0.0
 40
0.7092727865933305
 50
86.1128830406755981
 51
90.4687413103847859
  0
LINE
  5
23F8F
  8
0
 10
5640.2374341712857131
 20
19.8978080318142183
 30
0.0
 11
5640.2450632369373125
 21
19.9417074596871196
 31
0.0
  0
LINE
  5
23F90
  8
0
 10
5640.129678595059886
 20
19.9010660193841282
 30
0.0
 11
5640.1251240664378201
 21
19.9417074596871196
 31
0.0
  0
ARC
  5
23F91
  8
0
 10
5640.2231320842083733
 20
21.2084279283131814
 30
0.0
 40
1.317183496041044
 50
266.2512544137529176
 51
270.2852691463020278
  0
ARC
  5
23F92
  8
0
 10
5640.2296508303561495
 20
19.8991606603521802
 30
0.0
 40
0.0079
 50
270.2852691463020278
 51
350.1413096496925732
  0
ARC
  5
23F93
  8
0
 10
5640.1375294501567623
 20
19.9019458342723716
 30
0.0
 40
0.0079
 50
186.3942368866435118
 51
266.2512544137529176
  0
ARC
  5
23F94
  8
0
 10
5640.2069057097151017
 20
20.6815526177507714
 30
0.0
 40
0.7897219375134487
 50
266.3348402963977719
 51
270.2467840546258913
  0
ARC
  5
23F95
  8
0
 10
5640.1622249032179752
 20
19.1841968678055501
 30
0.0
 40
0.7092727865933305
 50
86.1128830406755981
 51
90.4687413103847859
  0
LINE
  5
23F96
  8
0
 10
5640.2998009746434036
 20
19.8995221411722198
 30
0.0
 11
5640.306468261336704
 21
19.9419049203871204
 31
0.0
  0
LINE
  5
23F97
  8
0
 10
5640.2344029951782431
 20
19.8928498022871203
 30
0.0
 11
5640.2919969469521675
 21
19.8928498022871203
 31
0.0
  0
ARC
  5
23F98
  8
0
 10
5640.2919969469521675
 20
19.900749802287109
 30
0.0
 40
0.0079
 50
270.0
 51
351.0599961439230015
  0
LINE
  5
23F99
  8
0
 10
5641.5455241518820912
 20
19.8994084808360014
 30
0.0
 11
5641.5517162948381156
 21
19.9417074596871196
 31
0.0
  0
LINE
  5
23F9A
  8
0
 10
5641.4376800095451472
 20
19.8994084627255994
 30
0.0
 11
5641.4314878639379458
 21
19.9417074596871196
 31
0.0
  0
LINE
  5
23F9B
  8
0
 10
5641.4454966992580012
 20
19.8926527468631988
 30
0.0
 11
5641.5377074652724332
 21
19.8926527649736009
 31
0.0
  0
ARC
  5
23F9C
  8
0
 10
5641.4454966977073127
 20
19.9005527468632089
 30
0.0
 40
0.0079
 50
188.328366900837608
 51
270.000011252990987
  0
ARC
  5
23F9D
  8
0
 10
5641.5377074637199257
 20
19.9005527649736109
 30
0.0
 40
0.0079
 50
270.000011252990987
 51
351.6716330991762902
  0
LINE
  5
23F9E
  8
0
 10
5641.7733865503832931
 20
19.8994084808360014
 30
0.0
 11
5641.7795786933384079
 21
19.9417074596871196
 31
0.0
  0
LINE
  5
23F9F
  8
0
 10
5641.6655424080454395
 20
19.8994084627255994
 30
0.0
 11
5641.6593502624382381
 21
19.9417074596871196
 31
0.0
  0
LINE
  5
23FA0
  8
0
 10
5641.6733590977582935
 20
19.8926527468631988
 30
0.0
 11
5641.7655698637727255
 21
19.8926527649736009
 31
0.0
  0
ARC
  5
23FA1
  8
0
 10
5641.673359096205786
 20
19.9005527468632089
 30
0.0
 40
0.0079
 50
188.328366900837608
 51
270.000011252990987
  0
ARC
  5
23FA2
  8
0
 10
5641.7655698622211276
 20
19.9005527649736109
 30
0.0
 40
0.0079
 50
270.000011252990987
 51
351.6716330991762902
  0
LINE
  5
23FA3
  8
0
 10
5641.9247396658556681
 20
19.8987293421755709
 30
0.0
 11
5641.9312761014380158
 21
19.9417074596871196
 31
0.0
  0
LINE
  5
23FA4
  8
0
 10
5641.8169974989050388
 20
19.8997315288885588
 30
0.0
 11
5641.8113877394380324
 21
19.9417074596871196
 31
0.0
  0
ARC
  5
23FA5
  8
0
 10
5641.8781660166023357
 20
20.6800363987135007
 30
0.0
 40
0.7889816921385862
 50
266.0843658458351229
 51
272.8446388978011896
  0
ARC
  5
23FA6
  8
0
 10
5641.8743827331463763
 20
20.2925333159981989
 30
0.0
 40
0.4008058028724488
 50
265.6261968964424796
 51
273.3403498659293973
  0
ARC
  5
23FA7
  8
0
 10
5641.8671833855987643
 20
19.4942755308169318
 30
0.0
 40
0.3993035577184291
 50
85.6116638606689406
 51
93.354882901676234
  0
ARC
  5
23FA8
  8
0
 10
5641.9169294767234533
 20
19.8999171745217609
 30
0.0
 40
0.0079
 50
272.8446388978533719
 51
351.3522958380398791
  0
ARC
  5
23FA9
  8
0
 10
5641.8248278820292398
 20
19.9007779992114813
 30
0.0
 40
0.0079
 50
187.6120353066004895
 51
266.0843658457828269
  0
LINE
  5
23FAA
  8
0
 10
5642.3959136575040247
 20
19.8994085697505199
 30
0.0
 11
5642.4021057874379039
 21
19.9417074596871196
 31
0.0
  0
ARC
  5
23FAB
  8
0
 10
5642.3880969693427687
 20
19.9005528538871204
 30
0.0
 40
0.0079
 50
270.0
 51
351.6716331065215968
  0
LINE
  5
23FAC
  8
0
 10
5642.8211135819046831
 20
19.8994085697505199
 30
0.0
 11
5642.8273057118385623
 21
19.9417074596871196
 31
0.0
  0
LINE
  5
23FAD
  8
0
 10
5642.7132695030713876
 20
19.899408569768589
 30
0.0
 11
5642.7070773732393718
 21
19.9417074596871196
 31
0.0
  0
LINE
  5
23FAE
  8
0
 10
5642.7210861912335531
 20
19.8926528538871317
 30
0.0
 11
5642.8132968937434271
 21
19.8926528538871317
 31
0.0
  0
ARC
  5
23FAF
  8
0
 10
5642.7210861912335531
 20
19.9005528538871204
 30
0.0
 40
0.0079
 50
188.3283667609383087
 51
270.0
  0
ARC
  5
23FB0
  8
0
 10
5642.8132968937434271
 20
19.9005528538871204
 30
0.0
 40
0.0079
 50
270.0
 51
351.6716331065215968
  0
LINE
  5
23FB1
  8
0
 10
5649.2049109559720819
 20
20.0639770639314996
 30
0.0
 11
5649.1996298280446354
 21
20.01339934055067
 31
0.0
  0
LINE
  5
23FB2
  8
0
 10
5649.3879452202381799
 20
20.4127074596871196
 30
0.0
 11
5649.3787890503390372
 21
20.2032142910173711
 31
0.0
  0
ARC
  5
23FB3
  8
0
 10
5649.2988653506472474
 20
20.2067074596871201
 30
0.0
 40
0.08
 50
270.0
 51
357.4974065562415717
  0
ARC
  5
23FB4
  8
0
 10
5649.2745324530405924
 20
20.0567074596871109
 30
0.0
 40
0.07
 50
90.0
 51
174.0390000183519135
  0
ARC
  5
23FB5
  8
0
 10
5649.1200624028224411
 20
20.0217074596871214
 30
0.0
 40
0.08
 50
270.0
 51
354.039000018351885
  0
LINE
  5
23FB6
  8
0
 10
5643.9128598505367336
 20
20.4127074596871196
 30
0.0
 11
5643.9128598505367336
 21
21.4780854124871183
 31
0.0
  0
LINE
  5
23FB7
  8
0
 10
5643.687387409539042
 20
21.9334440529424803
 30
0.0
 11
5643.687387409539042
 21
22.6646208454871285
 31
0.0
  0
ARC
  5
23FB8
  8
0
 10
5643.1855850248075512
 20
21.1892897385254884
 30
0.0
 40
0.5366201861549768
 50
32.5595027353178992
 51
50.8719244167586666
  0
ARC
  5
23FB9
  8
0
 10
5643.5723874095383508
 20
21.6563610320885189
 30
0.0
 40
0.0699999999999993
 50
112.5403104635090017
 51
226.5223669288195936
  0
ARC
  5
23FBA
  8
0
 10
5643.4573874433899618
 20
21.9334440295367514
 30
0.0
 40
0.2299999661483514
 50
292.5403048331726836
 51
0.0000058306510589
  0
ARC
  5
23FBB
  8
0
 10
5643.6673874095386054
 20
22.6646208454871285
 30
0.0
 40
0.02
 50
0.0000000000024427
 51
90.0
  0
LINE
  5
23FBC
  8
0
 10
5643.3982172833366349
 20
21.4780854124871183
 30
0.0
 11
5643.3982172833366349
 21
21.0168256480884992
 31
0.0
  0
LINE
  5
23FBD
  8
0
 10
5642.9995159062391394
 20
22.5104787043871184
 30
0.0
 11
5642.9995143942369396
 21
21.9334440522871184
 31
0.0
  0
LINE
  5
23FBE
  8
0
 10
5643.0725427755105557
 20
21.8332400349129294
 30
0.0
 11
5643.3122370777036849
 21
21.8332400349129294
 31
0.0
  0
ARC
  5
23FBF
  8
0
 10
5643.1923899266066655
 20
22.0932970396450088
 30
0.0
 40
0.2863441728689501
 50
245.2574085192364066
 51
294.7425914807636218
  0
ARC
  5
23FC0
  8
0
 10
5643.1451355680092092
 20
21.9791635161153209
 30
0.0
 40
0.1629827472122665
 50
225.899771894688314
 51
243.5509577929078944
  0
ARC
  5
23FC1
  8
0
 10
5643.1056733187433565
 20
21.9384408665965189
 30
0.0
 40
0.1062764574365419
 50
182.694876782271308
 51
225.8993623237884094
  0
ARC
  5
23FC2
  8
0
 10
5643.3595604540651038
 20
22.4768020985888199
 30
0.0
 40
0.0423627506931542
 50
52.6512971426608729
 51
74.1369625828512397
  0
LINE
  5
23FC3
  8
0
 10
5643.3852589128391628
 20
22.5104787043871184
 30
0.0
 11
5643.3852604248377247
 21
21.9334440522871184
 31
0.0
  0
ARC
  5
23FC4
  8
0
 10
5643.239639251067274
 20
21.9791635161153209
 30
0.0
 40
0.1629827472122665
 50
296.4490422070919067
 51
314.1002281053114871
  0
ARC
  5
23FC5
  8
0
 10
5643.2791015003331268
 20
21.9384408665965189
 30
0.0
 40
0.1062764574365419
 50
314.1006376762113064
 51
357.3051232177285783
  0
ARC
  5
23FC6
  8
0
 10
5643.1923874095382416
 20
22.0666546524117493
 30
0.0
 40
0.4850365684137421
 50
68.3747716850896694
 51
111.6252283149103022
  0
ARC
  5
23FC7
  8
0
 10
5643.0252048038064459
 20
22.4768267049491399
 30
0.0
 40
0.0423364680206363
 50
105.8596930046082036
 51
127.356996693287897
  0
LINE
  5
23FC8
  8
0
 10
5643.0136349847771271
 20
22.5175515844711107
 30
0.0
 11
5643.3711398342993562
 21
22.5175515844711107
 31
0.0
  0
LINE
  5
23FC9
  8
0
 10
5643.5242224147514207
 20
21.6055660197630317
 30
0.0
 11
5642.8605524043250625
 21
21.6055660197630317
 31
0.0
  0
LINE
  5
23FCA
  8
0
 10
5644.2397878588199092
 20
19.8987293421755709
 30
0.0
 11
5644.2332514232375615
 21
19.9417074596871196
 31
0.0
  0
LINE
  5
23FCB
  8
0
 10
5644.3475300257723575
 20
19.8997315288885588
 30
0.0
 11
5644.3531397852384544
 21
19.9417074596871196
 31
0.0
  0
LINE
  5
23FCC
  8
0
 10
5644.0188597226715501
 20
19.8994085697505199
 30
0.0
 11
5644.0126675927385804
 21
19.9417074596871196
 31
0.0
  0
LINE
  5
23FCD
  8
0
 10
5644.1267038015066646
 20
19.899408569768589
 30
0.0
 11
5644.1328959313377709
 21
19.9417074596871196
 31
0.0
  0
LINE
  5
23FCE
  8
0
 10
5644.414057992294147
 20
19.8994084808360014
 30
0.0
 11
5644.4078658493381226
 21
19.9417074596871196
 31
0.0
  0
LINE
  5
23FCF
  8
0
 10
5648.0702906081887704
 20
19.8978080318142183
 30
0.0
 11
5648.06266154253899
 21
19.9417074596871196
 31
0.0
  0
LINE
  5
23FD0
  8
0
 10
5648.1780461844145975
 20
19.9010660193841282
 30
0.0
 11
5648.1826007130375729
 21
19.9417074596871196
 31
0.0
  0
LINE
  5
23FD1
  8
0
 10
5648.3521882366776481
 20
19.90131278398718
 30
0.0
 11
5648.3565231652382863
 21
19.9417074596871196
 31
0.0
  0
LINE
  5
23FD2
  8
0
 10
5648.2444508206472165
 20
19.8975549684639503
 30
0.0
 11
5648.2365652170237809
 21
19.9417074596871196
 31
0.0
  0
LINE
  5
23FD3
  8
0
 10
5648.3446090431871198
 20
19.8942649977532113
 30
0.0
 11
5648.2525034912787305
 21
19.8910486010741714
 31
0.0
  0
ARC
  5
23FD4
  8
0
 10
5648.3443420230860283
 20
19.9021513790313911
 30
0.0
 40
0.0078909004175642
 50
271.93920153386739
 51
353.8994461951359085
  0
ARC
  5
23FD5
  8
0
 10
5648.252227785262221
 20
19.89894378860782
 30
0.0
 40
0.0079
 50
190.1252175760166949
 51
271.9999999577165113
  0
ARC
  5
23FD6
  8
0
 10
5648.0845926952688387
 20
21.2084279283131814
 30
0.0
 40
1.317183496041044
 50
269.7147308536979153
 51
273.7487455862470824
  0
ARC
  5
23FD7
  8
0
 10
5648.078073949120153
 20
19.8991606603521802
 30
0.0
 40
0.0079
 50
189.8586903503073984
 51
269.7147308536979153
  0
ARC
  5
23FD8
  8
0
 10
5648.1701953293186307
 20
19.9019458342723716
 30
0.0
 40
0.0079
 50
273.7487455862470824
 51
353.6057631133563177
  0
ARC
  5
23FD9
  8
0
 10
5648.1008190697612008
 20
20.6815526177507714
 30
0.0
 40
0.7897219375134487
 50
269.7532159453741087
 51
273.6651597036022281
  0
ARC
  5
23FDA
  8
0
 10
5648.1454998762574178
 20
19.1841968678055501
 30
0.0
 40
0.7092727865933305
 50
89.5312586896152283
 51
93.8871169593244161
  0
LINE
  5
23FDB
  8
0
 10
5644.4647407922093407
 20
19.8926527565546003
 30
0.0
 11
5644.421874678903805
 21
19.8926527649736009
 31
0.0
  0
ARC
  5
23FDC
  8
0
 10
5644.421874680455403
 20
19.9005527649736109
 30
0.0
 40
0.0079
 50
188.3283669008237098
 51
269.9999887470091267
  0
LINE
  5
23FDD
  8
0
 10
5644.1188871133426801
 20
19.8926528538871317
 30
0.0
 11
5643.9966778497337145
 21
19.8926528538871317
 31
0.0
  0
ARC
  5
23FDE
  8
0
 10
5644.1188871133426801
 20
19.9005528538871204
 30
0.0
 40
0.0079
 50
270.0
 51
351.6716332390616913
  0
ARC
  5
23FDF
  8
0
 10
5644.0266764108337156
 20
19.9005528538871204
 30
0.0
 40
0.0079
 50
188.3283668934784032
 51
270.0
  0
ARC
  5
23FE0
  8
0
 10
5644.2863615080759701
 20
20.6800363987135007
 30
0.0
 40
0.7889816921385862
 50
267.1553611021986967
 51
273.9156341541648771
  0
ARC
  5
23FE1
  8
0
 10
5644.29014479153102
 20
20.2925333159981989
 30
0.0
 40
0.4008058028724488
 50
266.6596501340706027
 51
274.3738031035575204
  0
ARC
  5
23FE2
  8
0
 10
5644.297344139076813
 20
19.4942755308169318
 30
0.0
 40
0.3993035577184291
 50
86.6451170983237944
 51
94.3883361393310878
  0
ARC
  5
23FE3
  8
0
 10
5644.247598047953943
 20
19.8999171745217609
 30
0.0
 40
0.0079
 50
188.6477041619600072
 51
267.1553611021466281
  0
ARC
  5
23FE4
  8
0
 10
5644.3396996426472469
 20
19.9007779992114813
 30
0.0
 40
0.0079
 50
273.9156341542171731
 51
352.3879646933995105
  0
LINE
  5
23FE5
  8
0
 10
5647.5603801875877252
 20
19.8978080318142183
 30
0.0
 11
5647.5527511219379448
 21
19.9417074596871196
 31
0.0
  0
LINE
  5
23FE6
  8
0
 10
5647.6681357638135523
 20
19.9010660193841282
 30
0.0
 11
5647.6726902924383467
 21
19.9417074596871196
 31
0.0
  0
ARC
  5
23FE7
  8
0
 10
5647.5746822746677935
 20
21.2084279283131814
 30
0.0
 40
1.317183496041044
 50
269.7147308536979153
 51
273.7487455862470824
  0
ARC
  5
23FE8
  8
0
 10
5647.5681635285191078
 20
19.8991606603521802
 30
0.0
 40
0.0079
 50
189.8586903503073984
 51
269.7147308536979153
  0
ARC
  5
23FE9
  8
0
 10
5647.6602849087175855
 20
19.9019458342723716
 30
0.0
 40
0.0079
 50
273.7487455862470824
 51
353.6057631133563177
  0
ARC
  5
23FEA
  8
0
 10
5647.5909086491601556
 20
20.6815526177507714
 30
0.0
 40
0.7897219375134487
 50
269.7532159453741087
 51
273.6651597036022281
  0
ARC
  5
23FEB
  8
0
 10
5647.6355894556563726
 20
19.1841968678055501
 30
0.0
 40
0.7092727865933305
 50
89.5312586896152283
 51
93.8871169593244161
  0
LINE
  5
23FEC
  8
0
 10
5646.7492435461890636
 20
19.8978080318142183
 30
0.0
 11
5646.7416144805383738
 21
19.9417074596871196
 31
0.0
  0
LINE
  5
23FED
  8
0
 10
5646.8569991224148907
 20
19.9010660193841282
 30
0.0
 11
5646.8615536510378661
 21
19.9417074596871196
 31
0.0
  0
ARC
  5
23FEE
  8
0
 10
5646.7635456332691319
 20
21.2084279283131814
 30
0.0
 40
1.317183496041044
 50
269.7147308536979153
 51
273.7487455862470824
  0
ARC
  5
23FEF
  8
0
 10
5646.7570268871204462
 20
19.8991606603521802
 30
0.0
 40
0.0079
 50
189.8586903503073984
 51
269.7147308536979153
  0
ARC
  5
23FF0
  8
0
 10
5646.8491482673171049
 20
19.9019458342723716
 30
0.0
 40
0.0079
 50
273.7487455862470824
 51
353.6057631133563177
  0
ARC
  5
23FF1
  8
0
 10
5646.7797720077605845
 20
20.6815526177507714
 30
0.0
 40
0.7897219375134487
 50
269.7532159453741087
 51
273.6651597036022281
  0
ARC
  5
23FF2
  8
0
 10
5646.8244528142568015
 20
19.1841968678055501
 30
0.0
 40
0.7092727865933305
 50
89.5312586896152283
 51
93.8871169593244161
  0
LINE
  5
23FF3
  8
0
 10
5645.266416939289229
 20
19.8978080318142183
 30
0.0
 11
5645.2587878736394487
 21
19.9417074596871196
 31
0.0
  0
LINE
  5
23FF4
  8
0
 10
5645.3741725155150561
 20
19.9010660193841282
 30
0.0
 11
5645.3787270441380315
 21
19.9417074596871196
 31
0.0
  0
ARC
  5
23FF5
  8
0
 10
5645.2807190263683879
 20
21.2084279283131814
 30
0.0
 40
1.317183496041044
 50
269.7147308536979153
 51
273.7487455862470824
  0
ARC
  5
23FF6
  8
0
 10
5645.2742002802187926
 20
19.8991606603521802
 30
0.0
 40
0.0079
 50
189.8586903503073984
 51
269.7147308536979153
  0
ARC
  5
23FF7
  8
0
 10
5645.3663216604181798
 20
19.9019458342723716
 30
0.0
 40
0.0079
 50
273.7487455862470824
 51
353.6057631133563177
  0
ARC
  5
23FF8
  8
0
 10
5645.2969454008607499
 20
20.6815526177507714
 30
0.0
 40
0.7897219375134487
 50
269.7532159453741087
 51
273.6651597036022281
  0
ARC
  5
23FF9
  8
0
 10
5645.3416262073578764
 20
19.1841968678055501
 30
0.0
 40
0.7092727865933305
 50
89.5312586896152283
 51
93.8871169593244161
  0
LINE
  5
23FFA
  8
0
 10
5647.3931979631179274
 20
19.8975641669738117
 30
0.0
 11
5647.3853375775388486
 21
19.9417074596871196
 31
0.0
  0
LINE
  5
23FFB
  8
0
 10
5647.5008714748591956
 20
19.9009879661019404
 30
0.0
 11
5647.5052904594376741
 21
19.9417074596871196
 31
0.0
  0
LINE
  5
23FFC
  8
0
 10
5647.4932810926666207
 20
19.8941199274919391
 30
0.0
 11
5647.401240069774758
 21
19.8910481844428801
 31
0.0
  0
ARC
  5
23FFD
  8
0
 10
5647.4933480094214246
 20
19.9016743411020798
 30
0.0
 40
0.0075547099775646
 50
269.4924890879711938
 51
354.7872657457132846
  0
ARC
  5
23FFE
  8
0
 10
5647.4009765648033863
 20
19.89894378860782
 30
0.0
 40
0.0079
 50
190.0574558859146919
 51
271.9114587001860741
  0
LINE
  5
23FFF
  8
0
 10
5647.248284538119151
 20
19.8975641669738117
 30
0.0
 11
5647.2404241525382531
 21
19.9417074596871196
 31
0.0
  0
LINE
  5
24000
  8
0
 10
5647.3559580498586001
 20
19.9009879661019404
 30
0.0
 11
5647.3603770344379882
 21
19.9417074596871196
 31
0.0
  0
LINE
  5
24001
  8
0
 10
5647.3483676676669347
 20
19.8941199274919391
 30
0.0
 11
5647.2563266447741626
 21
19.8910481844428801
 31
0.0
  0
ARC
  5
24002
  8
0
 10
5647.3484345844208292
 20
19.9016743411020798
 30
0.0
 40
0.0075547099775682
 50
269.4924890880233193
 51
354.7872657457057244
  0
ARC
  5
24003
  8
0
 10
5647.2560631398018813
 20
19.89894378860782
 30
0.0
 40
0.0079
 50
190.0574558859146919
 51
271.9114587001860741
  0
LINE
  5
24004
  8
0
 10
5646.9310934262593946
 20
19.9009879661019404
 30
0.0
 11
5646.9355124108378732
 21
19.9417074596871196
 31
0.0
  0
LINE
  5
24005
  8
0
 10
5646.9235030440659102
 20
19.8941199274919391
 30
0.0
 11
5646.8314620211740475
 21
19.8910481844428801
 31
0.0
  0
ARC
  5
24006
  8
0
 10
5646.9235699608198047
 20
19.9016743411020798
 30
0.0
 40
0.0075547099775683
 50
269.4924890880233193
 51
354.7872657456957199
  0
ARC
  5
24007
  8
0
 10
5646.8311985162017663
 20
19.89894378860782
 30
0.0
 40
0.0079
 50
231.7415948519877134
 51
271.9114587001860741
  0
LINE
  5
24008
  8
0
 10
5645.4563134652098597
 20
19.8995176690349886
 30
0.0
 11
5645.4618871236380073
 21
19.9417074596871196
 31
0.0
  0
LINE
  5
24009
  8
0
 10
5645.4484815144487584
 20
19.8926523415871195
 30
0.0
 11
5645.3562863362230928
 21
19.8926523415871195
 31
0.0
  0
ARC
  5
2400A
  8
0
 10
5645.4484815144487584
 20
19.9005523415871295
 30
0.0
 40
0.0079
 50
270.0
 51
352.4742816307580142
  0
ARC
  5
2400B
  8
0
 10
5645.3562863362230928
 20
19.9005523415871117
 30
0.0
 40
0.0079
 50
247.6686666803196033
 51
270.0
  0
LINE
  5
2400C
  8
0
 10
5645.5444002307331175
 20
19.8995221411722198
 30
0.0
 11
5645.5377329440379981
 21
19.9419049203871204
 31
0.0
  0
LINE
  5
2400D
  8
0
 10
5645.652231387410211
 20
19.8997151297349895
 30
0.0
 11
5645.6578050458383586
 21
19.9419049203871204
 31
0.0
  0
LINE
  5
2400E
  8
0
 10
5645.6443994366500192
 20
19.8928498022871203
 30
0.0
 11
5645.5522042584234441
 21
19.8928498022871203
 31
0.0
  0
ARC
  5
2400F
  8
0
 10
5645.6443994366500192
 20
19.9007498022871303
 30
0.0
 40
0.0079
 50
270.0
 51
352.4742816307580142
  0
ARC
  5
24010
  8
0
 10
5645.5522042584234441
 20
19.900749802287109
 30
0.0
 40
0.0079
 50
188.9400038560769133
 51
270.0
  0
LINE
  5
24011
  8
0
 10
5646.5406694107332441
 20
19.899324680472219
 30
0.0
 11
5646.5362666644969067
 21
19.9273121707647292
 31
0.0
  0
LINE
  5
24012
  8
0
 10
5646.6485005674103377
 20
19.8995176690349886
 30
0.0
 11
5646.6540742258393948
 21
19.9417074596871196
 31
0.0
  0
LINE
  5
24013
  8
0
 10
5646.6406686166501459
 20
19.8926523415871195
 30
0.0
 11
5646.5484734384226613
 21
19.8926523415871195
 31
0.0
  0
ARC
  5
24014
  8
0
 10
5646.6406686166501459
 20
19.9005523415871295
 30
0.0
 40
0.0079
 50
270.0
 51
352.4742816307580142
  0
ARC
  5
24015
  8
0
 10
5646.5484734384226613
 20
19.9005523415871117
 30
0.0
 40
0.0079
 50
188.9400038560769133
 51
270.0
  0
LINE
  5
24016
  8
0
 10
5646.4247635991332572
 20
19.899324680472219
 30
0.0
 11
5646.4180963124390473
 21
19.9417074596871196
 31
0.0
  0
LINE
  5
24017
  8
0
 10
5646.5325947558112603
 20
19.8995176690349886
 30
0.0
 11
5646.5381684142375889
 21
19.9417074596871196
 31
0.0
  0
LINE
  5
24018
  8
0
 10
5646.5247628050501589
 20
19.8926523415871195
 30
0.0
 11
5646.4325676268235839
 21
19.8926523415871195
 31
0.0
  0
ARC
  5
24019
  8
0
 10
5646.5247628050501589
 20
19.9005523415871295
 30
0.0
 40
0.0079
 50
270.0
 51
352.4742816307580142
  0
ARC
  5
2401A
  8
0
 10
5646.4325676268235839
 20
19.9005523415871117
 30
0.0
 40
0.0079
 50
188.9400038560769133
 51
270.0
  0
LINE
  5
2401B
  8
0
 10
5645.6921404116892518
 20
19.8980848678142195
 30
0.0
 11
5645.6845113460385619
 21
19.9419842956871207
 31
0.0
  0
LINE
  5
2401C
  8
0
 10
5645.7998959879150789
 20
19.9013428553841294
 30
0.0
 11
5645.8044505165380542
 21
19.9419842956871207
 31
0.0
  0
ARC
  5
2401D
  8
0
 10
5645.7064424987684106
 20
21.208704764313179
 30
0.0
 40
1.317183496041044
 50
269.7147308536979153
 51
273.7487455862470824
  0
ARC
  5
2401E
  8
0
 10
5645.6999237526188153
 20
19.8994374963521814
 30
0.0
 40
0.0079
 50
189.8586903503073984
 51
269.7147308536979153
  0
ARC
  5
2401F
  8
0
 10
5645.7920451328182025
 20
19.9022226702723586
 30
0.0
 40
0.0079
 50
273.7487455862470824
 51
353.6057631133563177
  0
ARC
  5
24020
  8
0
 10
5645.7226688732607727
 20
20.681829453750769
 30
0.0
 40
0.7897219375134487
 50
269.7532159453741087
 51
273.6651597036022281
  0
ARC
  5
24021
  8
0
 10
5645.7673496797569896
 20
19.1844737038055513
 30
0.0
 40
0.7092727865933305
 50
89.5312586896152283
 51
93.8871169593244161
  0
LINE
  5
24022
  8
0
 10
5646.1473406477898607
 20
19.8978080318142183
 30
0.0
 11
5646.1397115821382613
 21
19.9417074596871196
 31
0.0
  0
LINE
  5
24023
  8
0
 10
5646.2550962240147783
 20
19.9010660193841282
 30
0.0
 11
5646.2596507526377536
 21
19.9417074596871196
 31
0.0
  0
ARC
  5
24024
  8
0
 10
5646.16164273486811
 20
21.2084279283131814
 30
0.0
 40
1.317183496041044
 50
269.7147308536979153
 51
273.7487455862470824
  0
ARC
  5
24025
  8
0
 10
5646.1551239887194242
 20
19.8991606603521802
 30
0.0
 40
0.0079
 50
189.8586903503073984
 51
269.7147308536979153
  0
ARC
  5
24026
  8
0
 10
5646.2472453689179019
 20
19.9019458342723716
 30
0.0
 40
0.0079
 50
273.7487455862470824
 51
353.6057631133563177
  0
ARC
  5
24027
  8
0
 10
5646.1778691093613816
 20
20.6815526177507714
 30
0.0
 40
0.7897219375134487
 50
269.7532159453741087
 51
273.6651597036022281
  0
ARC
  5
24028
  8
0
 10
5646.222549915856689
 20
19.1841968678055501
 30
0.0
 40
0.7092727865933305
 50
89.5312586896152283
 51
93.8871169593244161
  0
LINE
  5
24029
  8
0
 10
5646.0849738444330796
 20
19.8995221411722198
 30
0.0
 11
5646.0783065577388697
 21
19.9419049203871204
 31
0.0
  0
LINE
  5
2402A
  8
0
 10
5646.1503718239000591
 20
19.8928498022871203
 30
0.0
 11
5646.0927778721234063
 21
19.8928498022871203
 31
0.0
  0
ARC
  5
2402B
  8
0
 10
5646.0927778721234063
 20
19.900749802287109
 30
0.0
 40
0.0079
 50
188.9400038560769133
 51
270.0
  0
LINE
  5
2402C
  8
0
 10
5644.839250667194392
 20
19.8994084808360014
 30
0.0
 11
5644.8330585242392772
 21
19.9417074596871196
 31
0.0
  0
LINE
  5
2402D
  8
0
 10
5644.9470948095313361
 20
19.8994084627255994
 30
0.0
 11
5644.953286955137628
 21
19.9417074596871196
 31
0.0
  0
LINE
  5
2402E
  8
0
 10
5644.9392781198175726
 20
19.8926527468631988
 30
0.0
 11
5644.8470673538040501
 21
19.8926527649736009
 31
0.0
  0
ARC
  5
2402F
  8
0
 10
5644.93927812137008
 20
19.9005527468632089
 30
0.0
 40
0.0079
 50
269.9999887470091267
 51
351.6716330991624204
  0
ARC
  5
24030
  8
0
 10
5644.847067355355648
 20
19.9005527649736109
 30
0.0
 40
0.0079
 50
188.3283669008237098
 51
269.9999887470091267
  0
LINE
  5
24031
  8
0
 10
5644.6113882686940997
 20
19.8994084808360014
 30
0.0
 11
5644.6051961257380754
 21
19.9417074596871196
 31
0.0
  0
LINE
  5
24032
  8
0
 10
5644.7192324110310437
 20
19.8994084627255994
 30
0.0
 11
5644.7254245566382451
 21
19.9417074596871196
 31
0.0
  0
LINE
  5
24033
  8
0
 10
5644.7114157213181898
 20
19.8926527468631988
 30
0.0
 11
5644.6192049553037577
 21
19.8926527649736009
 31
0.0
  0
ARC
  5
24034
  8
0
 10
5644.7114157228697877
 20
19.9005527468632089
 30
0.0
 40
0.0079
 50
269.9999887470091267
 51
351.6716330991624204
  0
ARC
  5
24035
  8
0
 10
5644.6192049568553557
 20
19.9005527649736109
 30
0.0
 40
0.0079
 50
188.3283669008237098
 51
269.9999887470091267
  0
LINE
  5
24036
  8
0
 10
5644.4600351532199056
 20
19.8987293421755709
 30
0.0
 11
5644.453498717637558
 21
19.9417074596871196
 31
0.0
  0
LINE
  5
24037
  8
0
 10
5644.5677773201723539
 20
19.8997315288885588
 30
0.0
 11
5644.5733870796384508
 21
19.9417074596871196
 31
0.0
  0
ARC
  5
24038
  8
0
 10
5644.506608802475057
 20
20.6800363987135007
 30
0.0
 40
0.7889816921385862
 50
267.1553611021986967
 51
273.9156341541648771
  0
ARC
  5
24039
  8
0
 10
5644.5103920859310165
 20
20.2925333159981989
 30
0.0
 40
0.4008058028724488
 50
266.6596501340706027
 51
274.3738031035575204
  0
ARC
  5
2403A
  8
0
 10
5644.5175914334759
 20
19.4942755308169318
 30
0.0
 40
0.3993035577184291
 50
86.6451170983237944
 51
94.3883361393310878
  0
ARC
  5
2403B
  8
0
 10
5644.4678453423539395
 20
19.8999171745217609
 30
0.0
 40
0.0079
 50
188.6477041619600072
 51
267.1553611021466281
  0
ARC
  5
2403C
  8
0
 10
5644.5599469370472434
 20
19.9007779992114813
 30
0.0
 40
0.0079
 50
273.9156341542171731
 51
352.3879646933995105
  0
LINE
  5
2403D
  8
0
 10
5643.988861161573368
 20
19.8994085697505199
 30
0.0
 11
5643.9826690316385793
 21
19.9417074596871196
 31
0.0
  0
ARC
  5
2403E
  8
0
 10
5643.9966778497337145
 20
19.9005528538871204
 30
0.0
 40
0.0079
 50
188.3283668934784032
 51
270.0
  0
LINE
  5
2403F
  8
0
 10
5643.5636612371718002
 20
19.8994085697505199
 30
0.0
 11
5643.557469107237921
 21
19.9417074596871196
 31
0.0
  0
LINE
  5
24040
  8
0
 10
5643.6715053160069147
 20
19.899408569768589
 30
0.0
 11
5643.6776974458380209
 21
19.9417074596871196
 31
0.0
  0
LINE
  5
24041
  8
0
 10
5643.6636886278420207
 20
19.8926528538871317
 30
0.0
 11
5643.5714779253330562
 21
19.8926528538871317
 31
0.0
  0
ARC
  5
24042
  8
0
 10
5643.6636886278420207
 20
19.9005528538871204
 30
0.0
 40
0.0079
 50
270.0
 51
351.6716332390616913
  0
ARC
  5
24043
  8
0
 10
5643.5714779253330562
 20
19.9005528538871204
 30
0.0
 40
0.0079
 50
188.3283668934784032
 51
270.0
  0
LINE
  5
24044
  8
0
 10
5644.339181111688049
 20
25.4157192946871184
 30
0.0
 11
5642.0455937073884343
 21
25.4157192946871184
 31
0.0
  0
LINE
  5
24045
  8
0
 10
5642.203244855288176
 20
25.2677192946871187
 30
0.0
 11
5644.1815299637883072
 21
25.2677192946871187
 31
0.0
  0
LINE
  5
24046
  8
0
 10
5641.9935603463081861
 20
25.6900746813748704
 30
0.0
 11
5642.003632507767179
 21
25.4559143774128103
 31
0.0
  0
ARC
  5
24047
  8
0
 10
5642.0085464890298681
 20
25.6907192946871312
 30
0.0
 40
0.015
 50
90.0
 51
182.4629999824335016
  0
ARC
  5
24048
  8
0
 10
5642.0455937073884343
 20
25.45771929468712
 30
0.0
 40
0.042
 50
182.4629999824163917
 51
270.0
  0
LINE
  5
24049
  8
0
 10
5642.1617644708312582
 20
25.3031331193713314
 30
0.0
 11
5642.1485740376274407
 21
25.3862077741169401
 31
0.0
  0
ARC
  5
2404A
  8
0
 10
5642.203244855288176
 20
25.3097192946871097
 30
0.0
 40
0.042
 50
189.0219999650875877
 51
270.0
  0
ARC
  5
2404B
  8
0
 10
5642.1140070505789481
 20
25.3807192946871183
 30
0.0
 40
0.035
 50
9.0219999650936877
 51
90.0
  0
LINE
  5
2404C
  8
0
 10
5644.3912144727682971
 20
25.6900746813748704
 30
0.0
 11
5644.3811423113102137
 21
25.4559143774128103
 31
0.0
  0
ARC
  5
2404D
  8
0
 10
5644.3762283300447962
 20
25.6907192946871312
 30
0.0
 40
0.015
 50
357.5370000175664131
 51
90.0
  0
ARC
  5
2404E
  8
0
 10
5644.339181111688049
 20
25.45771929468712
 30
0.0
 40
0.042
 50
270.0
 51
357.537000017583523
  0
LINE
  5
2404F
  8
0
 10
5644.223010348245225
 20
25.3031331193713314
 30
0.0
 11
5644.2362007814490426
 21
25.3862077741169401
 31
0.0
  0
ARC
  5
24050
  8
0
 10
5644.1815299637883072
 20
25.3097192946871097
 30
0.0
 40
0.042
 50
270.0
 51
350.978000034912327
  0
ARC
  5
24051
  8
0
 10
5644.2707677684957162
 20
25.3807192946871183
 30
0.0
 40
0.035
 50
90.0
 51
170.9780000349063016
  0
ENDSEC
  0
EOF
