  0
SECTION
  2
HEADER
  9
$ACADVER
  1
AC1009
  9
$INSBASE
 10
5822.1292218210573992
 20
-4.2093623671069009
 30
0.0
  9
$EXTMIN
 10
5821.723721821057552
 20
-7.8093623671068997
 30
0.0
  9
$EXTMAX
 10
5822.5347218210572464
 20
-3.8038623671069001
 30
0.0
  9
$LIMMIN
 10
0.0
 20
0.0
  9
$LIMMAX
 10
11.6929133858000007
 20
8.2677165353999982
  9
$ORTHOMODE
 70
     0
  9
$REGENMODE
 70
     1
  9
$FILLMODE
 70
     1
  9
$QTEXTMODE
 70
     0
  9
$MIRRTEXT
 70
     0
  9
$DRAGMODE
 70
     2
  9
$LTSCALE
 40
0.6431102362
  9
$OSMODE
 70
  4095
  9
$ATTMODE
 70
     1
  9
$TEXTSIZE
 40
0.2
  9
$TRACEWID
 40
0.05
  9
$TEXTSTYLE
  7
STANDARD
  9
$CLAYER
  8
0
  9
$CELTYPE
  6
BYLAYER
  9
$CECOLOR
 62
   256
  9
$DIMSCALE
 40
1.0
  9
$DIMASZ
 40
0.1875
  9
$DIMEXO
 40
0.0625
  9
$DIMDLI
 40
0.4443307087
  9
$DIMRND
 40
0.0
  9
$DIMDLE
 40
0.0
  9
$DIMEXE
 40
0.125
  9
$DIMTP
 40
0.01
  9
$DIMTM
 40
0.01
  9
$DIMTXT
 40
2.0
  9
$DIMCEN
 40
0.1052362205
  9
$DIMTSZ
 40
0.0
  9
$DIMTOL
 70
     1
  9
$DIMLIM
 70
     0
  9
$DIMTIH
 70
     1
  9
$DIMTOH
 70
     1
  9
$DIMSE1
 70
     0
  9
$DIMSE2
 70
     0
  9
$DIMTAD
 70
     0
  9
$DIMZIN
 70
     0
  9
$DIMBLK
  1

  9
$DIMASO
 70
     1
  9
$DIMSHO
 70
     1
  9
$DIMPOST
  1
\X
  9
$DIMAPOST
  1

  9
$DIMALT
 70
     1
  9
$DIMALTD
 70
     2
  9
$DIMALTF
 40
25.3999999999999986
  9
$DIMLFAC
 40
1.0
  9
$DIMTOFL
 70
     0
  9
$DIMTVP
 40
0.0
  9
$DIMTIX
 70
     0
  9
$DIMSOXD
 70
     0
  9
$DIMSAH
 70
     0
  9
$DIMBLK1
  1

  9
$DIMBLK2
  1

  9
$DIMSTYLE
  2
STANDARD
  9
$DIMCLRD
 70
     0
  9
$DIMCLRE
 70
     0
  9
$DIMCLRT
 70
     0
  9
$DIMTFAC
 40
1.0
  9
$DIMGAP
 40
0.09
  9
$LUNITS
 70
     2
  9
$LUPREC
 70
     4
  9
$SKETCHINC
 40
0.1
  9
$FILLETRAD
 40
0.0
  9
$AUNITS
 70
     0
  9
$AUPREC
 70
     0
  9
$MENU
  1
.
  9
$ELEVATION
 40
0.0
  9
$PELEVATION
 40
0.0
  9
$THICKNESS
 40
0.0
  9
$LIMCHECK
 70
     0
  9
$BLIPMODE
 70
     0
  9
$CHAMFERA
 40
0.0
  9
$CHAMFERB
 40
0.0
  9
$SKPOLY
 70
     0
  9
$TDCREATE
 40
2458060.468368056230247
  9
$TDUPDATE
 40
2460334.6698148148134351
  9
$TDINDWG
 40
0.6252153935
  9
$TDUSRTIMER
 40
0.6252153935
  9
$USRTIMER
 70
     1
  9
$ANGBASE
 50
0.0
  9
$ANGDIR
 70
     0
  9
$PDMODE
 70
     0
  9
$PDSIZE
 40
0.3125
  9
$PLINEWID
 40
0.0
  9
$COORDS
 70
     1
  9
$SPLFRAME
 70
     0
  9
$SPLINETYPE
 70
     6
  9
$SPLINESEGS
 70
     8
  9
$ATTDIA
 70
     1
  9
$ATTREQ
 70
     1
  9
$HANDLING
 70
     1
  9
$HANDSEED
  5
25300
  9
$SURFTAB1
 70
     6
  9
$SURFTAB2
 70
     6
  9
$SURFTYPE
 70
     6
  9
$SURFU
 70
     6
  9
$SURFV
 70
     6
  9
$UCSNAME
  2

  9
$UCSORG
 10
0.0
 20
0.0
 30
0.0
  9
$UCSXDIR
 10
1.0
 20
0.0
 30
0.0
  9
$UCSYDIR
 10
0.0
 20
1.0
 30
0.0
  9
$PUCSNAME
  2

  9
$PUCSORG
 10
0.0
 20
0.0
 30
0.0
  9
$PUCSXDIR
 10
1.0
 20
0.0
 30
0.0
  9
$PUCSYDIR
 10
0.0
 20
1.0
 30
0.0
  9
$USERI1
 70
     0
  9
$USERI2
 70
     0
  9
$USERI3
 70
     0
  9
$USERI4
 70
     0
  9
$USERI5
 70
     0
  9
$USERR1
 40
0.0
  9
$USERR2
 40
0.0
  9
$USERR3
 40
0.0
  9
$USERR4
 40
0.0
  9
$USERR5
 40
0.0
  9
$WORLDVIEW
 70
     1
  9
$SHADEDGE
 70
     3
  9
$SHADEDIF
 70
    70
  9
$TILEMODE
 70
     1
  9
$MAXACTVP
 70
    64
  9
$PLIMCHECK
 70
     0
  9
$PEXTMIN
 10
1.0000000000000000E+20
 20
1.0000000000000000E+20
 30
1.0000000000000000E+20
  9
$PEXTMAX
 10
-1.0000000000000000E+20
 20
-1.0000000000000000E+20
 30
-1.0000000000000000E+20
  9
$PLIMMIN
 10
0.0
 20
0.0
  9
$PLIMMAX
 10
12.0
 20
9.0
  9
$UNITMODE
 70
     0
  9
$VISRETAIN
 70
     1
  9
$PLINEGEN
 70
     0
  9
$PSLTSCALE
 70
     1
  0
ENDSEC
  0
SECTION
  2
TABLES
  0
TABLE
  2
VPORT
 70
     1
  0
VPORT
  2
*ACTIVE
 70
     0
 10
0.0
 20
0.0
 11
1.0
 21
1.0
 12
2029.7713116648069445
 22
-125.987268800212405
 13
0.0
 23
0.0
 14
1.0
 24
1.0
 15
0.0
 25
0.0
 16
0.0
 26
0.0
 36
5.1040778033513332
 17
3792.35791015625
 27
120.1806564331053977
 37
0.0
 40
4.0417488687782699
 41
2.8610271903323259
 42
50.0
 43
0.0
 44
0.0
 50
0.0
 51
0.0
 71
     0
 72
   100
 73
     1
 74
     1
 75
     0
 76
     0
 77
     0
 78
     0
  0
ENDTAB
  0
TABLE
  2
LTYPE
 70
     2
  0
LTYPE
  2
CONTINUOUS
 70
     0
  3
Solid line
 72
    65
 73
     0
 40
0.0
  0
LTYPE
  2
PHANTOM2
 70
     0
  3
___ _ _ ___ _ _ ___ _ _ ___ _ _
 72
    65
 73
     6
 40
1.25
 49
0.625
 49
-0.125
 49
0.125
 49
-0.125
 49
0.125
 49
-0.125
  0
ENDTAB
  0
TABLE
  2
LAYER
 70
     2
  0
LAYER
  2
0
 70
     0
 62
   255
  6
CONTINUOUS
  0
LAYER
  2
DEFPOINTS
 70
     0
 62
     7
  6
CONTINUOUS
  0
ENDTAB
  0
TABLE
  2
STYLE
 70
     1
  0
STYLE
  2
STANDARD
 70
     0
 40
0.0
 41
0.8
 50
0.0
 71
     0
 42
0.2
  3
txt
  4

  0
ENDTAB
  0
TABLE
  2
VIEW
 70
     0
  0
ENDTAB
  0
TABLE
  2
UCS
 70
     0
  0
ENDTAB
  0
TABLE
  2
APPID
 70
     9
  0
APPID
  2
ACAD
 70
     0
  0
APPID
  2
ACAD_MLEADERVER
 70
     0
  0
APPID
  2
ACAD_EXEMPT_FROM_CAD_STANDARDS
 70
     0
  0
APPID
  2
ACAD_NAV_VCDISPLAY
 70
     0
  0
APPID
  2
ACAECLAYERSTANDARD
 70
     0
  0
APPID
  2
ACCMTRANSPARENCY
 70
     0
  0
APPID
  2
ACAD_DSTYLE_DIMJAG
 70
     0
  0
APPID
  2
ACAD_DSTYLE_DIMTALN
 70
     0
  0
APPID
  2
ACDBATTR
 70
     0
  0
ENDTAB
  0
TABLE
  2
DIMSTYLE
 70
     1
  0
DIMSTYLE
  2
STANDARD
 70
     0
  3

  4

  5

  6

  7

 40
1.0
 41
0.1875
 42
0.0625
 43
0.38
 44
0.125
 45
0.0
 46
0.0
 47
0.01
 48
0.01
140
0.15625
141
0.09
142
0.0
143
25.3999999999999986
144
1.0
145
0.0
146
1.0
147
0.09
 71
     1
 72
     0
 73
     1
 74
     1
 75
     0
 76
     0
 77
     0
 78
     4
170
     0
171
     2
172
     0
173
     0
174
     0
175
     0
176
     0
177
     0
178
     0
  0
ENDTAB
  0
ENDSEC
  0
SECTION
  2
BLOCKS
  0
BLOCK
  8
0
  2
$MODEL_SPACE
 70
     0
 10
0.0
 20
0.0
 30
0.0
  3
$MODEL_SPACE
  1

  0
ENDBLK
  5
21
  8
0
  0
BLOCK
 67
     1
  8
0
  2
$PAPER_SPACE
 70
     0
 10
0.0
 20
0.0
 30
0.0
  3
$PAPER_SPACE
  1

  0
ENDBLK
  5
1D
 67
     1
  8
0
  0
BLOCK
  8
0
  2
_FILLED
 70
     0
 10
0.0
 20
0.0
 30
0.0
  3
_FILLED
  1

  0
SOLID
  5
1D213
  8
0
  6
BYBLOCK
 62
     0
 10
0.0
 20
0.0
 30
0.0
 11
-1.0
 21
0.1666666667
 31
0.0
 12
-1.0
 22
-0.1666666667
 32
0.0
 13
-1.0
 23
-0.1666666667
 33
0.0
  0
ENDBLK
  5
1D214
  8
0
  6
BYBLOCK
 62
     0
  0
ENDSEC
  0
SECTION
  2
ENTITIES
  0
ATTDEF
  5
3930
  8
DEFPOINTS
 10
5822.1293510858686204
 20
-4.2121865098499853
 30
0.0
 40
0.001
  1
P21523-00
  3

  2
MODELNUMBER
 70
     0
1001
ACDBATTR
1070
     0
1070
     1
  0
ATTDEF
  5
3931
  8
DEFPOINTS
 10
5822.1293510858686204
 20
-4.2138531765166496
 30
0.0
 40
0.001
  1

  3

  2
TRADENAME
 70
     0
1001
ACDBATTR
1070
     0
1070
     1
  0
ATTDEF
  5
3932
  8
DEFPOINTS
 10
5822.1293510858686204
 20
-4.2155198431833147
 30
0.0
 40
0.001
  1
SHOWER ARM
  3

  2
PRODUCT
 70
     0
1001
ACDBATTR
1070
     0
1070
     1
  0
LINE
  5
2505C
  8
0
 10
5822.5347218210572464
 20
-7.2292721594069
 30
0.0
 11
5822.5347218210572464
 21
-4.2093623671069
 31
0.0
  0
LINE
  5
2505D
  8
0
 10
5821.723721821057552
 20
-7.2067791105068979
 30
0.0
 11
5821.723721821057552
 21
-4.2093623671069
 31
0.0
  0
LINE
  5
2505E
  8
0
 10
5822.5347218210572464
 20
-7.8093623671068997
 30
0.0
 11
5821.7540146453593479
 21
-7.8093623671068997
 31
0.0
  0
ARC
  5
2505F
  8
0
 10
5822.1292218210573992
 20
-4.2093623671069
 30
0.0
 40
0.4055
 50
0.0
 51
180.0
  0
LINE
  5
25060
  8
0
 10
5822.5347092058373164
 20
-7.2671653234684008
 30
0.0
 11
5822.5347092058373164
 21
-7.2741709865235942
 31
0.0
  0
LINE
  5
25061
  8
0
 10
5822.5347092058373164
 20
-7.3122520477966271
 30
0.0
 11
5822.5347092058373164
 21
-7.3191697594562548
 31
0.0
  0
LINE
  5
25062
  8
0
 10
5822.5347092058373164
 20
-7.3572541098298823
 30
0.0
 11
5822.5347092058373164
 21
-7.3640602057683999
 31
0.0
  0
LINE
  5
25063
  8
0
 10
5822.5347092058373164
 20
-7.4022525720569101
 30
0.0
 11
5822.5347092058373164
 21
-7.4091697546880342
 31
0.0
  0
LINE
  5
25064
  8
0
 10
5822.5347092058373164
 20
-7.4471653234684014
 30
0.0
 11
5822.5347092058373164
 21
-7.4540602057683998
 31
0.0
  0
LINE
  5
25065
  8
0
 10
5822.5347092058373164
 20
-7.4922544522470931
 30
0.0
 11
5822.5347092058373164
 21
-7.4991721082555793
 31
0.0
  0
LINE
  5
25066
  8
0
 10
5822.5347092058373164
 20
-7.5371653234683968
 30
0.0
 11
5822.5347092058373164
 21
-7.5440830351280264
 31
0.0
  0
LINE
  5
25067
  8
0
 10
5822.5347092058373164
 20
-7.5822531019716948
 30
0.0
 11
5822.5347092058373164
 21
-7.5891708136313198
 31
0.0
  0
LINE
  5
25068
  8
0
 10
5822.5347092058373164
 20
-7.6272493166765374
 30
0.0
 11
5822.5347092058373164
 21
-7.6341670283361553
 31
0.0
  0
LINE
  5
25069
  8
0
 10
5822.5347092058373164
 20
-7.6722542350450391
 30
0.0
 11
5822.5347092058373164
 21
-7.6791696804300216
 31
0.0
  0
LINE
  5
2506A
  8
0
 10
5822.5347092058373164
 20
-7.7170576310374237
 30
0.0
 11
5822.5347092058373164
 21
-7.7239753426970532
 31
0.0
  0
LINE
  5
2506B
  8
0
 10
5822.5347092058373164
 20
-7.7621653234684018
 30
0.0
 11
5822.5347092058373164
 21
-7.7690602057684011
 31
0.0
  0
LINE
  5
2506C
  8
0
 10
5822.5347217079579423
 20
-7.8071648866069001
 30
0.0
 11
5822.5018896231140388
 21
-7.788122225014388
 31
0.0
  0
LINE
  5
2506D
  8
0
 10
5822.5018896231140388
 20
-7.788122225014388
 30
0.0
 11
5822.5347092058373164
 21
-7.7690602057684011
 31
0.0
  0
LINE
  5
2506E
  8
0
 10
5822.5347218210572464
 20
-7.2292721594069
 30
0.0
 11
5822.5019137581612085
 21
-7.2481130737302806
 31
0.0
  0
LINE
  5
2506F
  8
0
 10
5822.5019137581612085
 20
-7.2481130737302806
 30
0.0
 11
5822.5347092058373164
 21
-7.2671653234684008
 31
0.0
  0
LINE
  5
25070
  8
0
 10
5822.5347092058373164
 20
-7.2741709865235942
 30
0.0
 11
5822.5019052669431403
 21
-7.2931150095348274
 31
0.0
  0
LINE
  5
25071
  8
0
 10
5822.5019052669431403
 20
-7.2931150095348274
 30
0.0
 11
5822.5347092058373164
 21
-7.3122520477966271
 31
0.0
  0
LINE
  5
25072
  8
0
 10
5822.5347092058373164
 20
-7.3191697594562548
 30
0.0
 11
5822.5019013559376617
 21
-7.3381118755904389
 31
0.0
  0
LINE
  5
25073
  8
0
 10
5822.5019013559376617
 20
-7.3381118755904389
 30
0.0
 11
5822.5347092058373164
 21
-7.3572541098298823
 31
0.0
  0
LINE
  5
25074
  8
0
 10
5822.5347092058373164
 20
-7.3640602057683999
 30
0.0
 11
5822.5019022913711524
 21
-7.3831142056093464
 31
0.0
  0
LINE
  5
25075
  8
0
 10
5822.5019022913711524
 20
-7.3831142056093464
 30
0.0
 11
5822.5347092058373164
 21
-7.4022525720569101
 31
0.0
  0
LINE
  5
25076
  8
0
 10
5822.5347092058373164
 20
-7.4091697546880368
 30
0.0
 11
5822.5019036233297811
 21
-7.4281108750861664
 31
0.0
  0
LINE
  5
25077
  8
0
 10
5822.5019036233297811
 20
-7.4281108750861664
 30
0.0
 11
5822.5347092058373164
 21
-7.4471653234684041
 31
0.0
  0
LINE
  5
25078
  8
0
 10
5822.5347092058373164
 20
-7.4540602057683998
 30
0.0
 11
5822.501913310571581
 21
-7.4731116043523791
 31
0.0
  0
LINE
  5
25079
  8
0
 10
5822.501913310571581
 20
-7.4731116043523791
 30
0.0
 11
5822.5347092058373164
 21
-7.4922544522470931
 31
0.0
  0
LINE
  5
2507A
  8
0
 10
5822.5347092058373164
 20
-7.4991721082555793
 30
0.0
 11
5822.5019084595760432
 21
-7.518115231754483
 31
0.0
  0
LINE
  5
2507B
  8
0
 10
5822.5019084595760432
 20
-7.518115231754483
 30
0.0
 11
5822.5347092058373164
 21
-7.5371653234683968
 31
0.0
  0
LINE
  5
2507C
  8
0
 10
5822.5347092058373164
 20
-7.5440830351280264
 30
0.0
 11
5822.5019136690207233
 21
-7.5631133726647768
 31
0.0
  0
LINE
  5
2507D
  8
0
 10
5822.5019136690207233
 20
-7.5631133726647768
 30
0.0
 11
5822.5347092058373164
 21
-7.5822531019716921
 31
0.0
  0
LINE
  5
2507E
  8
0
 10
5822.5347092058373164
 20
-7.5891708136313198
 30
0.0
 11
5822.5014911608368493
 21
-7.6083537900684002
 31
0.0
  0
LINE
  5
2507F
  8
0
 10
5822.5014911608368493
 20
-7.6083537900684002
 30
0.0
 11
5822.5347092058373164
 21
-7.6272493166765374
 31
0.0
  0
LINE
  5
25080
  8
0
 10
5822.5347092058373164
 20
-7.634167028336166
 30
0.0
 11
5822.5019016196365556
 21
-7.6531116880895924
 31
0.0
  0
LINE
  5
25081
  8
0
 10
5822.5019016196365556
 20
-7.6531116880895924
 30
0.0
 11
5822.5347092058373164
 21
-7.6722542350450418
 31
0.0
  0
LINE
  5
25082
  8
0
 10
5822.5347092058373164
 20
-7.679169680430018
 30
0.0
 11
5822.5018463968863216
 21
-7.69807482068697
 31
0.0
  0
LINE
  5
25083
  8
0
 10
5822.5018463968863216
 20
-7.69807482068697
 30
0.0
 11
5822.5347092058373164
 21
-7.717057631037421
 31
0.0
  0
LINE
  5
25084
  8
0
 10
5822.5347092058373164
 20
-7.7239753426970532
 30
0.0
 11
5822.5018403314370516
 21
-7.743117179268399
 31
0.0
  0
LINE
  5
25085
  8
0
 10
5822.5018403314370516
 20
-7.743117179268399
 30
0.0
 11
5822.5347092058373164
 21
-7.7621653234684018
 31
0.0
  0
LINE
  5
25086
  8
0
 10
5822.5347217079579423
 20
-7.8071648866069001
 30
0.0
 11
5822.5157844195582584
 21
-7.8093623671068997
 31
0.0
  0
LINE
  5
25087
  8
0
 10
5821.723721821057552
 20
-7.2446721139069039
 30
0.0
 11
5821.723721821057552
 21
-7.2516758599953874
 31
0.0
  0
LINE
  5
25088
  8
0
 10
5821.723721821057552
 20
-7.2896721139069021
 30
0.0
 11
5821.723721821057552
 21
-7.29666837412947
 31
0.0
  0
LINE
  5
25089
  8
0
 10
5821.723721821057552
 20
-7.3346721139069002
 30
0.0
 11
5821.723721821057552
 21
-7.3416677832324648
 31
0.0
  0
LINE
  5
2508A
  8
0
 10
5821.723721821057552
 20
-7.3795613407293912
 30
0.0
 11
5821.723721821057552
 21
-7.3866668609333663
 31
0.0
  0
LINE
  5
2508B
  8
0
 10
5821.723721821057552
 20
-7.4246721139069001
 30
0.0
 11
5821.723721821057552
 21
-7.4316699155374426
 31
0.0
  0
LINE
  5
2508C
  8
0
 10
5821.723721821057552
 20
-7.4696721139068982
 30
0.0
 11
5821.723721821057552
 21
-7.4766764860418728
 31
0.0
  0
LINE
  5
2508D
  8
0
 10
5821.723721821057552
 20
-7.5145626109530843
 30
0.0
 11
5821.723721821057552
 21
-7.521672672876881
 31
0.0
  0
LINE
  5
2508E
  8
0
 10
5821.723721821057552
 20
-7.5596721139069007
 30
0.0
 11
5821.723721821057552
 21
-7.5666755712506326
 31
0.0
  0
LINE
  5
2508F
  8
0
 10
5821.723721821057552
 20
-7.6046721139069033
 30
0.0
 11
5821.723721821057552
 21
-7.6116680435570476
 31
0.0
  0
LINE
  5
25090
  8
0
 10
5821.723721821057552
 20
-7.6496721139069006
 30
0.0
 11
5821.723721821057552
 21
-7.6566678869971154
 31
0.0
  0
LINE
  5
25091
  8
0
 10
5821.723721821057552
 20
-7.6946721139068961
 30
0.0
 11
5821.723721821057552
 21
-7.7016132007461717
 31
0.0
  0
LINE
  5
25092
  8
0
 10
5821.723721821057552
 20
-7.7396721139069014
 30
0.0
 11
5821.723721821057552
 21
-7.7466560364142891
 31
0.0
  0
LINE
  5
25093
  8
0
 10
5821.723721821057552
 20
-7.7846856942068978
 30
0.0
 11
5821.723721821057552
 21
-7.7915669962069023
 31
0.0
  0
LINE
  5
25094
  8
0
 10
5821.723721821057552
 20
-7.2067791105068997
 30
0.0
 11
5821.7569299458573369
 21
-7.225379730006896
 31
0.0
  0
LINE
  5
25095
  8
0
 10
5821.7569299458573369
 20
-7.225379730006896
 30
0.0
 11
5821.723721821057552
 21
-7.2446721139069012
 31
0.0
  0
LINE
  5
25096
  8
0
 10
5821.723721821057552
 20
-7.2516758599953874
 30
0.0
 11
5821.7565202258565478
 21
-7.2706218277069032
 31
0.0
  0
LINE
  5
25097
  8
0
 10
5821.7565202258565478
 20
-7.2706218277069032
 30
0.0
 11
5821.723721821057552
 21
-7.2896721139069021
 31
0.0
  0
LINE
  5
25098
  8
0
 10
5821.7565296789580316
 20
-7.3156204501069011
 30
0.0
 11
5821.723721821057552
 21
-7.29666837412947
 31
0.0
  0
LINE
  5
25099
  8
0
 10
5821.7565296789580316
 20
-7.3156204501069011
 30
0.0
 11
5821.723721821057552
 21
-7.3346721139069002
 31
0.0
  0
LINE
  5
2509A
  8
0
 10
5821.756525700057864
 20
-7.3606173291069004
 30
0.0
 11
5821.723721821057552
 21
-7.3416677832324622
 31
0.0
  0
LINE
  5
2509B
  8
0
 10
5821.756525700057864
 20
-7.3606173291069004
 30
0.0
 11
5821.723721821057552
 21
-7.3795613407293912
 31
0.0
  0
LINE
  5
2509C
  8
0
 10
5821.723721821057552
 20
-7.386666860933369
 30
0.0
 11
5821.7565301608583468
 21
-7.4056192521068969
 31
0.0
  0
LINE
  5
2509D
  8
0
 10
5821.7565301608583468
 20
-7.4056192521068969
 30
0.0
 11
5821.723721821057552
 21
-7.4246721139069001
 31
0.0
  0
LINE
  5
2509E
  8
0
 10
5821.723721821057552
 20
-7.4316699155374426
 30
0.0
 11
5821.7565220223577853
 21
-7.4506170967068979
 31
0.0
  0
LINE
  5
2509F
  8
0
 10
5821.7565220223577853
 20
-7.4506170967068979
 30
0.0
 11
5821.723721821057552
 21
-7.4696721139069009
 31
0.0
  0
LINE
  5
250A0
  8
0
 10
5821.723721821057552
 20
-7.4766764860418728
 30
0.0
 11
5821.7565179954572159
 21
-7.495620974906898
 31
0.0
  0
LINE
  5
250A1
  8
0
 10
5821.7565179954572159
 20
-7.495620974906898
 30
0.0
 11
5821.723721821057552
 21
-7.5145626109530799
 31
0.0
  0
LINE
  5
250A2
  8
0
 10
5821.723721821057552
 20
-7.5216726728768766
 30
0.0
 11
5821.7565187265572604
 21
-7.5406177085068986
 31
0.0
  0
LINE
  5
250A3
  8
0
 10
5821.7565187265572604
 20
-7.5406177085068986
 30
0.0
 11
5821.723721821057552
 21
-7.5596721139069007
 31
0.0
  0
LINE
  5
250A4
  8
0
 10
5821.723721821057552
 20
-7.5666755712506326
 30
0.0
 11
5821.7565208016576435
 21
-7.5856219150068949
 31
0.0
  0
LINE
  5
250A5
  8
0
 10
5821.7565208016576435
 20
-7.5856219150068949
 30
0.0
 11
5821.723721821057552
 21
-7.6046721139068989
 31
0.0
  0
LINE
  5
250A6
  8
0
 10
5821.723721821057552
 20
-7.6116680435570521
 30
0.0
 11
5821.7565298919580528
 21
-7.6306202570068979
 31
0.0
  0
LINE
  5
250A7
  8
0
 10
5821.7565298919580528
 20
-7.6306202570068979
 30
0.0
 11
5821.723721821057552
 21
-7.6496721139069006
 31
0.0
  0
LINE
  5
250A8
  8
0
 10
5821.723721821057552
 20
-7.6566678869971154
 30
0.0
 11
5821.7565253279590252
 21
-7.6756171923932808
 31
0.0
  0
LINE
  5
250A9
  8
0
 10
5821.7565253279590252
 20
-7.6756171923932808
 30
0.0
 11
5821.723721821057552
 21
-7.6946721139068988
 31
0.0
  0
LINE
  5
250AA
  8
0
 10
5821.723721821057552
 20
-7.7016132007461717
 30
0.0
 11
5821.7566053977579941
 21
-7.7206120967068959
 31
0.0
  0
LINE
  5
250AB
  8
0
 10
5821.7566053977579941
 20
-7.7206120967068959
 30
0.0
 11
5821.723721821057552
 21
-7.7396721139069014
 31
0.0
  0
LINE
  5
250AC
  8
0
 10
5821.723721821057552
 20
-7.7466560364142847
 30
0.0
 11
5821.7565365251566618
 21
-7.7656118369068983
 31
0.0
  0
LINE
  5
250AD
  8
0
 10
5821.7565365251566618
 20
-7.7656118369068983
 30
0.0
 11
5821.723721821057552
 21
-7.7846856942068978
 31
0.0
  0
LINE
  5
250AE
  8
0
 10
5821.723721821057552
 20
-7.7915669962069023
 30
0.0
 11
5821.7540146453593479
 21
-7.8093623671068997
 31
0.0
  0
LINE
  5
250AF
  8
0
 10
5822.5347092058373164
 20
-7.7621653234684018
 30
0.0
 11
5821.723721821057552
 21
-7.7847046094068997
 31
0.0
  0
LINE
  5
250B0
  8
0
 10
5821.723721821057552
 20
-7.2067791105068997
 30
0.0
 11
5821.8685714453567925
 21
-7.2003098082069013
 31
0.0
  0
LINE
  5
250B1
  8
0
 10
5821.7565365251566618
 20
-7.7656118369068983
 30
0.0
 11
5822.5018403314370516
 21
-7.743117179268399
 31
0.0
  0
LINE
  5
250B2
  8
0
 10
5822.5347092058373164
 20
-7.7239753426970532
 30
0.0
 11
5821.723721821057552
 21
-7.7466560364142856
 31
0.0
  0
LINE
  5
250B3
  8
0
 10
5821.723721821057552
 20
-7.7396721139068996
 30
0.0
 11
5822.5347092058373164
 21
-7.717057631037421
 31
0.0
  0
LINE
  5
250B4
  8
0
 10
5822.5018463968863216
 20
-7.69807482068697
 30
0.0
 11
5821.7566053977579941
 21
-7.7206120967068959
 31
0.0
  0
LINE
  5
250B5
  8
0
 10
5821.723721821057552
 20
-7.7016132007461717
 30
0.0
 11
5822.5347092058373164
 21
-7.679169680430018
 31
0.0
  0
LINE
  5
250B6
  8
0
 10
5822.5347092058373164
 20
-7.6722542350450418
 30
0.0
 11
5821.723721821057552
 21
-7.6946721139068961
 31
0.0
  0
LINE
  5
250B7
  8
0
 10
5821.7565253279590252
 20
-7.6756171923932808
 30
0.0
 11
5822.5019016196365556
 21
-7.6531116880895924
 31
0.0
  0
LINE
  5
250B8
  8
0
 10
5822.5347092058373164
 20
-7.634167028336166
 30
0.0
 11
5821.723721821057552
 21
-7.6566678869971154
 31
0.0
  0
LINE
  5
250B9
  8
0
 10
5821.723721821057552
 20
-7.6496721139068997
 30
0.0
 11
5822.5347092058373164
 21
-7.6272493166765374
 31
0.0
  0
LINE
  5
250BA
  8
0
 10
5822.5014911608368493
 20
-7.6083537900684002
 30
0.0
 11
5821.7565298919580528
 21
-7.6306202570068979
 31
0.0
  0
LINE
  5
250BB
  8
0
 10
5821.723721821057552
 20
-7.6116680435570521
 30
0.0
 11
5822.5347092058373164
 21
-7.5891708136313198
 31
0.0
  0
LINE
  5
250BC
  8
0
 10
5822.5347092058373164
 20
-7.5822531019716921
 30
0.0
 11
5821.723721821057552
 21
-7.604672113906898
 31
0.0
  0
LINE
  5
250BD
  8
0
 10
5821.7565208016576435
 20
-7.5856219150068949
 30
0.0
 11
5822.5019136690207233
 21
-7.5631133726647768
 31
0.0
  0
LINE
  5
250BE
  8
0
 10
5822.5347092058373164
 20
-7.5440830351280264
 30
0.0
 11
5821.723721821057552
 21
-7.5666755712506326
 31
0.0
  0
LINE
  5
250BF
  8
0
 10
5821.723721821057552
 20
-7.5596721139069007
 30
0.0
 11
5822.5347092058373164
 21
-7.5371653234683968
 31
0.0
  0
LINE
  5
250C0
  8
0
 10
5821.7565187265572604
 20
-7.5406177085068986
 30
0.0
 11
5822.5019084595760432
 21
-7.518115231754483
 31
0.0
  0
LINE
  5
250C1
  8
0
 10
5822.5347092058373164
 20
-7.4991721082555793
 30
0.0
 11
5821.723721821057552
 21
-7.5216726728768801
 31
0.0
  0
LINE
  5
250C2
  8
0
 10
5821.723721821057552
 20
-7.514562610953079
 30
0.0
 11
5822.5347092058373164
 21
-7.4922544522470931
 31
0.0
  0
LINE
  5
250C3
  8
0
 10
5822.501913310571581
 20
-7.4731116043523791
 30
0.0
 11
5821.7565179954572159
 21
-7.495620974906898
 31
0.0
  0
LINE
  5
250C4
  8
0
 10
5821.723721821057552
 20
-7.4766764860418737
 30
0.0
 11
5822.5347092058373164
 21
-7.4540602057683998
 31
0.0
  0
LINE
  5
250C5
  8
0
 10
5822.5347092058373164
 20
-7.4471653234684041
 30
0.0
 11
5821.723721821057552
 21
-7.4696721139068982
 31
0.0
  0
LINE
  5
250C6
  8
0
 10
5821.723721821057552
 20
-7.4316699155374444
 30
0.0
 11
5822.5347092058373164
 21
-7.4091697546880368
 31
0.0
  0
LINE
  5
250C7
  8
0
 10
5822.5347092058373164
 20
-7.4022525720569101
 30
0.0
 11
5821.723721821057552
 21
-7.4246721139069001
 31
0.0
  0
LINE
  5
250C8
  8
0
 10
5821.723721821057552
 20
-7.3866668609333699
 30
0.0
 11
5822.5347092058373164
 21
-7.3640602057683999
 31
0.0
  0
LINE
  5
250C9
  8
0
 10
5822.5347092058373164
 20
-7.3572541098298823
 30
0.0
 11
5821.723721821057552
 21
-7.3795613407293912
 31
0.0
  0
LINE
  5
250CA
  8
0
 10
5821.723721821057552
 20
-7.3416677832324648
 30
0.0
 11
5822.5347092058373164
 21
-7.3191697594562548
 31
0.0
  0
LINE
  5
250CB
  8
0
 10
5822.5347092058373164
 20
-7.3122520477966271
 30
0.0
 11
5821.723721821057552
 21
-7.3346721139069002
 31
0.0
  0
LINE
  5
250CC
  8
0
 10
5821.7565220223577853
 20
-7.4506170967068979
 30
0.0
 11
5822.5019036233297811
 21
-7.4281108750861664
 31
0.0
  0
LINE
  5
250CD
  8
0
 10
5821.7565301608583468
 20
-7.4056192521068969
 30
0.0
 11
5822.5019022913711524
 21
-7.3831142056093464
 31
0.0
  0
LINE
  5
250CE
  8
0
 10
5822.5019013559376617
 20
-7.3381118755904389
 30
0.0
 11
5821.756525700057864
 21
-7.3606173291069004
 31
0.0
  0
LINE
  5
250CF
  8
0
 10
5821.7565296789580316
 20
-7.3156204501069011
 30
0.0
 11
5822.5019052669431403
 21
-7.2931150095348274
 31
0.0
  0
LINE
  5
250D0
  8
0
 10
5822.5019137581612085
 20
-7.2481130737302806
 30
0.0
 11
5821.7565202258565478
 21
-7.2706218277069032
 31
0.0
  0
LINE
  5
250D1
  8
0
 10
5821.7569299458573369
 20
-7.225379730006896
 30
0.0
 11
5821.8685628252578681
 21
-7.2199074388069011
 31
0.0
  0
LINE
  5
250D2
  8
0
 10
5821.723721821057552
 20
-7.2446721139069012
 30
0.0
 11
5821.8685714453567925
 21
-7.2384149260069002
 31
0.0
  0
LINE
  5
250D3
  8
0
 10
5822.5347218210572464
 20
-7.2292721594069
 30
0.0
 11
5821.723721821057552
 21
-7.2516758599953874
 31
0.0
  0
LINE
  5
250D4
  8
0
 10
5821.723721821057552
 20
-7.2896721139069021
 30
0.0
 11
5822.5347092058373164
 21
-7.2671653234684008
 31
0.0
  0
LINE
  5
250D5
  8
0
 10
5822.5347092058373164
 20
-7.2741709865235942
 30
0.0
 11
5821.723721821057552
 21
-7.29666837412947
 31
0.0
  0
LINE
  5
250D6
  8
0
 10
5821.8685714453567925
 20
-7.2003098082069013
 30
0.0
 11
5821.8685714453567925
 21
-7.2384149260069002
 31
0.0
  0
LINE
  5
250D7
  8
0
 10
5822.5347218210572464
 20
-7.8093623671068997
 30
0.0
 11
5822.5347217079579423
 21
-7.8071648866069001
 31
0.0
  0
LINE
  5
250D8
  8
0
 10
5822.5347092058373164
 20
-7.7690602057684011
 30
0.0
 11
5821.723721821057552
 21
-7.7915669962069023
 31
0.0
  0
LINE
  5
250D9
  8
0
 10
5821.7540146453593479
 20
-7.8093623671068997
 30
0.0
 11
5822.5018896231140388
 21
-7.788122225014388
 31
0.0
  0
ENDSEC
  0
EOF
