  0
SECTION
  2
HEADER
  9
$ACADVER
  1
AC1009
  9
$INSBASE
 10
6254.8771946877650407
 20
324.818121532265593
 30
0.0
  9
$EXTMIN
 10
6252.5231985124837593
 20
315.2154604943222012
 30
0.0
  9
$EXTMAX
 10
6257.2311908630472317
 20
324.8227694182663186
 30
0.0
  9
$LIMMIN
 10
0.0
 20
0.0
  9
$LIMMAX
 10
11.6929133858000007
 20
8.2677165353999982
  9
$ORTHOMODE
 70
     0
  9
$REGENMODE
 70
     1
  9
$FILLMODE
 70
     1
  9
$QTEXTMODE
 70
     0
  9
$MIRRTEXT
 70
     0
  9
$DRAGMODE
 70
     2
  9
$LTSCALE
 40
0.6431102362
  9
$OSMODE
 70
  4095
  9
$ATTMODE
 70
     1
  9
$TEXTSIZE
 40
0.2
  9
$TRACEWID
 40
0.05
  9
$TEXTSTYLE
  7
STANDARD
  9
$CLAYER
  8
0
  9
$CELTYPE
  6
BYLAYER
  9
$CECOLOR
 62
   256
  9
$DIMSCALE
 40
1.0
  9
$DIMASZ
 40
0.1875
  9
$DIMEXO
 40
0.0625
  9
$DIMDLI
 40
0.4443307087
  9
$DIMRND
 40
0.0
  9
$DIMDLE
 40
0.0
  9
$DIMEXE
 40
0.125
  9
$DIMTP
 40
0.01
  9
$DIMTM
 40
0.01
  9
$DIMTXT
 40
2.0
  9
$DIMCEN
 40
0.1052362205
  9
$DIMTSZ
 40
0.0
  9
$DIMTOL
 70
     1
  9
$DIMLIM
 70
     0
  9
$DIMTIH
 70
     1
  9
$DIMTOH
 70
     1
  9
$DIMSE1
 70
     0
  9
$DIMSE2
 70
     0
  9
$DIMTAD
 70
     0
  9
$DIMZIN
 70
     0
  9
$DIMBLK
  1

  9
$DIMASO
 70
     1
  9
$DIMSHO
 70
     1
  9
$DIMPOST
  1
\X
  9
$DIMAPOST
  1

  9
$DIMALT
 70
     1
  9
$DIMALTD
 70
     2
  9
$DIMALTF
 40
25.3999999999999986
  9
$DIMLFAC
 40
1.0
  9
$DIMTOFL
 70
     0
  9
$DIMTVP
 40
0.0
  9
$DIMTIX
 70
     0
  9
$DIMSOXD
 70
     0
  9
$DIMSAH
 70
     0
  9
$DIMBLK1
  1

  9
$DIMBLK2
  1

  9
$DIMSTYLE
  2
STANDARD
  9
$DIMCLRD
 70
     0
  9
$DIMCLRE
 70
     0
  9
$DIMCLRT
 70
     0
  9
$DIMTFAC
 40
1.0
  9
$DIMGAP
 40
0.09
  9
$LUNITS
 70
     2
  9
$LUPREC
 70
     4
  9
$SKETCHINC
 40
0.1
  9
$FILLETRAD
 40
0.0
  9
$AUNITS
 70
     0
  9
$AUPREC
 70
     0
  9
$MENU
  1
.
  9
$ELEVATION
 40
0.0
  9
$PELEVATION
 40
0.0
  9
$THICKNESS
 40
0.0
  9
$LIMCHECK
 70
     0
  9
$BLIPMODE
 70
     0
  9
$CHAMFERA
 40
0.0
  9
$CHAMFERB
 40
0.0
  9
$SKPOLY
 70
     0
  9
$TDCREATE
 40
2458060.468368056230247
  9
$TDUPDATE
 40
2460794.8251967588439584
  9
$TDINDWG
 40
0.7420672454
  9
$TDUSRTIMER
 40
0.7420672454
  9
$USRTIMER
 70
     1
  9
$ANGBASE
 50
0.0
  9
$ANGDIR
 70
     0
  9
$PDMODE
 70
     0
  9
$PDSIZE
 40
0.3125
  9
$PLINEWID
 40
0.0
  9
$COORDS
 70
     1
  9
$SPLFRAME
 70
     0
  9
$SPLINETYPE
 70
     6
  9
$SPLINESEGS
 70
     8
  9
$ATTDIA
 70
     1
  9
$ATTREQ
 70
     1
  9
$HANDLING
 70
     1
  9
$HANDSEED
  5
358EE
  9
$SURFTAB1
 70
     6
  9
$SURFTAB2
 70
     6
  9
$SURFTYPE
 70
     6
  9
$SURFU
 70
     6
  9
$SURFV
 70
     6
  9
$UCSNAME
  2

  9
$UCSORG
 10
0.0
 20
0.0
 30
0.0
  9
$UCSXDIR
 10
1.0
 20
0.0
 30
0.0
  9
$UCSYDIR
 10
0.0
 20
1.0
 30
0.0
  9
$PUCSNAME
  2

  9
$PUCSORG
 10
0.0
 20
0.0
 30
0.0
  9
$PUCSXDIR
 10
1.0
 20
0.0
 30
0.0
  9
$PUCSYDIR
 10
0.0
 20
1.0
 30
0.0
  9
$USERI1
 70
     0
  9
$USERI2
 70
     0
  9
$USERI3
 70
     0
  9
$USERI4
 70
     0
  9
$USERI5
 70
     0
  9
$USERR1
 40
0.0
  9
$USERR2
 40
0.0
  9
$USERR3
 40
0.0
  9
$USERR4
 40
0.0
  9
$USERR5
 40
0.0
  9
$WORLDVIEW
 70
     1
  9
$SHADEDGE
 70
     3
  9
$SHADEDIF
 70
    70
  9
$TILEMODE
 70
     1
  9
$MAXACTVP
 70
    64
  9
$PLIMCHECK
 70
     0
  9
$PEXTMIN
 10
1.0000000000000000E+20
 20
1.0000000000000000E+20
 30
1.0000000000000000E+20
  9
$PEXTMAX
 10
-1.0000000000000000E+20
 20
-1.0000000000000000E+20
 30
-1.0000000000000000E+20
  9
$PLIMMIN
 10
0.0
 20
0.0
  9
$PLIMMAX
 10
12.0
 20
9.0
  9
$UNITMODE
 70
     0
  9
$VISRETAIN
 70
     1
  9
$PLINEGEN
 70
     0
  9
$PSLTSCALE
 70
     1
  0
ENDSEC
  0
SECTION
  2
TABLES
  0
TABLE
  2
VPORT
 70
     1
  0
VPORT
  2
*ACTIVE
 70
     0
 10
0.0
 20
0.0
 11
1.0
 21
1.0
 12
2343.5118382424529955
 22
187.4395098537551121
 13
0.0
 23
0.0
 14
1.0
 24
1.0
 15
0.0
 25
0.0
 16
0.0
 26
0.0
 36
60.4960186965801583
 17
3911.3653564453120453
 27
132.5796051025390057
 37
0.0
 40
9.6720046069336831
 41
2.1449438202247189
 42
50.0
 43
0.0
 44
0.0
 50
0.0
 51
0.0
 71
     0
 72
   100
 73
     1
 74
     1
 75
     0
 76
     0
 77
     0
 78
     0
  0
ENDTAB
  0
TABLE
  2
LTYPE
 70
     2
  0
LTYPE
  2
CONTINUOUS
 70
     0
  3
Solid line
 72
    65
 73
     0
 40
0.0
  0
LTYPE
  2
PHANTOM2
 70
     0
  3
___ _ _ ___ _ _ ___ _ _ ___ _ _
 72
    65
 73
     6
 40
1.25
 49
0.625
 49
-0.125
 49
0.125
 49
-0.125
 49
0.125
 49
-0.125
  0
ENDTAB
  0
TABLE
  2
LAYER
 70
     2
  0
LAYER
  2
0
 70
     0
 62
   255
  6
CONTINUOUS
  0
LAYER
  2
DEFPOINTS
 70
     0
 62
     7
  6
CONTINUOUS
  0
ENDTAB
  0
TABLE
  2
STYLE
 70
     1
  0
STYLE
  2
STANDARD
 70
     0
 40
0.0
 41
0.8
 50
0.0
 71
     0
 42
0.2
  3
txt
  4

  0
ENDTAB
  0
TABLE
  2
VIEW
 70
     0
  0
ENDTAB
  0
TABLE
  2
UCS
 70
     0
  0
ENDTAB
  0
TABLE
  2
APPID
 70
    11
  0
APPID
  2
ACAD
 70
     0
  0
APPID
  2
ACAD_MLEADERVER
 70
     0
  0
APPID
  2
ACAD_EXEMPT_FROM_CAD_STANDARDS
 70
     0
  0
APPID
  2
ACAD_NAV_VCDISPLAY
 70
     0
  0
APPID
  2
ACAECLAYERSTANDARD
 70
     0
  0
APPID
  2
ACCMTRANSPARENCY
 70
     0
  0
APPID
  2
ACAD_DSTYLE_DIMJAG
 70
     0
  0
APPID
  2
ACAD_DSTYLE_DIMTALN
 70
     0
  0
APPID
  2
ACDBATTR
 70
     0
  0
APPID
  2
ACADANNOTATIVE
 70
     0
  0
APPID
  2
DCO15
 70
     0
  0
ENDTAB
  0
TABLE
  2
DIMSTYLE
 70
     1
  0
DIMSTYLE
  2
STANDARD
 70
     0
  3

  4

  5

  6

  7

 40
1.0
 41
0.1875
 42
0.0625
 43
0.38
 44
0.125
 45
0.0
 46
0.0
 47
0.01
 48
0.01
140
0.15625
141
0.09
142
0.0
143
25.3999999999999986
144
1.0
145
0.0
146
1.0
147
0.09
 71
     1
 72
     0
 73
     1
 74
     1
 75
     0
 76
     0
 77
     0
 78
     4
170
     0
171
     2
172
     0
173
     0
174
     0
175
     0
176
     0
177
     0
178
     0
  0
ENDTAB
  0
ENDSEC
  0
SECTION
  2
BLOCKS
  0
BLOCK
  8
0
  2
$MODEL_SPACE
 70
     0
 10
0.0
 20
0.0
 30
0.0
  3
$MODEL_SPACE
  1

  0
ENDBLK
  5
21
  8
0
  0
BLOCK
 67
     1
  8
0
  2
$PAPER_SPACE
 70
     0
 10
0.0
 20
0.0
 30
0.0
  3
$PAPER_SPACE
  1

  0
ENDBLK
  5
1D
 67
     1
  8
0
  0
BLOCK
  8
0
  2
_FILLED
 70
     0
 10
0.0
 20
0.0
 30
0.0
  3
_FILLED
  1

  0
SOLID
  5
2853B
  8
0
  6
BYBLOCK
 62
     0
 10
0.0
 20
0.0
 30
0.0
 11
-1.0
 21
0.1666666667
 31
0.0
 12
-1.0
 22
-0.1666666667
 32
0.0
 13
-1.0
 23
-0.1666666667
 33
0.0
  0
ENDBLK
  5
2853C
  8
0
  6
BYBLOCK
 62
     0
  0
ENDSEC
  0
SECTION
  2
ENTITIES
  0
ATTDEF
  5
2842F
  8
DEFPOINTS
 10
6254.8733758262651463
 20
324.821769418266399
 30
0.0
 40
0.001
  1
P21542-00
  3

  2
MODELNUMBER
 70
     0
1001
ACDBATTR
1070
     0
1070
     1
  0
ATTDEF
  5
28430
  8
DEFPOINTS
 10
6254.8732500166079262
 20
324.8201025778872122
 30
0.0
 40
0.001
  1
FOR TOWN
  3

  2
TRADENAME
 70
     0
1001
ACDBATTR
1070
     0
1070
     1
  0
ATTDEF
  5
28431
  8
DEFPOINTS
 10
6254.8733758262651463
 20
324.8184360849330119
 30
0.0
 40
0.001
  1
SHOWERHEAD
  3

  2
PRODUCT
 70
     0
1001
ACDBATTR
1070
     0
1070
     1
  0
LINE
  5
3572B
  8
0
 10
6253.8776946877660521
 20
324.818121532265593
 30
0.0
 11
6255.8766946877649389
 21
324.818121532265593
 31
0.0
  0
LINE
  5
3572C
  8
0
 10
6253.9401946877651426
 20
324.5631215322655976
 30
0.0
 11
6255.8141946877649389
 21
324.5631215322655976
 31
0.0
  0
LINE
  5
3572D
  8
0
 10
6253.8676946877649243
 20
324.8081215322657158
 30
0.0
 11
6253.8676946877649243
 21
324.6356215322657022
 31
0.0
  0
ARC
  5
3572E
  8
0
 10
6253.8776946877660521
 20
324.8081215322657158
 30
0.0
 40
0.01
 50
90.0
 51
180.0
  0
ARC
  5
3572F
  8
0
 10
6253.9401946877651426
 20
324.6356215322657022
 30
0.0
 40
0.0725
 50
179.9999999999901945
 51
270.0
  0
LINE
  5
35730
  8
0
 10
6253.9501946877662704
 20
324.5531215322657204
 30
0.0
 11
6253.9501946877662704
 21
324.5481215322657249
 31
0.0
  0
ARC
  5
35731
  8
0
 10
6254.0044555164649864
 20
324.5481215322657249
 30
0.0
 40
0.054260828700007
 50
180.0000000000032117
 51
195.4433603959741106
  0
ARC
  5
35732
  8
0
 10
6253.9401946877651426
 20
324.5531215322657204
 30
0.0
 40
0.0099999999999767
 50
359.9999999999575948
 51
90.0000000001563336
  0
ARC
  5
35733
  8
0
 10
6254.0089433460343571
 20
324.5505053039464087
 30
0.0
 40
0.059231650061193
 50
196.5100427483594103
 51
240.1584324178168117
  0
ARC
  5
35734
  8
0
 10
6254.0054125748392835
 20
324.5443505881146962
 30
0.0
 40
0.0521360970736919
 50
240.1584324178168117
 51
254.6109202776383995
  0
ARC
  5
35735
  8
0
 10
6254.0351184039718646
 20
324.6522772622677735
 30
0.0
 40
0.1640762743034425
 50
254.6109202776383995
 51
260.3309980086172004
  0
ARC
  5
35736
  8
0
 10
6253.9224716340377199
 20
323.9911129320257146
 30
0.0
 40
0.5066155821857796
 50
74.6164967234410028
 51
80.3309980086172999
  0
ARC
  5
35737
  8
0
 10
6253.9400514852814013
 20
324.1271788719244
 30
0.0
 40
0.3712550654911173
 50
52.6657867885959092
 51
71.6604806912227019
  0
ARC
  5
35738
  8
0
 10
6253.9509734354351167
 20
324.1360945489477103
 30
0.0
 40
0.3575573647863789
 50
38.2858693559494725
 51
53.190929808890921
  0
LINE
  5
35739
  8
0
 10
6254.2512538819028123
 20
324.3481215322656794
 30
0.0
 11
6255.5031354936272692
 21
324.3481215322656794
 31
0.0
  0
ARC
  5
3573A
  8
0
 10
6254.2512538819028123
 20
324.3731215322654862
 30
0.0
 40
0.025
 50
218.2858693556939897
 51
270.000000000104194
  0
LINE
  5
3573B
  8
0
 10
6254.4711946877660012
 20
324.3481215322656794
 30
0.0
 11
6254.4711946877660012
 21
319.6553825773656854
 31
0.0
  0
ARC
  5
3573C
  8
0
 10
6254.8732485151986111
 20
320.0263628897423018
 30
0.0
 40
0.569387519535824
 50
241.5494271007646034
 51
270.3970948354357233
  0
ARC
  5
3573D
  8
0
 10
6254.7583329797917031
 20
319.8142787022405855
 30
0.0
 40
0.3281712620697667
 50
208.959193848229404
 51
241.5494271007646034
  0
ARC
  5
3573E
  8
0
 10
6254.6596268389566831
 20
319.7534494227156756
 30
0.0
 40
0.21242359040381
 50
152.5059151325745006
 51
207.4940848674254994
  0
ARC
  5
3573F
  8
0
 10
6254.8718390316898876
 20
320.039446179108495
 30
0.0
 40
0.6379605656093622
 50
240.4699129521019927
 51
270.4810016646263762
  0
ARC
  5
35740
  8
0
 10
6254.7453881125093176
 20
319.8162185249765912
 30
0.0
 40
0.3814056581698588
 50
212.0431890899943994
 51
240.4699129521019927
  0
ARC
  5
35741
  8
0
 10
6254.6443026549368369
 20
319.7529473211134814
 30
0.0
 40
0.2621516646485978
 50
155.1445449908711112
 51
212.0431890899943994
  0
ARC
  5
35742
  8
0
 10
6254.7212622921733782
 20
319.7172965454719247
 30
0.0
 40
0.346967721899223
 50
136.1142018565620049
 51
155.1445449908711112
  0
ARC
  5
35743
  8
0
 10
6254.8715076036951359
 20
319.3850263231440749
 30
0.0
 40
0.5590935455803751
 50
237.3151646115177016
 51
270.5828211341965925
  0
ARC
  5
35744
  8
0
 10
6254.7970471137814457
 20
319.2689746380873999
 30
0.0
 40
0.4212082375784822
 50
207.4367579567679059
 51
237.3151646115177016
  0
ARC
  5
35745
  8
0
 10
6254.4312969430739031
 20
319.0790899654074906
 30
0.0
 40
0.0091046385997713
 50
178.6889951288758027
 51
207.4367579567739881
  0
LINE
  5
35746
  8
0
 10
6254.422194687766023
 20
319.0792982736656995
 30
0.0
 11
6254.422194687766023
 21
319.5149338752009953
 31
0.0
  0
LINE
  5
35747
  8
0
 10
6254.3821509902882099
 20
319.7529473211134814
 30
0.0
 11
6254.3821948775648707
 21
319.6855129052656821
 31
0.0
  0
ARC
  5
35748
  8
0
 10
6254.8140410355626955
 20
319.7020247435726787
 30
0.0
 40
0.4321617116098734
 50
182.1896640808116103
 51
203.2914573404580949
  0
ARC
  5
35749
  8
0
 10
6254.2714318081243619
 20
319.4720027594627254
 30
0.0
 40
0.1572145602142027
 50
18.6717011430599307
 51
22.0974873226946009
  0
ARC
  5
3574A
  8
0
 10
6254.3861553434862799
 20
319.5099818131953953
 30
0.0
 40
0.0363779775987727
 50
7.8238527801071251
 51
19.8499249876986106
  0
ARC
  5
3574B
  8
0
 10
6254.8746649159011213
 20
319.2115285644113101
 30
0.0
 40
0.4395839416150224
 50
242.7809774643112064
 51
270.3297346362879239
  0
ARC
  5
3574C
  8
0
 10
6254.8008750401595535
 20
319.068066172066608
 30
0.0
 40
0.2782569327821209
 50
222.9423924611859889
 51
242.7809774643112064
  0
ARC
  5
3574D
  8
0
 10
6254.7720277677572085
 20
319.0412198304497906
 30
0.0
 40
0.2388501924540588
 50
212.0524471767085117
 51
222.9423924611859889
  0
ARC
  5
3574E
  8
0
 10
6254.8742752845000723
 20
319.2021569835794139
 30
0.0
 40
0.6083746332522628
 50
236.1756316863773009
 51
270.2749459274249944
  0
ARC
  5
3574F
  8
0
 10
6254.7015666864017476
 20
318.9444051680977168
 30
0.0
 40
0.2981098137168706
 50
196.3377787122645088
 51
236.1756316863773009
  0
ARC
  5
35750
  8
0
 10
6254.6339623501798997
 20
318.9245878799305842
 30
0.0
 40
0.2276607456883077
 50
148.1696394820924922
 51
196.3377787122645088
  0
ARC
  5
35751
  8
0
 10
6254.6630754376828918
 20
318.8872293755778742
 30
0.0
 40
0.256197165117586
 50
146.1632365131497977
 51
176.5231827195929952
  0
ARC
  5
35752
  8
0
 10
6254.6507426047701301
 20
318.9217192860641035
 30
0.0
 40
0.2727021551714155
 50
146.2310905477847029
 51
195.7240153550555135
  0
ARC
  5
35753
  8
0
 10
6254.876859269355009
 20
319.2752496484013136
 30
0.0
 40
0.6971673782250147
 50
254.1902796301185106
 51
270.0275659197528171
  0
ARC
  5
35754
  8
0
 10
6254.8381406089019947
 20
319.1385093530711856
 30
0.0
 40
0.5550510771395767
 50
231.5072291615987865
 51
254.1902796301185106
  0
ARC
  5
35755
  8
0
 10
6254.6994393735485573
 20
318.9640928357670759
 30
0.0
 40
0.3322077371062271
 50
200.4880880159329877
 51
231.5072291615987865
  0
ARC
  5
35756
  8
0
 10
6254.6630659445545461
 20
318.9240610371942921
 30
0.0
 40
0.2912235251287969
 50
145.8020779209475108
 51
168.0366943516227138
  0
ARC
  5
35757
  8
0
 10
6254.6167312748420954
 20
318.9338787643429214
 30
0.0
 40
0.2438601491537058
 50
168.0366943516227138
 51
199.8225878757210978
  0
ARC
  5
35758
  8
0
 10
6254.6298109708795891
 20
318.8908786887118936
 30
0.0
 40
0.2566375851732221
 50
167.6660451083934049
 51
175.5247709381679897
  0
ARC
  5
35759
  8
0
 10
6254.6696249799533689
 20
318.9354624810598011
 30
0.0
 40
0.3296739595305449
 50
138.636334075729394
 51
164.9176543317489063
  0
ARC
  5
3575A
  8
0
 10
6254.5993632657264243
 20
318.9543973228273899
 30
0.0
 40
0.2569055823402211
 50
164.9176543317489063
 51
203.281728205451401
  0
ARC
  5
3575B
  8
0
 10
6254.7060411644124542
 20
319.0002997601251877
 30
0.0
 40
0.3730400208931715
 50
203.281728205451401
 51
230.2333906781647102
  0
ARC
  5
3575C
  8
0
 10
6254.8237931382891475
 20
319.1472820616251056
 30
0.0
 40
0.5613513206652173
 50
230.591462351229211
 51
260.1638710289926735
  0
ARC
  5
3575D
  8
0
 10
6254.7429347604647774
 20
318.7867639270954783
 30
0.0
 40
0.6251086582923163
 50
120.8702011346071998
 51
137.0384471355488074
  0
ARC
  5
3575E
  8
0
 10
6254.2929002829969249
 20
319.2058636308553901
 30
0.0
 40
0.0101488282210134
 50
137.0384471355440041
 51
156.6354168230461141
  0
ARC
  5
3575F
  8
0
 10
6254.401738225349618
 20
319.1588451017053103
 30
0.0
 40
0.1287086855885757
 50
156.6354168230431014
 51
163.6754019001838003
  0
ARC
  5
35760
  8
0
 10
6254.916482430702672
 20
319.0080834465874773
 30
0.0
 40
0.6650767249035566
 50
163.6754019001838003
 51
166.1279276915686864
  0
ARC
  5
35761
  8
0
 10
6193.5973818771599326
 20
334.151311207597189
 30
0.0
 40
62.4962202829743134
 50
345.8729010806222846
 51
346.1279276915686864
  0
ARC
  5
35762
  8
0
 10
6255.025550087530064
 20
318.6907317136800089
 30
0.0
 40
0.8476773549914923
 50
165.872901080622313
 51
169.5167688754318078
  0
ARC
  5
35763
  8
0
 10
6254.4486499052845829
 20
318.797479209527296
 30
0.0
 40
0.2609842084969377
 50
169.5167688754318078
 51
176.2597163756454961
  0
ARC
  5
35764
  8
0
 10
6254.8663249830879067
 20
319.3292915792977738
 30
0.0
 40
0.8994136357617621
 50
239.6632052705253955
 51
270.6924548828164916
  0
ARC
  5
35765
  8
0
 10
6254.6643269117503223
 20
318.9955269571182157
 30
0.0
 40
0.5093579314494747
 50
200.8175906348446915
 51
240.3111687483117009
  0
ARC
  5
35766
  8
0
 10
6254.8767657386379142
 20
319.2307624577127854
 30
0.0
 40
0.9756244033108931
 50
254.7397541281953863
 51
270.0251910215802127
  0
ARC
  5
35767
  8
0
 10
6254.828142496548935
 20
319.0525400653011161
 30
0.0
 40
0.7908882649182863
 50
232.9644603193573005
 51
254.7397541281953863
  0
ARC
  5
35768
  8
0
 10
6254.6462490137446366
 20
318.8114705218478093
 30
0.0
 40
0.4888952784641769
 50
205.0957251349022101
 51
232.9644603193573005
  0
ARC
  5
35769
  8
0
 10
6254.5352186506352155
 20
318.7594702006825855
 30
0.0
 40
0.3662911393270527
 50
187.258028612864706
 51
205.0957251349022101
  0
ARC
  5
3576A
  8
0
 10
6254.5722058387782454
 20
318.7641808321541816
 30
0.0
 40
0.4035770902420835
 50
178.9642564867378951
 51
187.258028612864706
  0
ARC
  5
3576B
  8
0
 10
6254.5490838353825893
 20
318.7794054692374175
 30
0.0
 40
0.3804717872151451
 50
149.0325671647269985
 51
181.1942035485874953
  0
LINE
  5
3576C
  8
0
 10
6254.188221593117305
 20
318.8145042295391818
 30
0.0
 11
6254.1882212999225885
 21
318.6421584904891802
 31
0.0
  0
ARC
  5
3576D
  8
0
 10
6254.870598204774069
 20
319.1180556187737238
 30
0.0
 40
0.9082272778693448
 50
244.7405437751912984
 51
270.4161446889240779
  0
ARC
  5
3576E
  8
0
 10
6254.7264277614322054
 20
318.8255769880822754
 30
0.0
 40
0.5822206823361982
 50
214.0729206977090939
 51
245.2896401082689124
  0
ARC
  5
3576F
  8
0
 10
6254.5655768711021665
 20
318.7076669055625189
 30
0.0
 40
0.3829994511032566
 50
189.8483210394713865
 51
212.9431505918616949
  0
ARC
  5
35770
  8
0
 10
6254.8982799344021259
 20
318.1361788809281279
 30
0.0
 40
1.0757635745791929
 50
129.0263271373117959
 51
135.4698905332558923
  0
ARC
  5
35771
  8
0
 10
6254.1713596841791514
 20
318.8512727110796732
 30
0.0
 40
0.0560713484122322
 50
135.4698905332558923
 51
148.7051427076943071
  0
ARC
  5
35772
  8
0
 10
6254.144949165941398
 20
318.8673273111807021
 30
0.0
 40
0.0251639761849765
 50
148.705142707691607
 51
176.8013448671370043
  0
ARC
  5
35773
  8
0
 10
6289.1320893332140258
 20
318.6587385044763892
 30
0.0
 40
35.0128946709566335
 50
179.6563614747661859
 51
180.3439241584131878
  0
ARC
  5
35774
  8
0
 10
6254.140203510270112
 20
318.4470723309021878
 30
0.0
 40
0.0204331075870602
 50
175.7937101015004089
 51
244.9282038434072888
  0
ARC
  5
35775
  8
0
 10
6253.4126865156977146
 20
316.9662381078031217
 30
0.0
 40
1.6294648848966919
 50
45.6493510049512565
 51
63.8219393368073824
  0
ARC
  5
35776
  8
0
 10
6254.5737444729948038
 20
318.1540370752555873
 30
0.0
 40
0.0315355173960401
 50
225.8029158865423085
 51
281.5435493810074945
  0
ARC
  5
35777
  8
0
 10
6254.8458373004714304
 20
316.7389180965554942
 30
0.0
 40
1.409506602633676
 50
88.7252318072778934
 51
100.8689913671915974
  0
LINE
  5
35778
  8
0
 10
6254.2468884986483317
 20
319.0716134938656978
 30
0.0
 11
6253.9762801896649762
 21
319.0716134938656978
 31
0.0
  0
ARC
  5
35779
  8
0
 10
6253.9762801896649762
 20
319.0216134938656865
 30
0.0
 40
0.0499999999999936
 50
90.0
 51
125.2600324386879009
  0
LINE
  5
3577A
  8
0
 10
6253.9474157809463577
 20
319.0624405181180236
 30
0.0
 11
6252.638181873884605
 21
318.1368216836769989
 31
0.0
  0
ARC
  5
3577B
  8
0
 10
6252.6739617979392278
 20
318.0862130659398872
 30
0.0
 40
0.0619793123107861
 50
125.2600324386879009
 51
175.2574369010905002
  0
LINE
  5
3577C
  8
0
 10
6252.6121946877647133
 20
318.0913374444656938
 30
0.0
 11
6252.6121946877647133
 21
316.8172519426656777
 31
0.0
  0
ARC
  5
3577D
  8
0
 10
6252.6686200200056192
 20
316.8200843576494776
 30
0.0
 40
0.0564963776998806
 50
182.8736972368328964
 51
237.848689585675487
  0
LINE
  5
3577E
  8
0
 10
6252.6385550774648436
 20
316.7722519426657186
 30
0.0
 11
6253.9126405792649166
 21
315.8713374444657234
 31
0.0
  0
ARC
  5
3577F
  8
0
 10
6253.9744999049926264
 20
315.9645789778949734
 30
0.0
 40
0.111895307031619
 50
236.438470332393905
 51
270.9116298503482199
  0
LINE
  5
35780
  8
0
 10
6253.9762801896649762
 20
315.8526978341657241
 30
0.0
 11
6255.7781091858651052
 21
315.8526978341657241
 31
0.0
  0
ARC
  5
35781
  8
0
 10
6255.5297590501968443
 20
320.5763225780842163
 30
0.0
 40
2.1711450537931638
 50
223.9134498189065994
 51
230.3703764858898069
  0
ARC
  5
35782
  8
0
 10
6247.5034790886311384
 20
318.8424668870010237
 30
0.0
 40
7.0978795690101393
 50
335.1283822870710196
 51
354.1885740422113145
  0
ARC
  5
35783
  8
0
 10
6251.499432941132909
 20
319.323783632657296
 30
0.0
 40
2.7690612615041501
 50
293.8677976370955776
 51
341.3165547567961084
  0
ARC
  5
35784
  8
0
 10
6252.7435988158558757
 20
320.5149276428376197
 30
0.0
 40
2.401143297370337
 50
267.05290283301008
 51
297.8441307615660207
  0
ARC
  5
35785
  8
0
 10
6253.530633401889645
 20
318.8807907661587819
 30
0.0
 40
0.5924453287988982
 50
304.3707194968454246
 51
353.7423326031831721
  0
LINE
  5
35786
  8
0
 10
6254.2516943530654316
 20
319.0909065147657202
 30
0.0
 11
6253.931202032766123
 21
319.0909065147657202
 31
0.0
  0
ARC
  5
35787
  8
0
 10
6253.931202032766123
 20
319.0278871291976088
 30
0.0
 40
0.0630193855680918
 50
90.0
 51
124.7537007017104003
  0
LINE
  5
35788
  8
0
 10
6253.8952778426646546
 20
319.0796644941656837
 30
0.0
 11
6252.5571834277143353
 21
318.1334884224942243
 31
0.0
  0
LINE
  5
35789
  8
0
 10
6252.5231985124837593
 20
317.9098854483735863
 30
0.0
 11
6252.5231985124837593
 21
316.4823309125906121
 31
0.0
  0
ARC
  5
3578A
  8
0
 10
6255.2228692679691449
 20
317.8470708924796213
 30
0.0
 40
2.7004014250576072
 50
174.7808606775674036
 51
178.6671116557596122
  0
ARC
  5
3578B
  8
0
 10
6252.5896305228307028
 20
318.0876013217102809
 30
0.0
 40
0.0562
 50
125.264402157063202
 51
174.7808606775674036
  0
ARC
  5
3578C
  8
0
 10
6255.137995728912756
 20
316.5350849358349024
 30
0.0
 40
2.6153293234348021
 50
181.1557962748150885
 51
185.2465255451155031
  0
ARC
  5
3578D
  8
0
 10
6252.5890439190743564
 20
316.3010250415958922
 30
0.0
 40
0.0556536871529633
 50
185.2465255451155031
 51
235.4012183453502018
  0
LINE
  5
3578E
  8
0
 10
6252.5574425026652534
 20
316.2552136909657179
 30
0.0
 11
6253.8952424206536307
 21
315.3092462970965926
 31
0.0
  0
LINE
  5
3578F
  8
0
 10
6255.8236976483485705
 20
315.2979791871655948
 30
0.0
 11
6253.9306917271806014
 21
315.2979791871655948
 31
0.0
  0
ARC
  5
35790
  8
0
 10
6253.9306917271806014
 20
315.3593791871657004
 30
0.0
 40
0.0614
 50
234.7356103175941087
 51
270.0
  0
LINE
  5
35791
  8
0
 10
6255.7790252810364109
 20
315.2681200556298222
 30
0.0
 11
6253.975134544559296
 21
315.2682584997235153
 31
0.0
  0
ARC
  5
35792
  8
0
 10
6253.975138540122316
 20
315.3203196576347977
 30
0.0
 40
0.0520611580646249
 50
235.7241556673997991
 51
269.9956026925041783
  0
LINE
  5
35793
  8
0
 10
6253.945818855863763
 20
315.2772996588656724
 30
0.0
 11
6253.9128092382716204
 21
315.3006409833254224
 31
0.0
  0
LINE
  5
35794
  8
0
 10
6254.2480424855639285
 20
319.0762617888656791
 30
0.0
 11
6253.9312041435650826
 21
319.0762617889657236
 31
0.0
  0
ARC
  5
35795
  8
0
 10
6253.9312041435614447
 20
319.0631742921664227
 30
0.0
 40
0.0130874967992778
 50
89.9999999819177532
 51
122.6396406213067962
  0
LINE
  5
35796
  8
0
 10
6253.9241453561653543
 20
319.0741950041656878
 30
0.0
 11
6252.5858182778920309
 21
318.1278547602910862
 31
0.0
  0
ARC
  5
35797
  8
0
 10
6252.5897271602507317
 20
318.122849411371817
 30
0.0
 40
0.0063508171993538
 50
127.987737872993506
 51
176.7222999825214913
  0
LINE
  5
35798
  8
0
 10
6252.5833867320661739
 20
318.1232125222657032
 30
0.0
 11
6252.5833868237650677
 21
316.7853783642656822
 31
0.0
  0
ARC
  5
35799
  8
0
 10
6252.5896452787983435
 20
316.7856918018001124
 30
0.0
 40
0.0062662989468215
 50
182.8671062593651016
 51
237.838698054547109
  0
LINE
  5
3579A
  8
0
 10
6252.5863096988650796
 20
316.7803870483656965
 30
0.0
 11
6253.9241453487647959
 21
315.8343943882655935
 31
0.0
  0
ARC
  5
3579B
  8
0
 10
6253.931005263406405
 20
315.8447356622385769
 30
0.0
 40
0.0124096888057373
 50
236.4415763214055914
 51
270.9084785503442276
  0
LINE
  5
3579C
  8
0
 10
6253.931202022465186
 20
315.8323275333656852
 30
0.0
 11
6255.8231873530648954
 21
315.8323275333656852
 31
0.0
  0
ARC
  5
3579D
  8
0
 10
6252.5670043516793157
 20
318.0840565917483787
 30
0.0
 40
0.0344463934408578
 50
125.8879709720673929
 51
165.4445194678357041
  0
ARC
  5
3579E
  8
0
 10
6252.5818471651309665
 20
318.0623496776178172
 30
0.0
 40
0.0607374890569398
 50
99.1622380519072237
 51
125.2280762450560019
  0
ARC
  5
3579F
  8
0
 10
6252.583421298490066
 20
318.0525298718881118
 30
0.0
 40
0.0706826588297058
 50
90.028019749065848
 51
99.1544858107153715
  0
ARC
  5
357A0
  8
0
 10
6252.5827235464166733
 20
316.7212403194001809
 30
0.0
 40
0.0641414743828794
 50
89.4075023943922105
 51
118.5537309468698055
  0
ARC
  5
357A1
  8
0
 10
6252.5709059651471762
 20
316.7429570055841168
 30
0.0
 40
0.0394176056344622
 50
118.5537309468698055
 51
152.8187591082761969
  0
ARC
  5
357A2
  8
0
 10
6252.6903726420514431
 20
316.6816089105502101
 30
0.0
 40
0.1737153184030211
 50
152.8187591082761969
 51
164.226822561084191
  0
ARC
  5
357A3
  8
0
 10
6253.977717431443125
 20
315.7615593481760925
 30
0.0
 40
0.0904169526993733
 50
126.3357736476253024
 51
148.4578193784429914
  0
ARC
  5
357A4
  8
0
 10
6253.9739718382234059
 20
315.7638584453359272
 30
0.0
 40
0.0860220333233308
 50
148.4578193784454925
 51
171.6448689830189096
  0
LINE
  5
357A5
  8
0
 10
6253.8888628058648465
 20
315.7763581584655981
 30
0.0
 11
6253.8888625728650368
 21
315.322830040765723
 31
0.0
  0
ARC
  5
357A6
  8
0
 10
6253.9075432571471538
 20
315.3233136811767281
 30
0.0
 40
0.0186869439260039
 50
181.4830487525173908
 51
228.832822011357905
  0
ARC
  5
357A7
  8
0
 10
6254.8767780152784326
 20
318.2250722559285236
 30
0.0
 40
3.0096117616063389
 50
262.0388554481538108
 51
270.007932443437312
  0
ARC
  5
357A8
  8
0
 10
6254.8565650062810164
 20
318.0805380914167131
 30
0.0
 40
2.8636710529475682
 50
259.1316882922404261
 51
262.0388554481538108
  0
ARC
  5
357A9
  8
0
 10
6254.4865141493801275
 20
317.2432920426917917
 30
0.0
 40
1.9430222281581371
 50
226.0058408399092116
 51
243.4653797952626064
  0
LINE
  5
357AA
  8
0
 10
6255.8866946877651571
 20
324.8081215322657158
 30
0.0
 11
6255.8866946877651571
 21
324.6356215322657022
 31
0.0
  0
ARC
  5
357AB
  8
0
 10
6255.8766946877649389
 20
324.8081215322657158
 30
0.0
 40
0.01
 50
0.0
 51
90.0
  0
ARC
  5
357AC
  8
0
 10
6255.8141946877649389
 20
324.6356215322657022
 30
0.0
 40
0.0725
 50
270.0
 51
0.0000000000097707
  0
LINE
  5
357AD
  8
0
 10
6255.8041946877647206
 20
324.5531215322657204
 30
0.0
 11
6255.8041946877647206
 21
324.5481215322657249
 31
0.0
  0
ARC
  5
357AE
  8
0
 10
6255.749933859065095
 20
324.5481215322657249
 30
0.0
 40
0.054260828700007
 50
344.5566396040259178
 51
359.9999999999968168
  0
ARC
  5
357AF
  8
0
 10
6255.8141946877649389
 20
324.5531215322657204
 30
0.0
 40
0.0099999999999767
 50
89.9999999998436664
 51
180.0000000000391083
  0
ARC
  5
357B0
  8
0
 10
6255.7454460294957244
 20
324.5505053039464087
 30
0.0
 40
0.059231650061193
 50
299.8415675821830746
 51
343.489957251640476
  0
ARC
  5
357B1
  8
0
 10
6255.748976800690798
 20
324.5443505881146962
 30
0.0
 40
0.0521360970736919
 50
285.3890797223614868
 51
299.8415675821830746
  0
ARC
  5
357B2
  8
0
 10
6255.7192709715582168
 20
324.6522772622677735
 30
0.0
 40
0.1640762743034425
 50
279.6690019913826859
 51
285.3890797223614868
  0
ARC
  5
357B3
  8
0
 10
6255.8319177414923615
 20
323.9911129320257146
 30
0.0
 40
0.5066155821857796
 50
99.6690019913826859
 51
105.3835032765589972
  0
ARC
  5
357B4
  8
0
 10
6255.8143378902486802
 20
324.1271788719244
 30
0.0
 40
0.3712550654911173
 50
108.3395193087772981
 51
127.334213211404105
  0
ARC
  5
357B5
  8
0
 10
6255.8034159400958742
 20
324.1360945489477103
 30
0.0
 40
0.3575573647863789
 50
126.8090701911090008
 51
141.7141306440504991
  0
ARC
  5
357B6
  8
0
 10
6255.5031354936272692
 20
324.3731215322654862
 30
0.0
 40
0.025
 50
269.999999999895806
 51
321.7141306443057829
  0
LINE
  5
357B7
  8
0
 10
6255.2831946877649898
 20
324.3481215322656794
 30
0.0
 11
6255.2831946877649898
 21
319.6553825773656854
 31
0.0
  0
ARC
  5
357B8
  8
0
 10
6254.8811408603305608
 20
320.0263628897423018
 30
0.0
 40
0.569387519535824
 50
269.6029051645642767
 51
298.4505728992353966
  0
ARC
  5
357B9
  8
0
 10
6254.9960563957383783
 20
319.8142787022405855
 30
0.0
 40
0.3281712620697667
 50
298.4505728992353966
 51
331.040806151770596
  0
ARC
  5
357BA
  8
0
 10
6255.0947625365733984
 20
319.7534494227156756
 30
0.0
 40
0.21242359040381
 50
332.5059151325745006
 51
27.4940848674254994
  0
ARC
  5
357BB
  8
0
 10
6254.8825503438401938
 20
320.039446179108495
 30
0.0
 40
0.6379605656093622
 50
269.5189983353736238
 51
299.530087047898121
  0
ARC
  5
357BC
  8
0
 10
6255.0090012630216734
 20
319.8162185249765912
 30
0.0
 40
0.3814056581698588
 50
299.530087047898121
 51
327.9568109100055722
  0
ARC
  5
357BD
  8
0
 10
6255.1100867205932445
 20
319.7529473211134814
 30
0.0
 40
0.2621516646485978
 50
327.9568109100055722
 51
24.8554550091288817
  0
ARC
  5
357BE
  8
0
 10
6255.0331270833567032
 20
319.7172965454719247
 30
0.0
 40
0.346967721899223
 50
24.8554550091288817
 51
43.8857981434380306
  0
ARC
  5
357BF
  8
0
 10
6254.8828817718349455
 20
319.3850263231440749
 30
0.0
 40
0.5590935455803751
 50
269.4171788658034075
 51
302.6848353884819858
  0
ARC
  5
357C0
  8
0
 10
6254.9573422617495453
 20
319.2689746380873999
 30
0.0
 40
0.4212082375784822
 50
302.6848353884819858
 51
332.5632420432320941
  0
ARC
  5
357C1
  8
0
 10
6255.3230924324561784
 20
319.0790899654074906
 30
0.0
 40
0.0091046385997713
 50
332.5632420432261256
 51
1.31100487112415
  0
LINE
  5
357C2
  8
0
 10
6255.332194687764968
 20
319.0792982736656995
 30
0.0
 11
6255.332194687764968
 21
319.5149338752009953
 31
0.0
  0
LINE
  5
357C3
  8
0
 10
6255.3722383852409621
 20
319.7529473211134814
 30
0.0
 11
6255.3721944979652108
 21
319.6855129052656821
 31
0.0
  0
ARC
  5
357C4
  8
0
 10
6254.940348339967386
 20
319.7020247435726787
 30
0.0
 40
0.4321617116098734
 50
336.7085426595418767
 51
357.810335919188276
  0
ARC
  5
357C5
  8
0
 10
6255.4829575674048101
 20
319.4720027594627254
 30
0.0
 40
0.1572145602142027
 50
157.9025126773053955
 51
161.3282988569401084
  0
ARC
  5
357C6
  8
0
 10
6255.3682340320438016
 20
319.5099818131953953
 30
0.0
 40
0.0363779775987727
 50
160.1500750123013859
 51
172.1761472198928118
  0
ARC
  5
357C7
  8
0
 10
6254.8797244596298697
 20
319.2115285644113101
 30
0.0
 40
0.4395839416150224
 50
269.6702653637120761
 51
297.2190225356886799
  0
ARC
  5
357C8
  8
0
 10
6254.9535143353714375
 20
319.068066172066608
 30
0.0
 40
0.2782569327821209
 50
297.2190225356886799
 51
317.0576075388140111
  0
ARC
  5
357C9
  8
0
 10
6254.982361607772873
 20
319.0412198304497906
 30
0.0
 40
0.2388501924540588
 50
317.0576075388140111
 51
327.9475528232915167
  0
ARC
  5
357CA
  8
0
 10
6254.8801140910290997
 20
319.2021569835794139
 30
0.0
 40
0.6083746332522628
 50
269.7250540725751193
 51
303.8243683136226991
  0
ARC
  5
357CB
  8
0
 10
6255.0528226891292434
 20
318.9444051680977168
 30
0.0
 40
0.2981098137168706
 50
303.8243683136226991
 51
343.6622212877352922
  0
ARC
  5
357CC
  8
0
 10
6255.1204270253492723
 20
318.9245878799305842
 30
0.0
 40
0.2276607456883077
 50
343.6622212877352922
 51
31.8303605179074616
  0
ARC
  5
357CD
  8
0
 10
6255.0913139378471897
 20
318.8872293755778742
 30
0.0
 40
0.256197165117586
 50
3.4768172804069919
 51
33.8367634868501668
  0
ARC
  5
357CE
  8
0
 10
6255.1036467707608608
 20
318.9217192860641035
 30
0.0
 40
0.2727021551714155
 50
344.2759846449445149
 51
33.7689094522152615
  0
ARC
  5
357CF
  8
0
 10
6254.8775301061750724
 20
319.2752496484013136
 30
0.0
 40
0.6971673782250147
 50
269.9724340802471829
 51
285.8097203698815179
  0
ARC
  5
357D0
  8
0
 10
6254.9162487666280867
 20
319.1385093530711856
 30
0.0
 40
0.5550510771395767
 50
285.8097203698815179
 51
308.4927708384010998
  0
ARC
  5
357D1
  8
0
 10
6255.0549500019824336
 20
318.9640928357670759
 30
0.0
 40
0.3322077371062271
 50
308.4927708384010998
 51
339.5119119840670123
  0
ARC
  5
357D2
  8
0
 10
6255.0913234309746258
 20
318.9240610371942921
 30
0.0
 40
0.2912235251287969
 50
11.9633056483772808
 51
34.1979220790525176
  0
ARC
  5
357D3
  8
0
 10
6255.1376581006888955
 20
318.9338787643429214
 30
0.0
 40
0.2438601491537058
 50
340.1774121242787032
 51
11.9633056483772808
  0
ARC
  5
357D4
  8
0
 10
6255.1245784046495828
 20
318.8908786887118936
 30
0.0
 40
0.2566375851732221
 50
4.4752290618320139
 51
12.3339548916065898
  0
ARC
  5
357D5
  8
0
 10
6255.0847643955767126
 20
318.9354624810598011
 30
0.0
 40
0.3296739595305449
 50
15.0823456682510493
 51
41.363665924270542
  0
ARC
  5
357D6
  8
0
 10
6255.1550261098036572
 20
318.9543973228273899
 30
0.0
 40
0.2569055823402211
 50
336.7182717945485138
 51
15.0823456682510493
  0
ARC
  5
357D7
  8
0
 10
6255.0483482111176272
 20
319.0002997601251877
 30
0.0
 40
0.3730400208931715
 50
309.7666093218351762
 51
336.7182717945485138
  0
ARC
  5
357D8
  8
0
 10
6254.9305962372418435
 20
319.1472820616251056
 30
0.0
 40
0.5613513206652173
 50
279.8361289710073265
 51
309.408537648770789
  0
ARC
  5
357D9
  8
0
 10
6255.0114546150653041
 20
318.7867639270954783
 30
0.0
 40
0.6251086582923163
 50
42.9615528644511926
 51
59.1297988653927931
  0
ARC
  5
357DA
  8
0
 10
6254.8880643924421747
 20
319.3292915792977738
 30
0.0
 40
0.8994136357617621
 50
269.3075451171835084
 51
300.3367947294746045
  0
ARC
  5
357DB
  8
0
 10
6255.0956116244842633
 20
318.9873717465587788
 30
0.0
 40
0.4995254422928436
 50
299.5991902083173954
 51
318.1645782718492228
  0
ARC
  5
357DC
  8
0
 10
6254.8776236368921673
 20
319.2307624577127854
 30
0.0
 40
0.9756244033108931
 50
269.9748089784197873
 51
285.2602458718046137
  0
ARC
  5
357DD
  8
0
 10
6254.9262468789811464
 20
319.0525400653011161
 30
0.0
 40
0.7908882649182863
 50
285.2602458718046137
 51
307.0355396806427279
  0
ARC
  5
357DE
  8
0
 10
6255.1081403617863543
 20
318.8114705218478093
 30
0.0
 40
0.4888952784641769
 50
307.0355396806427279
 51
334.9042748650977046
  0
ARC
  5
357DF
  8
0
 10
6255.219170724894866
 20
318.7594702006825855
 30
0.0
 40
0.3662911393270527
 50
334.9042748650977046
 51
352.7419713871353224
  0
ARC
  5
357E0
  8
0
 10
6255.1821835367518361
 20
318.7641808321541816
 30
0.0
 40
0.4035770902420835
 50
352.7419713871353224
 51
1.035743513262104
  0
ARC
  5
357E1
  8
0
 10
6255.2053055401465826
 20
318.7794054692374175
 30
0.0
 40
0.3804717872151451
 50
358.8057964514125047
 51
18.4693205498044613
  0
ARC
  5
357E2
  8
0
 10
6254.8837911707551029
 20
319.1180556187737238
 30
0.0
 40
0.9082272778693448
 50
269.5838553110759221
 51
295.2594562248086163
  0
ARC
  5
357E3
  8
0
 10
6255.0279616140987855
 20
318.8255769880822754
 30
0.0
 40
0.5822206823361982
 50
294.710359891731116
 51
325.9270793022906787
  0
ARC
  5
357E4
  8
0
 10
6255.188812504427915
 20
318.7076669055625189
 30
0.0
 40
0.3829994511032566
 50
327.0568494081383051
 51
350.1516789605284998
  0
ARC
  5
357E5
  8
0
 10
6254.8561094411279555
 20
318.1361788809281279
 30
0.0
 40
1.0757635745791929
 50
44.5301094667440509
 51
48.6016141429943573
  0
ARC
  5
357E6
  8
0
 10
6255.5830296913509301
 20
318.8512727110796732
 30
0.0
 40
0.0560713484122322
 50
31.29485729230543
 51
44.5301094667440509
  0
ARC
  5
357E7
  8
0
 10
6255.6094402095886835
 20
318.8673273111807021
 30
0.0
 40
0.0251639761849765
 50
3.1986551328629971
 51
31.294857292308361
  0
ARC
  5
357E8
  8
0
 10
6220.6223000423169651
 20
318.6587385044763892
 30
0.0
 40
35.0128946709566335
 50
359.6560758415868122
 51
0.3436385252337286
  0
ARC
  5
357E9
  8
0
 10
6255.6141858652599694
 20
318.4470723309021878
 30
0.0
 40
0.0204331075870602
 50
295.0717961565923133
 51
4.2062898984995361
  0
ARC
  5
357EA
  8
0
 10
6256.3417028598305478
 20
316.9662381078031217
 30
0.0
 40
1.6294648848966919
 50
116.1780606631925963
 51
134.3506489950486866
  0
ARC
  5
357EB
  8
0
 10
6255.1806449025343682
 20
318.1540370752555873
 30
0.0
 40
0.0315355173960401
 50
258.4564506189919939
 51
314.1970841134577199
  0
ARC
  5
357EC
  8
0
 10
6254.9085520750586511
 20
316.7389180965554942
 30
0.0
 40
1.409506602633676
 50
79.1310086328084026
 51
91.274768192722135
  0
LINE
  5
357ED
  8
0
 10
6255.558356273562822
 20
319.0716134938656978
 30
0.0
 11
6255.7781091858651052
 21
319.0716134938656978
 31
0.0
  0
ARC
  5
357EE
  8
0
 10
6255.7781091858651052
 20
319.0216134938656865
 30
0.0
 40
0.0499999999999936
 50
54.7399675613120991
 51
90.0
  0
LINE
  5
357EF
  8
0
 10
6255.8069735945837238
 20
319.0624405181180236
 30
0.0
 11
6257.1162075016445669
 21
318.1368216836769989
 31
0.0
  0
ARC
  5
357F0
  8
0
 10
6257.0804275775908536
 20
318.0862130659398872
 30
0.0
 40
0.0619793123107861
 50
4.7425630989095087
 51
54.7399675613120991
  0
LINE
  5
357F1
  8
0
 10
6257.1421946877662776
 20
318.0913374444656938
 30
0.0
 11
6257.1421946877662776
 21
316.8172519426656777
 31
0.0
  0
ARC
  5
357F2
  8
0
 10
6257.0857693555235528
 20
316.8200843576494776
 30
0.0
 40
0.0564963776998806
 50
302.1513104143244846
 51
357.1263027631670752
  0
LINE
  5
357F3
  8
0
 10
6257.1158342980652378
 20
316.7722519426657186
 30
0.0
 11
6255.8417487962651649
 21
315.8713374444657234
 31
0.0
  0
ARC
  5
357F4
  8
0
 10
6255.7798894705383645
 20
315.9645789778949734
 30
0.0
 40
0.111895307031619
 50
269.0883701496518938
 51
303.5615296676061234
  0
ARC
  5
357F5
  8
0
 10
6254.2246303253332371
 20
320.5763225780842163
 30
0.0
 40
2.1711450537931638
 50
309.6296235141102215
 51
316.0865501810932869
  0
ARC
  5
357F6
  8
0
 10
6262.2509102868998525
 20
318.8424668870010237
 30
0.0
 40
7.0978795690101393
 50
185.811425957788714
 51
204.8716177129290088
  0
ARC
  5
357F7
  8
0
 10
6258.2549564343971724
 20
319.323783632657296
 30
0.0
 40
2.7690612615041501
 50
198.6834452432038916
 51
246.132202362904394
  0
ARC
  5
357F8
  8
0
 10
6257.0107905596742057
 20
320.5149276428376197
 30
0.0
 40
2.401143297370337
 50
242.1558692384340929
 51
272.94709716698992
  0
ARC
  5
357F9
  8
0
 10
6256.2237559736386174
 20
318.8807907661587819
 30
0.0
 40
0.5924453287988982
 50
186.2576673968166006
 51
235.6292805031546891
  0
LINE
  5
357FA
  8
0
 10
6255.5500899009393834
 20
319.0909065147657202
 30
0.0
 11
6255.8231873427648679
 21
319.0909065147657202
 31
0.0
  0
ARC
  5
357FB
  8
0
 10
6255.8231873427648679
 20
319.0278871291976088
 30
0.0
 40
0.0630193855680918
 50
55.2462992982895571
 51
90.0
  0
LINE
  5
357FC
  8
0
 10
6255.8591115328654269
 20
319.0796644941656837
 30
0.0
 11
6257.1972059478166557
 21
318.1334884224942243
 31
0.0
  0
LINE
  5
357FD
  8
0
 10
6257.2311908630472317
 20
317.9098854483735863
 30
0.0
 11
6257.2311908630472317
 21
316.4823309125906121
 31
0.0
  0
ARC
  5
357FE
  8
0
 10
6254.5315201075609366
 20
317.8470708924796213
 30
0.0
 40
2.7004014250576072
 50
1.3328883442403701
 51
5.2191393224326497
  0
ARC
  5
357FF
  8
0
 10
6257.1647588526993786
 20
318.0876013217102809
 30
0.0
 40
0.0562
 50
5.2191393224326497
 51
54.7355978429368406
  0
ARC
  5
35800
  8
0
 10
6254.6163936466173254
 20
316.5350849358349024
 30
0.0
 40
2.6153293234348021
 50
354.7534744548843832
 51
358.8442037251847978
  0
ARC
  5
35801
  8
0
 10
6257.1653454564557251
 20
316.3010250415958922
 30
0.0
 40
0.0556536871529633
 50
304.5987816546498266
 51
354.7534744548843832
  0
LINE
  5
35802
  8
0
 10
6257.1969468728639185
 20
316.2552136909657179
 30
0.0
 11
6255.8591469548764508
 21
315.3092462970965926
 31
0.0
  0
ARC
  5
35803
  8
0
 10
6255.8236976483485705
 20
315.3593791871657004
 30
0.0
 40
0.0614
 50
270.0
 51
305.2643896824059198
  0
LINE
  5
35804
  8
0
 10
6255.8091092286176718
 20
315.2776805836193148
 30
0.0
 11
6255.8415801372575515
 21
315.3006409833254224
 31
0.0
  0
ARC
  5
35805
  8
0
 10
6255.779029279579845
 20
315.3202200554763976
 30
0.0
 40
0.0521
 50
269.9956026925041783
 51
305.2643897002724884
  0
LINE
  5
35806
  8
0
 10
6255.5564595119731166
 20
319.0762617888814816
 30
0.0
 11
6255.8231852319649988
 21
319.0762617889657236
 31
0.0
  0
ARC
  5
35807
  8
0
 10
6255.8231852319695463
 20
319.0631742921664227
 30
0.0
 40
0.0130874967992778
 50
57.3603593786931683
 51
90.0000000180822184
  0
LINE
  5
35808
  8
0
 10
6255.8302440193647271
 20
319.0741950041656878
 30
0.0
 11
6257.1685710976380506
 21
318.1278547602910862
 31
0.0
  0
ARC
  5
35809
  8
0
 10
6257.1646622152802593
 20
318.122849411371817
 30
0.0
 40
0.0063508171993538
 50
3.2777000174784612
 51
52.0122621270064727
  0
LINE
  5
3580A
  8
0
 10
6257.1710026434648171
 20
318.1232125222657032
 30
0.0
 11
6257.1710025517650138
 21
316.7853783642656822
 31
0.0
  0
ARC
  5
3580B
  8
0
 10
6257.164744096731738
 20
316.7856918018001124
 30
0.0
 40
0.0062662989468215
 50
302.1613019454529194
 51
357.1328937406348132
  0
LINE
  5
3580C
  8
0
 10
6257.1680796766650019
 20
316.7803870483656965
 30
0.0
 11
6255.8302440267652855
 21
315.8343943882655935
 31
0.0
  0
ARC
  5
3580D
  8
0
 10
6255.823384112124586
 20
315.8447356622385769
 30
0.0
 40
0.0124096888057373
 50
269.0915214496557724
 51
303.5584236785945222
  0
ARC
  5
3580E
  8
0
 10
6257.1873850238507657
 20
318.0840565917483787
 30
0.0
 40
0.0344463934408578
 50
14.5554805321642107
 51
54.1120290279325786
  0
ARC
  5
3580F
  8
0
 10
6257.172542210399115
 20
318.0623496776178172
 30
0.0
 40
0.0607374890569398
 50
54.7719237549439413
 51
80.8377619480928047
  0
ARC
  5
35810
  8
0
 10
6257.170968077040925
 20
318.0525298718881118
 30
0.0
 40
0.0706826588297058
 50
80.8455141892846427
 51
89.9719802509341662
  0
ARC
  5
35811
  8
0
 10
6257.1716658291115891
 20
316.7212403194001809
 30
0.0
 40
0.0641414743828794
 50
61.4462690531302229
 51
90.5924976056078037
  0
ARC
  5
35812
  8
0
 10
6257.1834834103829053
 20
316.7429570055841168
 30
0.0
 40
0.0394176056344622
 50
27.1812408917237818
 51
61.4462690531302229
  0
ARC
  5
35813
  8
0
 10
6257.0640167334786383
 20
316.6816089105502101
 30
0.0
 40
0.1737153184030211
 50
15.7731774389157504
 51
27.1812408917237818
  0
ARC
  5
35814
  8
0
 10
6255.7766719440869565
 20
315.7615593481760925
 30
0.0
 40
0.0904169526993733
 50
31.5421806215570193
 51
53.6642263523747971
  0
ARC
  5
35815
  8
0
 10
6255.780417537307585
 20
315.7638584453359272
 30
0.0
 40
0.0860220333233308
 50
8.3551310169810833
 51
31.5421806215544791
  0
LINE
  5
35816
  8
0
 10
6255.865526569665235
 20
315.7763581584655981
 30
0.0
 11
6255.8655268026650447
 21
315.322830040765723
 31
0.0
  0
ARC
  5
35817
  8
0
 10
6255.8468461183829277
 20
315.3233136811767281
 30
0.0
 40
0.0186869439260039
 50
311.167177988642095
 51
358.5169512474826092
  0
ARC
  5
35818
  8
0
 10
6254.8776113602525584
 20
318.2250722559285236
 30
0.0
 40
3.0096117616063389
 50
269.992067556562688
 51
277.9611445518463029
  0
ARC
  5
35819
  8
0
 10
6254.8978243692490651
 20
318.0805380914167131
 30
0.0
 40
2.8636710529475682
 50
277.9611445518463029
 51
280.8683117077595739
  0
ARC
  5
3581A
  8
0
 10
6255.267875226149954
 20
317.2432920426917917
 30
0.0
 40
1.9430222281581371
 50
296.5346202047373936
 51
313.9941591600904758
  0
LINE
  5
3581B
  8
0
 10
6253.9915770956613414
 20
324.4940837786477914
 30
0.0
 11
6255.76281227986874
 21
324.4940837786477914
 31
0.0
  0
ARC
  5
3581D
  8
0
 10
6255.1317666601416931
 20
318.9002524647764858
 30
0.0
 40
0.4597208942056405
 50
19.6255281211642298
 51
42.8296144618235672
  0
ARC
  5
3581E
  8
0
 10
6255.5502225637510492
 20
319.0482103382519199
 30
0.0
 40
0.0159233011031275
 50
2.5139546270876441
 51
23.8920327769394483
  0
ARC
  5
3581F
  8
0
 10
6253.8565472105046865
 20
318.9738495828758005
 30
0.0
 40
1.7112302715776819
 50
357.5244971227186284
 51
2.5139546270876441
  0
ARC
  5
35820
  8
0
 10
6255.1669628285471845
 20
318.7991106619186894
 30
0.0
 40
0.4202246109715028
 50
315.7149853718867121
 51
355.2769376039337885
  0
LINE
  5
35821
  8
0
 10
6255.4677912797651516
 20
318.5056980401657256
 30
0.0
 11
6255.4677899435646395
 21
318.6541916656656781
 31
0.0
  0
ARC
  5
35822
  8
0
 10
6255.8214084189039568
 20
318.6541948476540824
 30
0.0
 40
0.353618475353439
 50
165.7080758106787925
 51
180.0005155683982991
  0
ARC
  5
35823
  8
0
 10
6228.84090330393974
 20
325.5273895395562818
 30
0.0
 40
27.4885880020693882
 50
345.7080758106787925
 51
346.2880391594890739
  0
ARC
  5
35824
  8
0
 10
6255.8654979433440531
 20
318.9139901473869827
 30
0.0
 40
0.3339826725393762
 50
157.4529458375137096
 51
163.0302996540995082
  0
ARC
  5
35825
  8
0
 10
6255.7880688388859198
 20
318.9303471670964996
 30
0.0
 40
0.2566145854594914
 50
152.0398186318205092
 51
154.1952063321176922
  0
ARC
  5
35826
  8
0
 10
6255.5684029572130385
 20
319.0469498407634887
 30
0.0
 40
0.0079194245150251
 50
128.7705720480981881
 51
152.0398186318205092
  0
ARC
  5
35827
  8
0
 10
6255.5643500279311411
 20
319.0519959733122164
 30
0.0
 40
0.0014472000549311
 50
42.5273914198805016
 51
128.7705720480902016
  0
LINE
  5
35828
  8
0
 10
6255.4677912797651516
 20
318.5056980401657256
 30
0.0
 11
6255.5661805277222811
 21
318.8999377230505843
 31
0.0
  0
ENDSEC
  0
EOF
