  0
SECTION
  2
HEADER
  9
$ACADVER
  1
AC1009
  9
$INSBASE
 10
316.4729258660456139
 20
42.7129446299388817
 30
0.0
  9
$EXTMIN
 10
309.7134940948678832
 20
42.7127436560358831
 30
-0.0015258207003583
  9
$EXTMAX
 10
323.2269013391860994
 20
51.4597556736620376
 30
0.0000000349246037
  9
$LIMMIN
 10
0.0
 20
0.0
  9
$LIMMAX
 10
22.0
 20
17.0
  9
$ORTHOMODE
 70
     0
  9
$REGENMODE
 70
     1
  9
$FILLMODE
 70
     1
  9
$QTEXTMODE
 70
     0
  9
$MIRRTEXT
 70
     0
  9
$DRAGMODE
 70
     2
  9
$LTSCALE
 40
1.2099999999999991
  9
$OSMODE
 70
     7
  9
$ATTMODE
 70
     1
  9
$TEXTSIZE
 40
0.2
  9
$TRACEWID
 40
0.05
  9
$TEXTSTYLE
  7
STANDARD
  9
$CLAYER
  8
0
  9
$CELTYPE
  6
BYLAYER
  9
$CECOLOR
 62
   256
  9
$DIMSCALE
 40
1.0
  9
$DIMASZ
 40
0.1875
  9
$DIMEXO
 40
0.0625
  9
$DIMDLI
 40
0.38
  9
$DIMRND
 40
0.0
  9
$DIMDLE
 40
0.0
  9
$DIMEXE
 40
0.125
  9
$DIMTP
 40
1.5
  9
$DIMTM
 40
1.5
  9
$DIMTXT
 40
1.5
  9
$DIMCEN
 40
0.09
  9
$DIMTSZ
 40
0.0
  9
$DIMTOL
 70
     0
  9
$DIMLIM
 70
     0
  9
$DIMTIH
 70
     1
  9
$DIMTOH
 70
     1
  9
$DIMSE1
 70
     0
  9
$DIMSE2
 70
     0
  9
$DIMTAD
 70
     0
  9
$DIMZIN
 70
     4
  9
$DIMBLK
  1

  9
$DIMASO
 70
     1
  9
$DIMSHO
 70
     1
  9
$DIMPOST
  1

  9
$DIMAPOST
  1

  9
$DIMALT
 70
     0
  9
$DIMALTD
 70
     2
  9
$DIMALTF
 40
25.3999999999999986
  9
$DIMLFAC
 40
1.0
  9
$DIMTOFL
 70
     0
  9
$DIMTVP
 40
0.0
  9
$DIMTIX
 70
     0
  9
$DIMSOXD
 70
     0
  9
$DIMSAH
 70
     0
  9
$DIMBLK1
  1

  9
$DIMBLK2
  1

  9
$DIMSTYLE
  2
STANDARD
  9
$DIMCLRD
 70
     0
  9
$DIMCLRE
 70
     0
  9
$DIMCLRT
 70
     0
  9
$DIMTFAC
 40
1.0
  9
$DIMGAP
 40
0.09
  9
$LUNITS
 70
     2
  9
$LUPREC
 70
     4
  9
$SKETCHINC
 40
0.1
  9
$FILLETRAD
 40
0.0
  9
$AUNITS
 70
     0
  9
$AUPREC
 70
     0
  9
$MENU
  1
.
  9
$ELEVATION
 40
0.0
  9
$PELEVATION
 40
0.0
  9
$THICKNESS
 40
0.0
  9
$LIMCHECK
 70
     0
  9
$BLIPMODE
 70
     0
  9
$CHAMFERA
 40
0.0
  9
$CHAMFERB
 40
0.0
  9
$SKPOLY
 70
     0
  9
$TDCREATE
 40
2457827.4934837957844138
  9
$TDUPDATE
 40
2459521.6159027782268822
  9
$TDINDWG
 40
0.3998978009
  9
$TDUSRTIMER
 40
0.3998978009
  9
$USRTIMER
 70
     1
  9
$ANGBASE
 50
0.0
  9
$ANGDIR
 70
     0
  9
$PDMODE
 70
     0
  9
$PDSIZE
 40
0.3125
  9
$PLINEWID
 40
0.0
  9
$COORDS
 70
     1
  9
$SPLFRAME
 70
     0
  9
$SPLINETYPE
 70
     6
  9
$SPLINESEGS
 70
     8
  9
$ATTDIA
 70
     1
  9
$ATTREQ
 70
     1
  9
$HANDLING
 70
     1
  9
$HANDSEED
  5
5B12
  9
$SURFTAB1
 70
     6
  9
$SURFTAB2
 70
     6
  9
$SURFTYPE
 70
     6
  9
$SURFU
 70
     6
  9
$SURFV
 70
     6
  9
$UCSNAME
  2

  9
$UCSORG
 10
0.0
 20
0.0
 30
0.0
  9
$UCSXDIR
 10
1.0
 20
0.0
 30
0.0
  9
$UCSYDIR
 10
0.0
 20
1.0
 30
0.0
  9
$PUCSNAME
  2

  9
$PUCSORG
 10
0.0
 20
0.0
 30
0.0
  9
$PUCSXDIR
 10
1.0
 20
0.0
 30
0.0
  9
$PUCSYDIR
 10
0.0
 20
1.0
 30
0.0
  9
$USERI1
 70
     0
  9
$USERI2
 70
     0
  9
$USERI3
 70
     0
  9
$USERI4
 70
     0
  9
$USERI5
 70
     0
  9
$USERR1
 40
0.0
  9
$USERR2
 40
0.0
  9
$USERR3
 40
0.0
  9
$USERR4
 40
0.0
  9
$USERR5
 40
0.0
  9
$WORLDVIEW
 70
     1
  9
$SHADEDGE
 70
     3
  9
$SHADEDIF
 70
    70
  9
$TILEMODE
 70
     1
  9
$MAXACTVP
 70
    48
  9
$PLIMCHECK
 70
     0
  9
$PEXTMIN
 10
1.0000000000000000E+20
 20
1.0000000000000000E+20
 30
1.0000000000000000E+20
  9
$PEXTMAX
 10
-1.0000000000000000E+20
 20
-1.0000000000000000E+20
 30
-1.0000000000000000E+20
  9
$PLIMMIN
 10
0.0
 20
0.0
  9
$PLIMMAX
 10
12.0
 20
9.0
  9
$UNITMODE
 70
     0
  9
$VISRETAIN
 70
     1
  9
$PLINEGEN
 70
     0
  9
$PSLTSCALE
 70
     1
  0
ENDSEC
  0
SECTION
  2
TABLES
  0
TABLE
  2
VPORT
 70
     1
  0
VPORT
  2
*ACTIVE
 70
     0
 10
0.0
 20
0.0
 11
1.0
 21
1.0
 12
105.4912701047223038
 22
39.8838004792884107
 13
0.0
 23
0.0
 14
1.0
 24
1.0
 15
0.0
 25
0.0
 16
-0.0000000000000284
 26
0.0
 36
157.2215818301446859
 17
210.9789276123046875
 27
7.2024491855605604
 37
0.0
 40
8.730803252894594
 41
2.218457943925233
 42
50.0
 43
0.0
 44
0.0
 50
0.0
 51
0.0
 71
     0
 72
   100
 73
     1
 74
     1
 75
     0
 76
     0
 77
     0
 78
     0
  0
ENDTAB
  0
TABLE
  2
LTYPE
 70
     2
  0
LTYPE
  2
CONTINUOUS
 70
     0
  3
Solid line
 72
    65
 73
     0
 40
0.0
  0
LTYPE
  2
PHANTOM2
 70
     0
  3
___ _ _ ___ _ _ ___ _ _ ___ _ _
 72
    65
 73
     6
 40
1.25
 49
0.625
 49
-0.125
 49
0.125
 49
-0.125
 49
0.125
 49
-0.125
  0
ENDTAB
  0
TABLE
  2
LAYER
 70
     2
  0
LAYER
  2
0
 70
     0
 62
     7
  6
CONTINUOUS
  0
LAYER
  2
DEFPOINTS
 70
     0
 62
     7
  6
CONTINUOUS
  0
ENDTAB
  0
TABLE
  2
STYLE
 70
     1
  0
STYLE
  2
STANDARD
 70
     0
 40
0.0
 41
0.8
 50
0.0
 71
     0
 42
0.2
  3
txt
  4

  0
ENDTAB
  0
TABLE
  2
VIEW
 70
     0
  0
ENDTAB
  0
TABLE
  2
UCS
 70
     0
  0
ENDTAB
  0
TABLE
  2
APPID
 70
     9
  0
APPID
  2
ACAD
 70
     0
  0
APPID
  2
ACAD_MLEADERVER
 70
     0
  0
APPID
  2
ACAD_EXEMPT_FROM_CAD_STANDARDS
 70
     0
  0
APPID
  2
ACAD_NAV_VCDISPLAY
 70
     0
  0
APPID
  2
ACADANNOMONITORALERTICONDI
 70
     0
  0
APPID
  2
ACAD_DSTYLE_DIMJAG
 70
     0
  0
APPID
  2
ACAD_DSTYLE_DIMTALN
 70
     0
  0
APPID
  2
ACDBATTR
 70
     0
  0
APPID
  2
DCO15
 70
     0
  0
ENDTAB
  0
TABLE
  2
DIMSTYLE
 70
     1
  0
DIMSTYLE
  2
STANDARD
 70
     0
  3

  4

  5

  6

  7

 40
1.0
 41
0.1875
 42
0.0625
 43
0.38
 44
0.125
 45
0.0
 46
0.0
 47
1.5
 48
1.5
140
1.5
141
0.09
142
0.0
143
25.3999999999999986
144
1.0
145
0.0
146
1.0
147
0.09
 71
     0
 72
     0
 73
     1
 74
     1
 75
     0
 76
     0
 77
     0
 78
     4
170
     0
171
     2
172
     0
173
     0
174
     0
175
     0
176
     0
177
     0
178
     0
  0
ENDTAB
  0
ENDSEC
  0
SECTION
  2
BLOCKS
  0
BLOCK
  8
0
  2
$MODEL_SPACE
 70
     0
 10
0.0
 20
0.0
 30
0.0
  3
$MODEL_SPACE
  1

  0
ENDBLK
  5
21
  8
0
  0
BLOCK
 67
     1
  8
0
  2
$PAPER_SPACE
 70
     0
 10
0.0
 20
0.0
 30
0.0
  3
$PAPER_SPACE
  1

  0
ENDBLK
  5
1D
 67
     1
  8
0
  0
ENDSEC
  0
SECTION
  2
ENTITIES
  0
ATTDEF
  5
4EF9
  8
DEFPOINTS
 10
316.4729342991888075
 20
42.716295886820312
 30
0.0
 40
0.001
  1
P21802-LV
  3

  2
MODELNUMBER
 70
     0
1001
ACDBATTR
1070
     0
1070
     1
  0
ATTDEF
  5
4EFA
  8
DEFPOINTS
 10
316.4729342991888075
 20
42.7146292201536184
 30
0.0
 40
0.001
  1
ONE
  3

  2
TRADENAME
 70
     0
1001
ACDBATTR
1070
     0
1070
     1
  0
ATTDEF
  5
4EFB
  8
DEFPOINTS
 10
316.4729342991888075
 20
42.712962553486939
 30
0.0
 40
0.001
  1
DECK-MOUNT BATH FAUCET TRIM
  3

  2
PRODUCT
 70
     0
1001
ACDBATTR
1070
     0
1070
     1
  0
LINE
  5
5988
  8
0
 10
317.8479258660456139
 20
42.7129446299388817
 30
0.0
 11
315.0979258660456139
 21
42.7129446299388817
 31
0.0
  0
LINE
  5
5989
  8
0
 10
315.1079258660456048
 20
43.2329446299388778
 30
0.0
 11
317.837925866045623
 21
43.2329446299388778
 31
0.0
  0
LINE
  5
598A
  8
0
 10
315.0979258660456139
 20
43.2229446299388798
 30
0.0
 11
315.0979258660456139
 21
42.7129446299388817
 31
0.0
  0
LINE
  5
598B
  8
0
 10
315.9429258660455844
 20
43.2329446299388778
 30
0.0
 11
315.9429258660455844
 21
50.9279446299388923
 31
0.0
  0
LINE
  5
598C
  8
0
 10
317.0029258660455866
 20
43.2329446299388778
 30
0.0
 11
317.0029258660455866
 21
50.9279446299388923
 31
0.0
  0
ARC
  5
598D
  8
0
 10
315.1079258660456048
 20
43.2229446299388798
 30
0.0
 40
0.0100000000000007
 50
89.9999994270417432
 51
179.9999999999947136
  0
ARC
  5
598E
  8
0
 10
316.4729258660456139
 20
41.0653254128520473
 30
0.0
 40
8.1141410080868361
 50
87.8815128962292249
 51
92.1184871037707751
  0
ARC
  5
598F
  8
0
 10
316.3069874765948271
 20
45.9308325119212029
 30
0.0
 40
3.2458556304132422
 50
92.3662174637444622
 51
93.6770526430675119
  0
ARC
  5
5990
  8
0
 10
316.1745915278822281
 20
47.9718958147079206
 30
0.0
 40
1.2005038175662051
 50
93.6186050764814865
 51
97.3715993797331834
  0
ARC
  5
5991
  8
0
 10
316.0416112389103773
 20
49.0198579845491196
 30
0.0
 40
0.1441642985829903
 50
98.3956713973117303
 51
106.9786248802021049
  0
ARC
  5
5992
  8
0
 10
315.9970601120256219
 20
49.154476002626879
 30
0.0
 40
0.0016338992800166
 50
126.9307989523710063
 51
233.0692010476460894
  0
ARC
  5
5993
  8
0
 10
316.0037612491648247
 20
49.1462883367363332
 30
0.0
 40
0.01221300823861
 50
110.3550739984018065
 51
128.981713710523195
  0
ARC
  5
5994
  8
0
 10
316.4729258660456139
 20
57.2436265924021797
 30
0.0
 40
8.1141410080872909
 50
267.8815128962291965
 51
272.1184871037708035
  0
ARC
  5
5995
  8
0
 10
316.3069874765948271
 20
52.3781194933325693
 30
0.0
 40
3.2458556304132422
 50
266.3229473569325023
 51
267.6337825362555236
  0
ARC
  5
5996
  8
0
 10
316.1745915278822281
 20
50.3370561905458516
 30
0.0
 40
1.2005038175662051
 50
262.6284006202668024
 51
266.3813949235151881
  0
ARC
  5
5997
  8
0
 10
316.0416112389103773
 20
49.2890940207046597
 30
0.0
 40
0.1441642985829903
 50
253.0213751197979093
 51
261.6043286026883266
  0
ARC
  5
5998
  8
0
 10
316.0037612491648247
 20
49.1626636685174319
 30
0.0
 40
0.01221300823861
 50
231.0182862894766913
 51
249.644926001598094
  0
ARC
  5
5999
  8
0
 10
316.4729258660456139
 20
58.2815031849894822
 30
0.0
 40
9.1542555851002945
 50
268.2329037408629802
 51
271.7670962591337229
  0
ARC
  5
599A
  8
0
 10
316.324450969965028
 20
53.3045517287806021
 30
0.0
 40
4.1750955897327833
 50
266.642184539438972
 51
268.1633439229793225
  0
ARC
  5
599B
  8
0
 10
316.2043506468746727
 20
51.2137883295471283
 30
0.0
 40
2.080888703874308
 50
264.7205122933178245
 51
266.5715648627586916
  0
ARC
  5
599C
  8
0
 10
316.0708290491025991
 20
49.7347315590239489
 30
0.0
 40
0.5958289283440092
 50
259.7631556690072898
 51
264.4186672397083271
  0
ARC
  5
599D
  8
0
 10
315.9801728100450191
 20
49.2189274829333598
 30
0.0
 40
0.072166202743713
 50
245.2779978528627112
 51
257.8141843524056753
  0
ARC
  5
599E
  8
0
 10
315.9556668086336799
 20
49.1647873648164975
 30
0.0
 40
0.0127450887414357
 50
181.4615061755596912
 51
243.5591457562632911
  0
ARC
  5
599F
  8
0
 10
316.4729258660456139
 20
50.9279446299388923
 30
0.0
 40
0.5299999999999998
 50
0.0
 51
180.0
  0
LINE
  5
59A0
  8
0
 10
316.3670925944455803
 20
49.1533476776388909
 30
0.0
 11
316.3670925944455803
 21
49.178776196472711
 31
0.0
  0
LINE
  5
59A1
  8
0
 10
316.3836982332455818
 20
49.1571120420388894
 30
0.0
 11
316.3836982332455818
 21
49.1789758076567907
 31
0.0
  0
LINE
  5
59A2
  8
0
 10
316.3819269651456239
 20
49.148847285138892
 30
0.0
 11
316.3688638626455827
 21
49.1458859852388912
 31
0.0
  0
ARC
  5
59A3
  8
0
 10
316.3908311468853185
 20
49.1532715241370965
 30
0.0
 40
0.0237386745899897
 50
179.8161952254455116
 51
196.4242994677346985
  0
ARC
  5
59A4
  8
0
 10
316.3691140846167968
 20
49.1469993416641699
 30
0.0
 40
0.0011411281981318
 50
202.6738083571401887
 51
257.3334903025154858
  0
ARC
  5
59A5
  8
0
 10
316.3547626846805088
 20
49.1569902844378035
 30
0.0
 40
0.0289358047353102
 50
347.668510297471073
 51
0.2410929060578748
  0
ARC
  5
59A6
  8
0
 10
316.3780790296430041
 20
49.1518930736418511
 30
0.0
 40
0.0050688086882214
 50
328.6185355212629133
 51
347.6685102974720962
  0
ARC
  5
59A7
  8
0
 10
316.3815537631705865
 20
49.1497736298589132
 30
0.0
 40
0.0009986962773772
 50
291.9433181957588204
 51
328.618535521261208
  0
ARC
  5
59A8
  8
0
 10
316.0858038181801248
 20
49.171042905033822
 30
0.0
 40
0.0077615152696691
 50
271.9966486504761747
 51
349.6889402915940082
  0
LINE
  5
59A9
  8
0
 10
316.0860742374455867
 20
49.1632861020388887
 30
0.0
 11
316.0305407919456115
 21
49.1623975276388876
 31
0.0
  0
ARC
  5
59AA
  8
0
 10
316.030425706473693
 20
49.1695900517293083
 30
0.0
 40
0.0071934447559705
 50
241.1834690222985103
 51
270.9166947642979721
  0
ARC
  5
59AB
  8
0
 10
316.1882324264274757
 20
50.3329228064724106
 30
0.0
 40
1.1811764635628299
 50
262.2628521693837911
 51
262.2629487543798064
  0
ARC
  5
59AC
  8
0
 10
316.1882324264274757
 20
50.3329228064724106
 30
0.0
 40
1.1811764635628299
 50
262.2869495819854819
 51
267.3976722892921885
  0
ARC
  5
59AD
  8
0
 10
316.1780931248807178
 20
49.7677648828480983
 30
0.0
 40
0.6114426155359026
 50
261.3444024043981244
 51
265.9074672919550721
  0
ARC
  5
59AE
  8
0
 10
316.2777850101314243
 20
50.9847942378956276
 30
0.0
 40
1.832526603911695
 50
265.5140941167854862
 51
266.8495551753032942
  0
LINE
  5
59AF
  8
0
 10
316.1346027952455984
 20
49.1529644594388913
 30
0.0
 11
316.1770731379456265
 21
49.155037184938891
 31
0.0
  0
ARC
  5
59B0
  8
0
 10
316.1768256929486824
 20
49.1601073564680675
 30
0.0
 40
0.0050762060992224
 50
272.7940502118611903
 51
335.0983357586426905
  0
ARC
  5
59B1
  8
0
 10
316.1671169246724844
 20
49.1646143594293434
 30
0.0
 40
0.0157800959124714
 50
335.0983357586434863
 51
354.790111957706074
  0
LINE
  5
59B2
  8
0
 10
316.1828318289456092
 20
49.1631814565388865
 30
0.0
 11
316.1828318289456092
 21
49.174279090659347
 31
0.0
  0
ARC
  5
59B3
  8
0
 10
316.6388642554965145
 20
45.9308325119212029
 30
0.0
 40
3.2458556304132422
 50
86.3229473569325023
 51
87.6337825362555236
  0
ARC
  5
59B4
  8
0
 10
316.7712602042091135
 20
47.9718958147079206
 30
0.0
 40
1.2005038175662051
 50
82.6284006202668309
 51
86.3813949235185135
  0
ARC
  5
59B5
  8
0
 10
316.9042404931809074
 20
49.0198579845491196
 30
0.0
 40
0.1441642985829903
 50
73.0213751197979235
 51
81.6043286026883266
  0
ARC
  5
59B6
  8
0
 10
316.9487916200657196
 20
49.154476002626879
 30
0.0
 40
0.0016338992800166
 50
306.9307989523513243
 51
53.0692010476291216
  0
ARC
  5
59B7
  8
0
 10
316.9420904829264032
 20
49.1462883367363332
 30
0.0
 40
0.01221300823861
 50
51.0182862894767482
 51
69.6449260015981793
  0
ARC
  5
59B8
  8
0
 10
316.6388642554965145
 20
52.3781194933325693
 30
0.0
 40
3.2458556304132422
 50
272.3662174637444764
 51
273.677052643067384
  0
ARC
  5
59B9
  8
0
 10
316.7712602042091135
 20
50.3370561905458516
 30
0.0
 40
1.2005038175662051
 50
273.618605076481515
 51
277.3715993797299006
  0
ARC
  5
59BA
  8
0
 10
316.9042404931809074
 20
49.2890940207046597
 30
0.0
 40
0.1441642985829903
 50
278.3956713973116734
 51
286.9786248802021191
  0
ARC
  5
59BB
  8
0
 10
316.9420904829264032
 20
49.1626636685174319
 30
0.0
 40
0.01221300823861
 50
290.3550739984017923
 51
308.981713710523195
  0
ARC
  5
59BC
  8
0
 10
316.6214007621263136
 20
53.3045517287806021
 30
0.0
 40
4.1750955897327833
 50
271.8366560770206206
 51
273.357815460561028
  0
ARC
  5
59BD
  8
0
 10
316.7415010852164983
 20
51.2137883295471283
 30
0.0
 40
2.080888703874308
 50
273.4284351372413084
 51
275.2794877066821755
  0
ARC
  5
59BE
  8
0
 10
316.8750226829885719
 20
49.7347315590239489
 30
0.0
 40
0.5958289283440092
 50
275.5813327602916729
 51
280.2368443309925965
  0
ARC
  5
59BF
  8
0
 10
316.9656789220462088
 20
49.2189274829333598
 30
0.0
 40
0.072166202743713
 50
282.1858156475910846
 51
294.7220021471371751
  0
ARC
  5
59C0
  8
0
 10
316.9901849234574911
 20
49.1647873648164975
 30
0.0
 40
0.0127450887414357
 50
296.4408542437337246
 51
358.5384938244401951
  0
LINE
  5
59C1
  8
0
 10
316.5787591376455907
 20
49.1533476776388909
 30
0.0
 11
316.5787591376455907
 21
49.178776196472711
 31
0.0
  0
LINE
  5
59C2
  8
0
 10
316.5621534988455892
 20
49.1571120420388894
 30
0.0
 11
316.5621534988455892
 21
49.1789758076567907
 31
0.0
  0
LINE
  5
59C3
  8
0
 10
316.563924766945604
 20
49.148847285138892
 30
0.0
 11
316.5769878694455883
 21
49.1458859852388912
 31
0.0
  0
ARC
  5
59C4
  8
0
 10
316.5550205852059094
 20
49.1532715241370965
 30
0.0
 40
0.0237386745899897
 50
343.5757005322652731
 51
0.1838047745544457
  0
ARC
  5
59C5
  8
0
 10
316.5767376474744879
 20
49.1469993416641699
 30
0.0
 40
0.0011411281981318
 50
282.6665096974845142
 51
337.3261916428597829
  0
ARC
  5
59C6
  8
0
 10
316.5910890474107759
 20
49.1569902844378035
 30
0.0
 40
0.0289358047353102
 50
179.7589070939420992
 51
192.3314897025288133
  0
ARC
  5
59C7
  8
0
 10
316.5677727024482238
 20
49.1518930736418511
 30
0.0
 40
0.0050688086882214
 50
192.3314897025275911
 51
211.3814644787370014
  0
ARC
  5
59C8
  8
0
 10
316.5642979689205845
 20
49.1497736298589132
 30
0.0
 40
0.0009986962773772
 50
211.381464478738792
 51
248.0566818042412081
  0
ARC
  5
59C9
  8
0
 10
316.860047913911103
 20
49.171042905033822
 30
0.0
 40
0.0077615152696691
 50
190.3110597084061055
 51
268.0033513495238253
  0
LINE
  5
59CA
  8
0
 10
316.8597774946455843
 20
49.1632861020388887
 30
0.0
 11
316.9153109401456163
 21
49.1623975276388876
 31
0.0
  0
ARC
  5
59CB
  8
0
 10
316.9154260256174211
 20
49.1695900517293083
 30
0.0
 40
0.0071934447559705
 50
269.0833052357020279
 51
298.8165309777015182
  0
ARC
  5
59CC
  8
0
 10
316.7576193056635816
 20
50.3329228064724106
 30
0.0
 40
1.1811764635628299
 50
277.7370512456168967
 51
277.7371478306160952
  0
ARC
  5
59CD
  8
0
 10
316.7576193056635816
 20
50.3329228064724106
 30
0.0
 40
1.1811764635628299
 50
272.6023277107078115
 51
277.713050418011278
  0
ARC
  5
59CE
  8
0
 10
316.7677586072106237
 20
49.7677648828480983
 30
0.0
 40
0.6114426155359026
 50
274.0925327080416878
 51
278.6555975956018756
  0
ARC
  5
59CF
  8
0
 10
316.6680667219598035
 20
50.9847942378956276
 30
0.0
 40
1.832526603911695
 50
273.1504448246965921
 51
274.4859058832144001
  0
LINE
  5
59D0
  8
0
 10
316.8112489368455726
 20
49.1529644594388913
 30
0.0
 11
316.7687785941456013
 21
49.155037184938891
 31
0.0
  0
ARC
  5
59D1
  8
0
 10
316.7690260391424886
 20
49.1601073564680675
 30
0.0
 40
0.0050762060992224
 50
204.9016642413571958
 51
267.2059497881388097
  0
ARC
  5
59D2
  8
0
 10
316.7787348074186866
 20
49.1646143594293434
 30
0.0
 40
0.0157800959124714
 50
185.2098880422938976
 51
204.9016642413565137
  0
LINE
  5
59D3
  8
0
 10
316.7630199031456186
 20
49.1631814565388865
 30
0.0
 11
316.7630199031456186
 21
49.174279090659347
 31
0.0
  0
ARC
  5
59D4
  8
0
 10
316.4729258661456015
 20
56.7786904662415566
 30
0.0
 40
7.6303858204026689
 50
269.3166824470919209
 51
270.6833175529080791
  0
ARC
  5
59D5
  8
0
 10
316.4729258660456139
 20
57.7217285136578369
 30
0.0
 40
8.5764738659189561
 50
269.3047888910168126
 51
270.6952111089831874
  0
LINE
  5
59D6
  8
0
 10
317.8479258660456139
 20
43.2229446299388798
 30
0.0
 11
317.8479258660456139
 21
42.7129446299388817
 31
0.0
  0
ARC
  5
59D7
  8
0
 10
317.837925866045623
 20
43.2229446299388798
 30
0.0
 40
0.0100000000000007
 50
0.0000000000052924
 51
90.0000005729582426
  0
LINE
  5
59D8
  8
0
 10
313.8479258660456139
 20
42.7129446299388817
 30
0.0
 11
311.0979258660456139
 21
42.7129446299388817
 31
0.0
  0
LINE
  5
59D9
  8
0
 10
309.7629258660456912
 20
44.5649446299388785
 30
0.0
 11
312.8279258660455753
 21
44.5649446299388785
 31
0.0
  0
LINE
  5
59DA
  8
0
 10
312.1179258660455957
 20
43.24294462993889
 30
0.0
 11
312.1179258660455957
 21
44.5649446299388785
 31
0.0
  0
LINE
  5
59DB
  8
0
 10
312.8279258660455753
 20
43.24294462993889
 30
0.0
 11
312.8279258660455753
 21
44.5649446299388785
 31
0.0
  0
LINE
  5
59DC
  8
0
 10
311.0979258660456139
 20
43.2329446299388778
 30
0.0
 11
311.0979258660456139
 21
42.7129446299388817
 31
0.0
  0
LINE
  5
59DD
  8
0
 10
311.1079258660456048
 20
43.24294462993889
 30
0.0
 11
313.837925866045623
 21
43.24294462993889
 31
0.0
  0
ARC
  5
59DE
  8
0
 10
311.1079258660456048
 20
43.2329446299388778
 30
0.0
 40
0.0100000000000007
 50
90.0000000000195257
 51
179.9999999999974989
  0
LINE
  5
59DF
  8
0
 10
313.8479258660456139
 20
43.2329446299388778
 30
0.0
 11
313.8479258660456139
 21
42.7129446299388817
 31
0.0
  0
ARC
  5
59E0
  8
0
 10
313.837925866045623
 20
43.2329446299388778
 30
0.0
 40
0.0100000000000007
 50
0.0000000000024427
 51
89.9999999999804601
  0
ARC
  5
59E1
  8
0
 10
316.4729258660456139
 20
39.7614121227925565
 30
0.0
 40
9.430788231146332
 50
88.3977184246187733
 51
91.6022815753812125
  0
ARC
  5
59E2
  8
0
 10
316.3204162689572172
 20
45.1018126000559576
 30
0.0
 40
4.0882126432740193
 50
91.558489910138519
 51
94.0706727277740242
  0
ARC
  5
59E3
  8
0
 10
316.0913190041774783
 20
48.3209889504683474
 30
0.0
 40
0.8608945722150319
 50
94.0706727277740242
 51
97.3553316936976643
  0
ARC
  5
59E4
  8
0
 10
316.0182713072512115
 20
48.8846322576941716
 30
0.0
 40
0.2925377297582437
 50
97.2990001027820171
 51
103.1292011563646014
  0
ARC
  5
59E5
  8
0
 10
315.9620080318246096
 20
49.132998873618952
 30
0.0
 40
0.0379180285383933
 50
105.5828676743128938
 51
117.0712506920529989
  0
ARC
  5
59E6
  8
0
 10
315.9466883172742087
 20
49.1633508242918893
 30
0.0
 40
0.0039231888990026
 50
119.5812488009169954
 51
163.5422327173862129
  0
ARC
  5
59E7
  8
0
 10
316.6254354631340107
 20
45.1018126000559576
 30
0.0
 40
4.0882126432740193
 50
85.9293272722259758
 51
88.441510089861481
  0
ARC
  5
59E8
  8
0
 10
316.8545327279136927
 20
48.3209889504683474
 30
0.0
 40
0.8608945722150319
 50
82.6446683063023642
 51
85.9293272722259758
  0
ARC
  5
59E9
  8
0
 10
316.9275804248400163
 20
48.8846322576941716
 30
0.0
 40
0.2925377297582437
 50
76.8707988436353986
 51
82.7009998972180114
  0
ARC
  5
59EA
  8
0
 10
316.9838437002666751
 20
49.132998873618952
 30
0.0
 40
0.0379180285383933
 50
62.9287493079468732
 51
74.4171323256870494
  0
ARC
  5
59EB
  8
0
 10
316.9991634148170192
 20
49.1633508242918893
 30
0.0
 40
0.0039231888990026
 50
16.4577672826137693
 51
60.4187511990829833
  0
LINE
  5
59ED
  8
0
 10
309.7329258660456048
 20
44.5949446299388867
 30
0.0
 11
309.7329258660456048
 21
45.5049446299388904
 31
0.0
  0
LINE
  5
59EE
  8
0
 10
312.8279258660455753
 20
44.5949446299388796
 30
0.0
 11
312.8279258660455753
 21
45.5049446299384499
 31
0.0
  0
ARC
  5
59EF
  8
0
 10
312.7979258660456026
 20
44.5949446299388796
 30
0.0
 40
0.0299999999999985
 50
270.0
 51
0.0000000000050889
  0
LINE
  5
59F0
  8
0
 10
309.7629258660455775
 20
45.5349446299388916
 30
0.0
 11
312.7979258660456026
 21
45.5349446299388916
 31
0.0
  0
ARC
  5
59F1
  8
0
 10
309.7629258660456912
 20
44.5949446299388867
 30
0.0
 40
0.0300000000000011
 50
180.0000000000007958
 51
269.9999999999968168
  0
ARC
  5
59F2
  8
0
 10
309.7629258660455775
 20
45.5049446299388904
 30
0.0
 40
0.0299999999999996
 50
89.9999999999967457
 51
180.0000000000007958
  0
LINE
  5
59F3
  8
0
 10
312.1539276116569113
 20
45.5049446041252921
 30
0.0
 11
312.1408479849343962
 21
44.594944612069277
 31
0.0
  0
ARC
  5
59F4
  8
0
 10
312.1704606397174189
 20
44.5945197661441597
 30
0.0
 40
0.0296157022094122
 50
179.1780470632031097
 51
267.0007869745389826
  0
ARC
  5
59F5
  8
0
 10
312.1840197931996954
 20
45.5050160448050676
 30
0.0
 40
0.0300922663449953
 50
95.9786984397125309
 51
180.136023429905805
  0
ARC
  5
59F6
  8
0
 10
312.7979258660456026
 20
45.5049446299388904
 30
0.0
 40
0.0299999999999967
 50
359.9999999999948841
 51
90.000000002012726
  0
LINE
  5
59F7
  8
0
 10
319.0979258660456139
 20
42.7129446299388817
 30
0.0
 11
321.8479258660456139
 21
42.7129446299388817
 31
0.0
  0
LINE
  5
59F8
  8
0
 10
323.1829258660455935
 20
44.5649446299388785
 30
0.0
 11
320.1179258660455957
 21
44.5649446299388785
 31
0.0
  0
LINE
  5
59F9
  8
0
 10
320.8279258660455753
 20
43.24294462993889
 30
0.0
 11
320.8279258660455753
 21
44.5649446299388785
 31
0.0
  0
LINE
  5
59FA
  8
0
 10
320.1179258660455957
 20
43.24294462993889
 30
0.0
 11
320.1179258660455957
 21
44.5649446299388785
 31
0.0
  0
LINE
  5
59FB
  8
0
 10
321.8479258660456139
 20
43.2329446299388778
 30
0.0
 11
321.8479258660456139
 21
42.7129446299388817
 31
0.0
  0
LINE
  5
59FC
  8
0
 10
321.837925866045623
 20
43.24294462993889
 30
0.0
 11
319.1079258660456048
 21
43.24294462993889
 31
0.0
  0
ARC
  5
59FD
  8
0
 10
321.837925866045623
 20
43.2329446299388778
 30
0.0
 40
0.0100000000000007
 50
0.0000000000024427
 51
89.9999999999804601
  0
LINE
  5
59FE
  8
0
 10
319.0979258660456139
 20
43.2329446299388778
 30
0.0
 11
319.0979258660456139
 21
42.7129446299388817
 31
0.0
  0
ARC
  5
59FF
  8
0
 10
319.1079258660456048
 20
43.2329446299388778
 30
0.0
 40
0.0100000000000007
 50
90.0000000000195257
 51
179.9999999999974989
  0
LINE
  5
5A00
  8
0
 10
323.212925866045623
 20
44.5949446299388867
 30
0.0
 11
323.212925866045623
 21
45.5049446299388904
 31
0.0
  0
LINE
  5
5A01
  8
0
 10
320.1179258660455957
 20
44.5949446299388796
 30
0.0
 11
320.1179258660455957
 21
45.5049446299384499
 31
0.0
  0
ARC
  5
5A02
  8
0
 10
320.1479258660456253
 20
44.5949446299388796
 30
0.0
 40
0.0299999999999985
 50
179.9999999999949125
 51
269.9999999999968168
  0
LINE
  5
5A03
  8
0
 10
323.1829258660455935
 20
45.5349446299388916
 30
0.0
 11
320.1479258660456253
 21
45.5349446299388916
 31
0.0
  0
ARC
  5
5A04
  8
0
 10
323.1829258660455935
 20
44.5949446299388867
 30
0.0
 40
0.0300000000000011
 50
270.0000000000032969
 51
359.9999999999992042
  0
ARC
  5
5A05
  8
0
 10
323.1829258660455935
 20
45.5049446299388904
 30
0.0
 40
0.0299999999999996
 50
359.9999999999992042
 51
90.0000000000032543
  0
LINE
  5
5A06
  8
0
 10
320.7919241204343734
 20
45.5049446041252921
 30
0.0
 11
320.8050037471567748
 21
44.594944612069277
 31
0.0
  0
ARC
  5
5A07
  8
0
 10
320.775391092373809
 20
44.5945197661441597
 30
0.0
 40
0.0296157022094122
 50
272.9992130254609037
 51
0.8219529367968751
  0
ARC
  5
5A08
  8
0
 10
320.7618319388914756
 20
45.5050160448050676
 30
0.0
 40
0.0300922663449953
 50
359.8639765700942235
 51
84.0213015602874975
  0
ARC
  5
5A09
  8
0
 10
320.1479258660456253
 20
45.5049446299388904
 30
0.0
 40
0.0299999999999967
 50
89.9999999979872456
 51
180.0000000000050875
  0
ENDSEC
  0
EOF
