  0
SECTION
  2
HEADER
  9
$ACADVER
  1
AC1009
  9
$INSBASE
 10
322.4194493046848038
 20
35.4529035453317078
 30
0.0
  9
$EXTMIN
 10
315.6687359033850271
 20
27.7236225167687707
 30
-0.0000000349181948
  9
$EXTMAX
 10
329.1798877846676987
 20
36.8308862989546313
 30
0.0000000814935746
  9
$LIMMIN
 10
0.0
 20
0.0
  9
$LIMMAX
 10
22.0
 20
17.0
  9
$ORTHOMODE
 70
     0
  9
$REGENMODE
 70
     1
  9
$FILLMODE
 70
     1
  9
$QTEXTMODE
 70
     0
  9
$MIRRTEXT
 70
     0
  9
$DRAGMODE
 70
     2
  9
$LTSCALE
 40
1.2099999999999991
  9
$OSMODE
 70
     7
  9
$ATTMODE
 70
     1
  9
$TEXTSIZE
 40
0.2
  9
$TRACEWID
 40
0.05
  9
$TEXTSTYLE
  7
STANDARD
  9
$CLAYER
  8
0
  9
$CELTYPE
  6
BYLAYER
  9
$CECOLOR
 62
   256
  9
$DIMSCALE
 40
1.0
  9
$DIMASZ
 40
0.1875
  9
$DIMEXO
 40
0.0625
  9
$DIMDLI
 40
0.38
  9
$DIMRND
 40
0.0
  9
$DIMDLE
 40
0.0
  9
$DIMEXE
 40
0.125
  9
$DIMTP
 40
1.5
  9
$DIMTM
 40
1.5
  9
$DIMTXT
 40
1.5
  9
$DIMCEN
 40
0.09
  9
$DIMTSZ
 40
0.0
  9
$DIMTOL
 70
     0
  9
$DIMLIM
 70
     0
  9
$DIMTIH
 70
     1
  9
$DIMTOH
 70
     1
  9
$DIMSE1
 70
     0
  9
$DIMSE2
 70
     0
  9
$DIMTAD
 70
     0
  9
$DIMZIN
 70
     4
  9
$DIMBLK
  1

  9
$DIMASO
 70
     1
  9
$DIMSHO
 70
     1
  9
$DIMPOST
  1

  9
$DIMAPOST
  1

  9
$DIMALT
 70
     0
  9
$DIMALTD
 70
     2
  9
$DIMALTF
 40
25.3999999999999986
  9
$DIMLFAC
 40
1.0
  9
$DIMTOFL
 70
     0
  9
$DIMTVP
 40
0.0
  9
$DIMTIX
 70
     0
  9
$DIMSOXD
 70
     0
  9
$DIMSAH
 70
     0
  9
$DIMBLK1
  1

  9
$DIMBLK2
  1

  9
$DIMSTYLE
  2
STANDARD
  9
$DIMCLRD
 70
     0
  9
$DIMCLRE
 70
     0
  9
$DIMCLRT
 70
     0
  9
$DIMTFAC
 40
1.0
  9
$DIMGAP
 40
0.09
  9
$LUNITS
 70
     2
  9
$LUPREC
 70
     4
  9
$SKETCHINC
 40
0.1
  9
$FILLETRAD
 40
0.0
  9
$AUNITS
 70
     0
  9
$AUPREC
 70
     0
  9
$MENU
  1
.
  9
$ELEVATION
 40
0.0
  9
$PELEVATION
 40
0.0
  9
$THICKNESS
 40
0.0
  9
$LIMCHECK
 70
     0
  9
$BLIPMODE
 70
     0
  9
$CHAMFERA
 40
0.0
  9
$CHAMFERB
 40
0.0
  9
$SKPOLY
 70
     0
  9
$TDCREATE
 40
2457827.4934837957844138
  9
$TDUPDATE
 40
2459521.6157638891600072
  9
$TDINDWG
 40
0.4005575231
  9
$TDUSRTIMER
 40
0.4005575231
  9
$USRTIMER
 70
     1
  9
$ANGBASE
 50
0.0
  9
$ANGDIR
 70
     0
  9
$PDMODE
 70
     0
  9
$PDSIZE
 40
0.3125
  9
$PLINEWID
 40
0.0
  9
$COORDS
 70
     1
  9
$SPLFRAME
 70
     0
  9
$SPLINETYPE
 70
     6
  9
$SPLINESEGS
 70
     8
  9
$ATTDIA
 70
     1
  9
$ATTREQ
 70
     1
  9
$HANDLING
 70
     1
  9
$HANDSEED
  5
5B93
  9
$SURFTAB1
 70
     6
  9
$SURFTAB2
 70
     6
  9
$SURFTYPE
 70
     6
  9
$SURFU
 70
     6
  9
$SURFV
 70
     6
  9
$UCSNAME
  2

  9
$UCSORG
 10
0.0
 20
0.0
 30
0.0
  9
$UCSXDIR
 10
1.0
 20
0.0
 30
0.0
  9
$UCSYDIR
 10
0.0
 20
1.0
 30
0.0
  9
$PUCSNAME
  2

  9
$PUCSORG
 10
0.0
 20
0.0
 30
0.0
  9
$PUCSXDIR
 10
1.0
 20
0.0
 30
0.0
  9
$PUCSYDIR
 10
0.0
 20
1.0
 30
0.0
  9
$USERI1
 70
     0
  9
$USERI2
 70
     0
  9
$USERI3
 70
     0
  9
$USERI4
 70
     0
  9
$USERI5
 70
     0
  9
$USERR1
 40
0.0
  9
$USERR2
 40
0.0
  9
$USERR3
 40
0.0
  9
$USERR4
 40
0.0
  9
$USERR5
 40
0.0
  9
$WORLDVIEW
 70
     1
  9
$SHADEDGE
 70
     3
  9
$SHADEDIF
 70
    70
  9
$TILEMODE
 70
     1
  9
$MAXACTVP
 70
    48
  9
$PLIMCHECK
 70
     0
  9
$PEXTMIN
 10
1.0000000000000000E+20
 20
1.0000000000000000E+20
 30
1.0000000000000000E+20
  9
$PEXTMAX
 10
-1.0000000000000000E+20
 20
-1.0000000000000000E+20
 30
-1.0000000000000000E+20
  9
$PLIMMIN
 10
0.0
 20
0.0
  9
$PLIMMAX
 10
12.0
 20
9.0
  9
$UNITMODE
 70
     0
  9
$VISRETAIN
 70
     1
  9
$PLINEGEN
 70
     0
  9
$PSLTSCALE
 70
     1
  0
ENDSEC
  0
SECTION
  2
TABLES
  0
TABLE
  2
VPORT
 70
     1
  0
VPORT
  2
*ACTIVE
 70
     0
 10
0.0
 20
0.0
 11
1.0
 21
1.0
 12
111.4453842317217038
 22
25.0748052223011406
 13
0.0
 23
0.0
 14
1.0
 24
1.0
 15
0.0
 25
0.0
 16
-0.0000000000000284
 26
0.0
 36
157.2215818301446859
 17
210.9789276123046875
 27
7.2024491855605604
 37
0.0
 40
9.1710252555733831
 41
2.218457943925233
 42
50.0
 43
0.0
 44
0.0
 50
0.0
 51
0.0
 71
     0
 72
   100
 73
     1
 74
     1
 75
     0
 76
     0
 77
     0
 78
     0
  0
ENDTAB
  0
TABLE
  2
LTYPE
 70
     2
  0
LTYPE
  2
CONTINUOUS
 70
     0
  3
Solid line
 72
    65
 73
     0
 40
0.0
  0
LTYPE
  2
PHANTOM2
 70
     0
  3
___ _ _ ___ _ _ ___ _ _ ___ _ _
 72
    65
 73
     6
 40
1.25
 49
0.625
 49
-0.125
 49
0.125
 49
-0.125
 49
0.125
 49
-0.125
  0
ENDTAB
  0
TABLE
  2
LAYER
 70
     2
  0
LAYER
  2
0
 70
     0
 62
     7
  6
CONTINUOUS
  0
LAYER
  2
DEFPOINTS
 70
     0
 62
     7
  6
CONTINUOUS
  0
ENDTAB
  0
TABLE
  2
STYLE
 70
     1
  0
STYLE
  2
STANDARD
 70
     0
 40
0.0
 41
0.8
 50
0.0
 71
     0
 42
0.2
  3
txt
  4

  0
ENDTAB
  0
TABLE
  2
VIEW
 70
     0
  0
ENDTAB
  0
TABLE
  2
UCS
 70
     0
  0
ENDTAB
  0
TABLE
  2
APPID
 70
     9
  0
APPID
  2
ACAD
 70
     0
  0
APPID
  2
ACAD_MLEADERVER
 70
     0
  0
APPID
  2
ACAD_EXEMPT_FROM_CAD_STANDARDS
 70
     0
  0
APPID
  2
ACAD_NAV_VCDISPLAY
 70
     0
  0
APPID
  2
ACADANNOMONITORALERTICONDI
 70
     0
  0
APPID
  2
ACAD_DSTYLE_DIMJAG
 70
     0
  0
APPID
  2
ACAD_DSTYLE_DIMTALN
 70
     0
  0
APPID
  2
ACDBATTR
 70
     0
  0
APPID
  2
DCO15
 70
     0
  0
ENDTAB
  0
TABLE
  2
DIMSTYLE
 70
     1
  0
DIMSTYLE
  2
STANDARD
 70
     0
  3

  4

  5

  6

  7

 40
1.0
 41
0.1875
 42
0.0625
 43
0.38
 44
0.125
 45
0.0
 46
0.0
 47
1.5
 48
1.5
140
1.5
141
0.09
142
0.0
143
25.3999999999999986
144
1.0
145
0.0
146
1.0
147
0.09
 71
     0
 72
     0
 73
     1
 74
     1
 75
     0
 76
     0
 77
     0
 78
     4
170
     0
171
     2
172
     0
173
     0
174
     0
175
     0
176
     0
177
     0
178
     0
  0
ENDTAB
  0
ENDSEC
  0
SECTION
  2
BLOCKS
  0
BLOCK
  8
0
  2
$MODEL_SPACE
 70
     0
 10
0.0
 20
0.0
 30
0.0
  3
$MODEL_SPACE
  1

  0
ENDBLK
  5
21
  8
0
  0
BLOCK
 67
     1
  8
0
  2
$PAPER_SPACE
 70
     0
 10
0.0
 20
0.0
 30
0.0
  3
$PAPER_SPACE
  1

  0
ENDBLK
  5
1D
 67
     1
  8
0
  0
ENDSEC
  0
SECTION
  2
ENTITIES
  0
ATTDEF
  5
4EF9
  8
DEFPOINTS
 10
322.4194577378279973
 20
35.456254802213131
 30
0.0
 40
0.001
  1
P21802-LV
  3

  2
MODELNUMBER
 70
     0
1001
ACDBATTR
1070
     0
1070
     1
  0
ATTDEF
  5
4EFA
  8
DEFPOINTS
 10
322.4194577378279973
 20
35.4545881355464374
 30
0.0
 40
0.001
  1
ONE
  3

  2
TRADENAME
 70
     0
1001
ACDBATTR
1070
     0
1070
     1
  0
ATTDEF
  5
4EFB
  8
DEFPOINTS
 10
322.4194577378279973
 20
35.4529214688797722
 30
0.0
 40
0.001
  1
DECK-MOUNT BATH FAUCET TRIM
  3

  2
PRODUCT
 70
     0
1001
ACDBATTR
1070
     0
1070
     1
  0
ARC
  5
5AB2
  8
0
 10
322.4194493046848038
 20
35.4529035453317078
 30
0.0
 40
1.375
 50
292.6719618962195
 51
247.3280381037805
  0
ARC
  5
5AB3
  8
0
 10
322.4194493046848038
 20
35.4529035453317078
 30
0.0
 40
0.5600000000000001
 50
341.1608030293083971
 51
198.839196970691404
  0
ARC
  5
5AB4
  8
0
 10
322.4194493046848038
 20
35.4529035453317078
 30
0.0
 40
0.5300000000000012
 50
0.0
 51
180.0
  0
LINE
  5
5AB5
  8
0
 10
321.8894493046847742
 20
28.2541395468714285
 30
0.0
 11
321.8894493046847742
 21
35.4529035453317078
 31
0.0
  0
LINE
  5
5AB6
  8
0
 10
322.9494493046847765
 20
28.2541395468714285
 30
0.0
 11
322.9494493046847765
 21
35.4529035453317078
 31
0.0
  0
ARC
  5
5AB7
  8
0
 10
322.4194493046848038
 20
28.2541395468714285
 30
0.0
 40
0.5299999999999998
 50
180.0
 51
0.0
  0
ARC
  5
5AB8
  8
0
 10
318.4194493046849175
 20
35.4529035453317078
 30
0.0
 40
0.355000000000001
 50
206.0268171394891112
 51
153.9731828605108035
  0
ARC
  5
5AB9
  8
0
 10
318.4194493046849175
 20
35.4529035453317078
 30
0.0
 40
1.375
 50
185.7977212722693992
 51
174.2022787277302882
  0
ARC
  5
5ABA
  8
0
 10
318.4194493046849175
 20
35.4529035453317078
 30
0.0
 40
0.3625000000000001
 50
202.9857987833453024
 51
157.0142012166546124
  0
LINE
  5
5ABB
  8
0
 10
318.0734555976849265
 20
35.3140055424036206
 30
0.0
 11
315.7116381543318084
 21
35.3140055424036206
 31
0.0
  0
LINE
  5
5ABC
  8
0
 10
318.0734555976849265
 20
35.5918015482598094
 30
0.0
 11
315.7116381543318084
 21
35.5918015482598094
 31
0.0
  0
ARC
  5
5ABD
  8
0
 10
318.0733334723611847
 20
35.6220274422097134
 30
0.0
 40
0.0302261406677247
 50
270.2314977862566252
 51
333.7835244872280214
  0
ARC
  5
5ABE
  8
0
 10
318.0733334723611847
 20
35.2837796484537165
 30
0.0
 40
0.0302261406677247
 50
26.2164755127718294
 51
89.7685022137434316
  0
ARC
  5
5ABF
  8
0
 10
315.7116381543318084
 20
35.5618015484555201
 30
0.0
 40
0.0299999998042893
 50
89.9999997076617291
 51
177.697016806712611
  0
ARC
  5
5AC0
  8
0
 10
315.7116381543318084
 20
35.3440055422079027
 30
0.0
 40
0.0299999998042893
 50
182.302983193287389
 51
270.0000002923383136
  0
ARC
  5
5AC1
  8
0
 10
318.4194493046846901
 20
35.4529035453317078
 30
0.0
 40
2.7399999999998839
 50
177.6970197609996944
 51
182.3029802394000001
  0
ARC
  5
5AC2
  8
0
 10
326.4194493046848038
 20
35.4529035453317078
 30
0.0
 40
0.355000000000001
 50
26.0268171394891716
 51
333.9731828605108035
  0
ARC
  5
5AC3
  8
0
 10
326.4194493046848038
 20
35.4529035453317078
 30
0.0
 40
1.375
 50
5.7977212722696851
 51
354.2022787277302882
  0
ARC
  5
5AC4
  8
0
 10
326.4194493046848038
 20
35.4529035453317078
 30
0.0
 40
0.3625000000000001
 50
22.9857987833453699
 51
337.0142012166547261
  0
LINE
  5
5AC5
  8
0
 10
326.7654430116849085
 20
35.3140055424036206
 30
0.0
 11
329.1272604550379128
 21
35.3140055424036206
 31
0.0
  0
LINE
  5
5AC6
  8
0
 10
326.7654430116849085
 20
35.5918015482598094
 30
0.0
 11
329.1272604550379128
 21
35.5918015482598094
 31
0.0
  0
ARC
  5
5AC7
  8
0
 10
326.7655651370084229
 20
35.6220274422097134
 30
0.0
 40
0.0302261406677247
 50
206.2164755127718081
 51
269.7685022137433748
  0
ARC
  5
5AC8
  8
0
 10
326.7655651370084229
 20
35.2837796484537165
 30
0.0
 40
0.0302261406677247
 50
90.2314977862565541
 51
153.7835244872281066
  0
ARC
  5
5AC9
  8
0
 10
329.1272604550379128
 20
35.5618015484555201
 30
0.0
 40
0.0299999998042893
 50
2.3029831932874179
 51
90.0000002923382851
  0
ARC
  5
5ACA
  8
0
 10
329.1272604550379128
 20
35.3440055422079027
 30
0.0
 40
0.0299999998042893
 50
269.9999997076616864
 51
357.697016806712611
  0
ARC
  5
5ACB
  8
0
 10
326.4194493046849743
 20
35.4529035453317078
 30
0.0
 40
2.7399999999998839
 50
357.6970197606000283
 51
2.3029802390002989
  0
ENDSEC
  0
EOF
