  0
SECTION
  2
HEADER
  9
$ACADVER
  1
AC1009
  9
$INSBASE
 10
4330.9509741109868628
 20
578.3710677574207466
 30
0.0
  9
$EXTMIN
 10
4328.0646641379071298
 20
577.1210677574208603
 30
0.0
  9
$EXTMAX
 10
4330.961679741181797
 20
591.4911307495208348
 30
0.0
  9
$LIMMIN
 10
0.0
 20
0.0
  9
$LIMMAX
 10
11.6929133858000007
 20
8.2677165353999982
  9
$ORTHOMODE
 70
     0
  9
$REGENMODE
 70
     1
  9
$FILLMODE
 70
     1
  9
$QTEXTMODE
 70
     0
  9
$MIRRTEXT
 70
     0
  9
$DRAGMODE
 70
     2
  9
$LTSCALE
 40
0.6431102362
  9
$OSMODE
 70
     7
  9
$ATTMODE
 70
     1
  9
$TEXTSIZE
 40
0.2
  9
$TRACEWID
 40
0.05
  9
$TEXTSTYLE
  7
STANDARD
  9
$CLAYER
  8
0
  9
$CELTYPE
  6
BYLAYER
  9
$CECOLOR
 62
   256
  9
$DIMSCALE
 40
1.0
  9
$DIMASZ
 40
0.1875
  9
$DIMEXO
 40
0.0625
  9
$DIMDLI
 40
0.4443307087
  9
$DIMRND
 40
0.0
  9
$DIMDLE
 40
0.0
  9
$DIMEXE
 40
0.125
  9
$DIMTP
 40
0.01
  9
$DIMTM
 40
0.01
  9
$DIMTXT
 40
2.0
  9
$DIMCEN
 40
0.1052362205
  9
$DIMTSZ
 40
0.0
  9
$DIMTOL
 70
     1
  9
$DIMLIM
 70
     0
  9
$DIMTIH
 70
     1
  9
$DIMTOH
 70
     1
  9
$DIMSE1
 70
     0
  9
$DIMSE2
 70
     0
  9
$DIMTAD
 70
     0
  9
$DIMZIN
 70
     0
  9
$DIMBLK
  1

  9
$DIMASO
 70
     1
  9
$DIMSHO
 70
     1
  9
$DIMPOST
  1
\X
  9
$DIMAPOST
  1

  9
$DIMALT
 70
     1
  9
$DIMALTD
 70
     2
  9
$DIMALTF
 40
25.3999999999999986
  9
$DIMLFAC
 40
1.0
  9
$DIMTOFL
 70
     0
  9
$DIMTVP
 40
0.0
  9
$DIMTIX
 70
     0
  9
$DIMSOXD
 70
     0
  9
$DIMSAH
 70
     0
  9
$DIMBLK1
  1

  9
$DIMBLK2
  1

  9
$DIMSTYLE
  2
STANDARD
  9
$DIMCLRD
 70
     0
  9
$DIMCLRE
 70
     0
  9
$DIMCLRT
 70
     0
  9
$DIMTFAC
 40
1.0
  9
$DIMGAP
 40
0.09
  9
$LUNITS
 70
     2
  9
$LUPREC
 70
     4
  9
$SKETCHINC
 40
0.1
  9
$FILLETRAD
 40
0.0
  9
$AUNITS
 70
     0
  9
$AUPREC
 70
     0
  9
$MENU
  1
.
  9
$ELEVATION
 40
0.0
  9
$PELEVATION
 40
0.0
  9
$THICKNESS
 40
0.0
  9
$LIMCHECK
 70
     0
  9
$BLIPMODE
 70
     0
  9
$CHAMFERA
 40
0.0
  9
$CHAMFERB
 40
0.0
  9
$SKPOLY
 70
     0
  9
$TDCREATE
 40
2458060.468368056230247
  9
$TDUPDATE
 40
2459688.7066435189917684
  9
$TDINDWG
 40
4.6513149305999999
  9
$TDUSRTIMER
 40
4.6513149305999999
  9
$USRTIMER
 70
     1
  9
$ANGBASE
 50
0.0
  9
$ANGDIR
 70
     0
  9
$PDMODE
 70
     0
  9
$PDSIZE
 40
0.3125
  9
$PLINEWID
 40
0.0
  9
$COORDS
 70
     1
  9
$SPLFRAME
 70
     0
  9
$SPLINETYPE
 70
     6
  9
$SPLINESEGS
 70
     8
  9
$ATTDIA
 70
     1
  9
$ATTREQ
 70
     1
  9
$HANDLING
 70
     1
  9
$HANDSEED
  5
23540
  9
$SURFTAB1
 70
     6
  9
$SURFTAB2
 70
     6
  9
$SURFTYPE
 70
     6
  9
$SURFU
 70
     6
  9
$SURFV
 70
     6
  9
$UCSNAME
  2

  9
$UCSORG
 10
0.0
 20
0.0
 30
0.0
  9
$UCSXDIR
 10
1.0
 20
0.0
 30
0.0
  9
$UCSYDIR
 10
0.0
 20
1.0
 30
0.0
  9
$PUCSNAME
  2

  9
$PUCSORG
 10
0.0
 20
0.0
 30
0.0
  9
$PUCSXDIR
 10
1.0
 20
0.0
 30
0.0
  9
$PUCSYDIR
 10
0.0
 20
1.0
 30
0.0
  9
$USERI1
 70
     0
  9
$USERI2
 70
     0
  9
$USERI3
 70
     0
  9
$USERI4
 70
     0
  9
$USERI5
 70
     0
  9
$USERR1
 40
0.0
  9
$USERR2
 40
0.0
  9
$USERR3
 40
0.0
  9
$USERR4
 40
0.0
  9
$USERR5
 40
0.0
  9
$WORLDVIEW
 70
     1
  9
$SHADEDGE
 70
     3
  9
$SHADEDIF
 70
    70
  9
$TILEMODE
 70
     1
  9
$MAXACTVP
 70
    64
  9
$PLIMCHECK
 70
     0
  9
$PEXTMIN
 10
1.0000000000000000E+20
 20
1.0000000000000000E+20
 30
1.0000000000000000E+20
  9
$PEXTMAX
 10
-1.0000000000000000E+20
 20
-1.0000000000000000E+20
 30
-1.0000000000000000E+20
  9
$PLIMMIN
 10
0.0
 20
0.0
  9
$PLIMMAX
 10
12.0
 20
9.0
  9
$UNITMODE
 70
     0
  9
$VISRETAIN
 70
     1
  9
$PLINEGEN
 70
     0
  9
$PSLTSCALE
 70
     1
  0
ENDSEC
  0
SECTION
  2
TABLES
  0
TABLE
  2
VPORT
 70
     1
  0
VPORT
  2
*ACTIVE
 70
     0
 10
0.0
 20
0.0
 11
1.0
 21
1.0
 12
93.0817754551699181
 22
-14.4225116598124696
 13
0.0
 23
0.0
 14
1.0
 24
1.0
 15
0.0
 25
0.0
 16
0.0
 26
0.0
 36
98.7941898181710343
 17
4236.431396484375
 27
598.728610913283319
 37
0.0
 40
14.4729512712796904
 41
2.2831541218637992
 42
50.0
 43
0.0
 44
0.0
 50
0.0
 51
0.0
 71
     0
 72
   100
 73
     1
 74
     1
 75
     0
 76
     0
 77
     0
 78
     0
  0
ENDTAB
  0
TABLE
  2
LTYPE
 70
     2
  0
LTYPE
  2
CONTINUOUS
 70
     0
  3
Solid line
 72
    65
 73
     0
 40
0.0
  0
LTYPE
  2
PHANTOM2
 70
     0
  3
___ _ _ ___ _ _ ___ _ _ ___ _ _
 72
    65
 73
     6
 40
1.25
 49
0.625
 49
-0.125
 49
0.125
 49
-0.125
 49
0.125
 49
-0.125
  0
ENDTAB
  0
TABLE
  2
LAYER
 70
     2
  0
LAYER
  2
0
 70
     0
 62
   255
  6
CONTINUOUS
  0
LAYER
  2
DEFPOINTS
 70
     0
 62
     7
  6
CONTINUOUS
  0
ENDTAB
  0
TABLE
  2
STYLE
 70
     1
  0
STYLE
  2
STANDARD
 70
     0
 40
0.0
 41
0.8
 50
0.0
 71
     0
 42
0.2
  3
txt
  4

  0
ENDTAB
  0
TABLE
  2
VIEW
 70
     0
  0
ENDTAB
  0
TABLE
  2
UCS
 70
     0
  0
ENDTAB
  0
TABLE
  2
APPID
 70
    10
  0
APPID
  2
ACAD
 70
     0
  0
APPID
  2
ACAD_MLEADERVER
 70
     0
  0
APPID
  2
ACAD_EXEMPT_FROM_CAD_STANDARDS
 70
     0
  0
APPID
  2
ACAD_NAV_VCDISPLAY
 70
     0
  0
APPID
  2
ACAECLAYERSTANDARD
 70
     0
  0
APPID
  2
ACCMTRANSPARENCY
 70
     0
  0
APPID
  2
ACAD_DSTYLE_DIMJAG
 70
     0
  0
APPID
  2
ACAD_DSTYLE_DIMTALN
 70
     0
  0
APPID
  2
ACDBATTR
 70
     0
  0
APPID
  2
DCO15
 70
     0
  0
ENDTAB
  0
TABLE
  2
DIMSTYLE
 70
     1
  0
DIMSTYLE
  2
STANDARD
 70
     0
  3

  4

  5

  6

  7

 40
1.0
 41
0.1875
 42
0.0625
 43
0.38
 44
0.125
 45
0.0
 46
0.0
 47
0.01
 48
0.01
140
0.15625
141
0.09
142
0.0
143
25.3999999999999986
144
1.0
145
0.0
146
1.0
147
0.09
 71
     1
 72
     0
 73
     1
 74
     1
 75
     0
 76
     0
 77
     0
 78
     4
170
     0
171
     2
172
     0
173
     0
174
     0
175
     0
176
     0
177
     0
178
     0
  0
ENDTAB
  0
ENDSEC
  0
SECTION
  2
BLOCKS
  0
BLOCK
  8
0
  2
$MODEL_SPACE
 70
     0
 10
0.0
 20
0.0
 30
0.0
  3
$MODEL_SPACE
  1

  0
ENDBLK
  5
21
  8
0
  0
BLOCK
 67
     1
  8
0
  2
$PAPER_SPACE
 70
     0
 10
0.0
 20
0.0
 30
0.0
  3
$PAPER_SPACE
  1

  0
ENDBLK
  5
1D
 67
     1
  8
0
  0
ENDSEC
  0
SECTION
  2
ENTITIES
  0
ATTDEF
  5
3930
  8
DEFPOINTS
 10
4330.9510130745129572
 20
578.3744406510379577
 30
0.0
 40
0.001
  1
P21934-P
  3

  2
MODELNUMBER
 70
     0
1001
ACDBATTR
1070
     0
1070
     1
  0
ATTDEF
  5
3931
  8
DEFPOINTS
 10
4330.9510130745129572
 20
578.3727739843714062
 30
0.0
 40
0.001
  1

  3

  2
TRADENAME
 70
     0
1001
ACDBATTR
1070
     0
1070
     1
  0
ATTDEF
  5
3932
  8
DEFPOINTS
 10
4330.9510130745129572
 20
578.371107317704741
 30
0.0
 40
0.001
  1
SUPPLY VALVE
  3

  2
PRODUCT
 70
     0
1001
ACDBATTR
1070
     0
1070
     1
  0
LINE
  5
233D9
  8
0
 10
4330.9509741109868628
 20
579.6210677574207466
 30
0.0
 11
4330.9509741109868628
 21
577.1210677574208603
 31
0.0
  0
LINE
  5
233DA
  8
0
 10
4329.7537300164867702
 20
590.1175244503208432
 30
0.0
 11
4329.7537300164867702
 21
579.6407527968208342
 31
0.0
  0
LINE
  5
233DB
  8
0
 10
4330.1277457644873721
 20
590.1175244503208432
 30
0.0
 11
4330.1277457644873721
 21
579.6407527968208342
 31
0.0
  0
ARC
  5
233DD
  8
0
 10
4328.3376436683956854
 20
579.5085204924552045
 30
0.0
 40
0.039370296492761
 50
0.0003252106751987
 51
91.510929606546199
  0
LINE
  5
233DE
  8
0
 10
4328.3366055665874228
 20
579.5478771004209193
 30
0.0
 11
4328.1122902390861782
 21
579.5420031968209287
 31
0.0
  0
ARC
  5
233DF
  8
0
 10
4328.1133228699873143
 20
579.5025686139099435
 30
0.0
 40
0.0394481007899734
 50
91.500000006974787
 51
178.9516828296108883
  0
ARC
  5
233E0
  8
0
 10
4397.1008462921208775
 20
578.3710677574207466
 30
0.0
 40
69.036250000033732
 50
179.060283780200109
 51
180.939716219799891
  0
LINE
  5
233E1
  8
0
 10
4328.3770139648877375
 20
579.5085207159208949
 30
0.0
 11
4328.3770139648877375
 21
578.7533066569209268
 31
0.0
  0
LINE
  5
233E2
  8
0
 10
4328.2234087945871579
 20
578.6049676365207688
 30
0.0
 11
4328.105724714587268
 21
578.5370227013208932
 31
0.0
  0
ARC
  5
233E3
  8
0
 10
4328.1487756076094229
 20
578.4646946759506818
 30
0.0
 40
0.0841707944833102
 50
120.7618403691548963
 51
177.8487023592113871
  0
ARC
  5
233E4
  8
0
 10
4328.2634227541893779
 20
578.535547431405007
 30
0.0
 40
0.0801266612390673
 50
25.9439417282089586
 51
119.9592434042467062
  0
ARC
  5
233E5
  8
0
 10
4328.4559216632160314
 20
578.7534712934893832
 30
0.0
 40
0.0789078700820929
 50
180.1195443162395122
 51
268.8804619194430074
  0
LINE
  5
233E6
  8
0
 10
4328.4543799310868053
 20
578.6745784863207973
 30
0.0
 11
4328.6889755173879166
 21
578.6704836051208076
 31
0.0
  0
ARC
  5
233E7
  8
0
 10
4328.6887693866019617
 20
578.6586743803765103
 30
0.0
 40
0.0118110236205193
 50
0.0
 51
88.9999999977311091
  0
LINE
  5
233E8
  8
0
 10
4328.7005804101872855
 20
578.7864220881048141
 30
0.0
 11
4328.7005804101872855
 21
577.955713426720763
 31
0.0
  0
LINE
  5
233E9
  8
0
 10
4328.7320764731930467
 20
578.8179181511209208
 30
0.0
 11
4329.3580607251878973
 21
578.8179181511209208
 31
0.0
  0
LINE
  5
233EA
  8
0
 10
4329.4013678117871677
 20
578.8179181511209208
 30
0.0
 11
4329.4494977329923131
 21
578.8179181511209208
 31
0.0
  0
ARC
  5
233EB
  8
0
 10
4328.7320764731866802
 20
578.7864220881208439
 30
0.0
 40
0.0314960629999961
 50
90.0
 51
180.0000000291686888
  0
LINE
  5
233EC
  8
0
 10
4329.3698717487868635
 20
578.8061071275209315
 30
0.0
 11
4329.3698717487868635
 21
577.9360283873207891
 31
0.0
  0
LINE
  5
233ED
  8
0
 10
4329.3895567881872921
 20
578.8061071275207041
 30
0.0
 11
4329.3895567881872921
 21
577.9360283873207891
 31
0.0
  0
LINE
  5
233EE
  8
0
 10
4329.3856197760878786
 20
578.7608315369208185
 30
0.0
 11
4329.3698717487868635
 21
578.7608315369208185
 31
0.0
  0
LINE
  5
233EF
  8
0
 10
4329.3856197760878786
 20
578.7608315369208185
 30
0.0
 11
4329.3856197760878786
 21
577.9813039779209021
 31
0.0
  0
LINE
  5
233F0
  8
0
 10
4329.3895567881872921
 20
578.7568946339192735
 30
0.0
 11
4329.3856197760878786
 21
578.7608315369208185
 31
0.0
  0
ARC
  5
233F1
  8
0
 10
4329.3580607251878973
 20
578.8061071275209315
 30
0.0
 40
0.0118110235999947
 50
359.9999999999740226
 51
90.0
  0
ARC
  5
233F2
  8
0
 10
4329.4013678117871677
 20
578.8061071275207041
 30
0.0
 40
0.0118110236000018
 50
90.0
 51
180.0000009702008015
  0
LINE
  5
233F3
  8
0
 10
4329.5479229298862265
 20
578.9517764188208275
 30
0.0
 11
4330.3335528510879158
 21
578.9517764188208275
 31
0.0
  0
LINE
  5
233F4
  8
0
 10
4329.5282378904876168
 20
578.896658308620772
 30
0.0
 11
4329.5282378904876168
 21
578.9320913794208536
 31
0.0
  0
ARC
  5
233F5
  8
0
 10
4329.4494675446358087
 20
578.8966884969722742
 30
0.0
 40
0.0787703516362788
 50
270.0219583274566162
 51
359.9780416725565146
  0
ARC
  5
233F6
  8
0
 10
4329.5479229298862265
 20
578.9320913794208536
 30
0.0
 40
0.0196850394000006
 50
90.0
 51
179.9999999999934914
  0
LINE
  5
233F7
  8
0
 10
4329.5739859219884238
 20
579.0305165763209061
 30
0.0
 11
4329.5739859219884238
 21
579.0239194485651524
 31
0.0
  0
LINE
  5
233F8
  8
0
 10
4329.5739859219884238
 20
579.0108315369208185
 30
0.0
 11
4329.5739859219884238
 21
578.9517764188208275
 31
0.0
  0
ARC
  5
233F9
  8
0
 10
4329.7934500744459001
 20
577.9343660805243417
 30
0.0
 40
1.636140250752345
 50
149.9647959300417028
 51
152.0038253675195961
  0
ARC
  5
233FA
  8
0
 10
4328.476023763874764
 20
578.6347412539453217
 30
0.0
 40
0.1441156305363591
 50
152.0038253675195961
 51
173.5599843650742002
  0
ARC
  5
233FB
  8
0
 10
4328.6421181491296011
 20
578.6272188687976268
 30
0.0
 40
0.3102062857220403
 50
175.6207297842377102
 51
184.3558964042676109
  0
ARC
  5
233FC
  8
0
 10
4328.5640898816836852
 20
578.6056796696884703
 30
0.0
 40
0.2312908246769485
 50
180.5007611730054862
 51
188.7231217456802881
  0
ARC
  5
233FD
  8
0
 10
4328.3376436683956854
 20
577.2336150223865161
 30
0.0
 40
0.039370296492761
 50
268.489070393453801
 51
359.9996747893247857
  0
LINE
  5
233FE
  8
0
 10
4328.3366055665874228
 20
577.194258414420915
 30
0.0
 11
4328.1122902390861782
 21
577.2001323180209056
 31
0.0
  0
ARC
  5
233FF
  8
0
 10
4328.1133228699873143
 20
577.2395669009316634
 30
0.0
 40
0.0394481007899734
 50
181.0483171703891117
 51
268.4999999930251988
  0
LINE
  5
23400
  8
0
 10
4328.3770139648877375
 20
577.2336147989208257
 30
0.0
 11
4328.3770139648877375
 21
577.9888288579209075
 31
0.0
  0
LINE
  5
23401
  8
0
 10
4328.2234087945871579
 20
578.1371678783208381
 30
0.0
 11
4328.105724714587268
 21
578.2051128135208273
 31
0.0
  0
ARC
  5
23402
  8
0
 10
4328.1487756076094229
 20
578.2774408388909251
 30
0.0
 40
0.0841707944833102
 50
182.1512976407886129
 51
239.2381596308451037
  0
ARC
  5
23403
  8
0
 10
4328.2634227541893779
 20
578.2065880834367135
 30
0.0
 40
0.0801266612390673
 50
240.0407565957532938
 51
334.0560582717910165
  0
ARC
  5
23404
  8
0
 10
4328.4559216632160314
 20
577.9886642213523373
 30
0.0
 40
0.0789078700820929
 50
91.1195380805570636
 51
179.8804556837604025
  0
LINE
  5
23405
  8
0
 10
4328.4543799310868053
 20
578.0675570285209233
 30
0.0
 11
4328.6889755173879166
 21
578.071651909720913
 31
0.0
  0
ARC
  5
23406
  8
0
 10
4328.6887693866019617
 20
578.083461134465324
 30
0.0
 40
0.0118110236205193
 50
271.0000000022687914
 51
0.0
  0
LINE
  5
23407
  8
0
 10
4328.9171158432873199
 20
577.9242173637209135
 30
0.0
 11
4329.3580607251878973
 21
577.9242173637209135
 31
0.0
  0
LINE
  5
23408
  8
0
 10
4329.4013678117871677
 20
577.9242173637209135
 30
0.0
 11
4330.5239746448869482
 21
577.9242173637209135
 31
0.0
  0
ARC
  5
23409
  8
0
 10
4328.7320764731866802
 20
577.955713426720763
 30
0.0
 40
0.0314960629999961
 50
179.9999999708313112
 51
262.8489034404661879
  0
LINE
  5
2340A
  8
0
 10
4329.3856197760878786
 20
577.9813039779209021
 30
0.0
 11
4329.3698717487868635
 21
577.9813039779209021
 31
0.0
  0
LINE
  5
2340B
  8
0
 10
4329.3895567881872921
 20
577.9852408809224471
 30
0.0
 11
4329.3856197760878786
 21
577.9813039779209021
 31
0.0
  0
ARC
  5
2340C
  8
0
 10
4329.3580607251878973
 20
577.9360283873207891
 30
0.0
 40
0.0118110235999947
 50
269.9999999999478746
 51
0.0000000000260551
  0
ARC
  5
2340D
  8
0
 10
4329.4013678117871677
 20
577.9360283873207891
 30
0.0
 40
0.0118110236000018
 50
179.9999990297991133
 51
270.0
  0
ARC
  5
2340E
  8
0
 10
4329.7934500744459001
 20
578.8077694343172652
 30
0.0
 40
1.636140250752345
 50
207.9961746324804039
 51
210.0352040699582972
  0
ARC
  5
2340F
  8
0
 10
4328.476023763874764
 20
578.1073942608963989
 30
0.0
 40
0.1441156305363591
 50
186.4400156349257998
 51
207.9961746324804039
  0
ARC
  5
23410
  8
0
 10
4328.6421181491296011
 20
578.1149166460440938
 30
0.0
 40
0.3102062857220403
 50
175.6441035957323038
 51
184.3792702157622898
  0
ARC
  5
23411
  8
0
 10
4328.5640898816836852
 20
578.1364558451532503
 30
0.0
 40
0.2312908246769485
 50
171.2768782543197119
 51
179.4992388269944001
  0
LINE
  5
23412
  8
0
 10
4330.5239746448869482
 20
578.8179181511209208
 30
0.0
 11
4330.4319780479818291
 21
578.8179181511209208
 31
0.0
  0
LINE
  5
23413
  8
0
 10
4330.3532378904874349
 20
578.896658308620772
 30
0.0
 11
4330.3532378904874349
 21
578.9320913794208536
 31
0.0
  0
ARC
  5
23414
  8
0
 10
4330.432008236339243
 20
578.8966884969722742
 30
0.0
 40
0.0787703516362788
 50
180.0219583274435138
 51
269.9780416725434975
  0
ARC
  5
23415
  8
0
 10
4330.3335528510879158
 20
578.9320913794208536
 30
0.0
 40
0.0196850394000006
 50
0.0000000000065138
 51
90.0
  0
LINE
  5
23416
  8
0
 10
4330.9509741109868628
 20
579.6210677574207466
 30
0.0
 11
4330.5803731727883132
 21
579.6145988939208564
 31
0.0
  0
LINE
  5
23417
  8
0
 10
4330.5509741109872266
 20
579.5846821913544318
 30
0.0
 11
4330.5509741109872266
 21
577.1574533234874025
 31
0.0
  0
ARC
  5
23418
  8
0
 10
4330.5808953707046385
 20
579.5846821913544318
 30
0.0
 40
0.029921259718091
 50
90.9999998704621476
 51
180.0000000641672102
  0
LINE
  5
23419
  8
0
 10
4330.5239746448869482
 20
578.8179181511209208
 30
0.0
 11
4330.5239746448869482
 21
577.9242173637209135
 31
0.0
  0
LINE
  5
2341A
  8
0
 10
4330.5509741109872266
 20
578.7909186850208698
 30
0.0
 11
4330.5239746448869482
 21
578.8179181511209208
 31
0.0
  0
LINE
  5
2341B
  8
0
 10
4330.5509741109872266
 20
577.9512168298208508
 30
0.0
 11
4330.5239746448869482
 21
577.9242173637209135
 31
0.0
  0
ARC
  5
2341C
  8
0
 10
4328.8226700065270052
 20
577.4877880577913629
 30
0.0
 40
0.4465316955776648
 50
77.7891539978396764
 51
101.7055793496127052
  0
LINE
  5
2341D
  8
0
 10
4328.7320764731866802
 20
577.9250332600207685
 30
0.0
 11
4328.7281556419329718
 21
577.9244623616705212
 31
0.0
  0
LINE
  5
2341E
  8
0
 10
4330.9509741109868628
 20
577.1210677574208603
 30
0.0
 11
4330.5803731727883132
 21
577.1275366209207505
 31
0.0
  0
ARC
  5
2341F
  8
0
 10
4330.5808953707046385
 20
577.1574533234874025
 30
0.0
 40
0.029921259718091
 50
179.9999999358327898
 51
269.0000001295377956
  0
LINE
  5
23420
  8
0
 10
4330.307489858986628
 20
579.0108315369208185
 30
0.0
 11
4330.307489858986628
 21
578.9517764188208275
 31
0.0
  0
ARC
  5
23421
  8
0
 10
4327.877013964886828
 20
578.3710677574207466
 30
0.0
 40
0.5000000000000135
 50
336.4800209737047112
 51
23.5199790262953385
  0
LINE
  5
23422
  8
0
 10
4329.4742024573879462
 20
579.6407527968208342
 30
0.0
 11
4330.4072733235861961
 21
579.6407527968208342
 31
0.0
  0
LINE
  5
23423
  8
0
 10
4329.4742024573879462
 20
579.0305165763209061
 30
0.0
 11
4330.4072733235861961
 21
579.0305165763209061
 31
0.0
  0
LINE
  5
23424
  8
0
 10
4330.3532378904874349
 20
579.0230754213579303
 30
0.0
 11
4330.3320647983646268
 21
579.0108315369209322
 31
0.0
  0
LINE
  5
23425
  8
0
 10
4329.5513462827966578
 20
579.0108315369208185
 30
0.0
 11
4330.3320647983646268
 21
579.0108315369209322
 31
0.0
  0
LINE
  5
23426
  8
0
 10
4329.5739859219884238
 20
579.0239194485651524
 30
0.0
 11
4329.5513462827966578
 21
579.0108315369208185
 31
0.0
  0
LINE
  5
23427
  8
0
 10
4329.9407378904870711
 20
579.611015080637344
 30
0.0
 11
4329.9407378904870711
 21
579.0602542925043963
 31
0.0
  0
LINE
  5
23428
  8
0
 10
4329.4742024573879462
 20
579.0305165763209061
 30
0.0
 11
4329.4742024573879462
 21
579.6407527968208342
 31
0.0
  0
ARC
  5
23429
  8
0
 10
4329.4791237172366891
 20
579.0501562915854947
 30
0.0
 40
0.009932806488336
 50
60.3002339290521689
 51
119.699766070954297
  0
ARC
  5
2342A
  8
0
 10
4329.74771483164659
 20
579.8638990104673212
 30
0.0
 40
0.8471903876615321
 50
251.8667144564975899
 51
259.6413439629184268
  0
LINE
  5
2342B
  8
0
 10
4330.3532378904874349
 20
579.0305165763209061
 30
0.0
 11
4330.3532378904874349
 21
579.0230754213579303
 31
0.0
  0
ARC
  5
2342C
  8
0
 10
4329.4791237172366891
 20
579.6211130815562456
 30
0.0
 40
0.009932806488336
 50
240.300233929045703
 51
299.6997660709478168
  0
ARC
  5
2342D
  8
0
 10
4329.74771483164659
 20
578.8073703626744191
 30
0.0
 40
0.8471903876615321
 50
100.3586560370816017
 51
108.1332855435023959
  0
ARC
  5
2342E
  8
0
 10
4329.667226445824781
 20
578.8073740240511142
 30
0.0
 40
0.847186618809652
 50
71.8666971365129541
 51
79.6413612828991404
  0
LINE
  5
2342F
  8
0
 10
4330.4072733235861961
 20
579.0305165763209061
 30
0.0
 11
4330.4072733235861961
 21
579.6407527968208342
 31
0.0
  0
ARC
  5
23430
  8
0
 10
4330.4023520637374531
 20
579.0501562915854947
 30
0.0
 40
0.009932806488336
 50
60.3002339290457101
 51
119.6997660709478026
  0
ARC
  5
23431
  8
0
 10
4330.1337609493266427
 20
579.8638990104673212
 30
0.0
 40
0.8471903876615321
 50
280.3586560370816869
 51
288.1332855435023816
  0
ARC
  5
23432
  8
0
 10
4330.4023520637374531
 20
579.6211130815562456
 30
0.0
 40
0.009932806488336
 50
240.3002339290520979
 51
299.699766070954297
  0
ARC
  5
23433
  8
0
 10
4330.1337609493266427
 20
578.8073703626744191
 30
0.0
 40
0.8471903876615321
 50
71.8667144564976041
 51
79.6413439629183131
  0
ARC
  5
23434
  8
0
 10
4330.2142493351502708
 20
578.8073740240511142
 30
0.0
 40
0.847186618809652
 50
100.3586387171009022
 51
108.1333028634870033
  0
ARC
  5
23435
  8
0
 10
4329.9407378904870711
 20
579.6447001238003622
 30
0.0
 40
0.0336850431631831
 50
253.0107316673868922
 51
286.9892683326149836
  0
ARC
  5
23436
  8
0
 10
4329.667226445824781
 20
579.863895349090626
 30
0.0
 40
0.847186618809652
 50
280.3586387171009164
 51
288.1333028634870175
  0
ARC
  5
23437
  8
0
 10
4330.2142493351502708
 20
579.863895349090626
 30
0.0
 40
0.847186618809652
 50
251.8666971365130109
 51
259.6413612828990836
  0
ARC
  5
23438
  8
0
 10
4329.9407378904870711
 20
579.0265692493411507
 30
0.0
 40
0.0336850431631831
 50
73.0107316673849596
 51
106.9892683326130935
  0
LINE
  5
23439
  8
0
 10
4329.4050744609949106
 20
591.2072196822397245
 30
0.0
 11
4329.4050744609949106
 21
590.9070418168020069
 31
0.0
  0
LINE
  5
2343A
  8
0
 10
4329.4742024574870811
 20
590.1175244503208432
 30
0.0
 11
4329.4742024574870811
 21
590.7868157889207623
 31
0.0
  0
LINE
  5
2343B
  8
0
 10
4329.4742024574870811
 20
590.7868157889207623
 30
0.0
 11
4330.4072733234879706
 21
590.7868157889207623
 31
0.0
  0
LINE
  5
2343C
  8
0
 10
4329.4742024574870811
 20
590.1175244503208432
 30
0.0
 11
4330.4072733234879706
 21
590.1175244503208432
 31
0.0
  0
LINE
  5
2343D
  8
0
 10
4329.4742024574870811
 20
591.2471307495208066
 30
0.0
 11
4330.4072733234879706
 21
591.2471307495208066
 31
0.0
  0
LINE
  5
2343E
  8
0
 10
4329.4050744609949106
 20
591.2072196822397245
 30
0.0
 11
4329.4742024574870811
 21
591.2471307495208066
 31
0.0
  0
ARC
  5
2343F
  8
0
 10
4329.5577978052888284
 20
590.9598055858173211
 30
0.0
 40
0.2901136825165157
 50
105.8639750944356024
 51
115.277953162886007
  0
ARC
  5
23440
  8
0
 10
4329.6366069432260701
 20
590.7949893230000953
 30
0.0
 40
0.472801395309408
 50
115.3851687955176999
 51
119.3210931507599071
  0
ARC
  5
23441
  8
0
 10
4329.4771612140120851
 20
590.7518921130653098
 30
0.0
 40
0.0029851336424633
 50
187.6223647053190859
 51
262.6938750559093023
  0
ARC
  5
23442
  8
0
 10
4329.4799412094580475
 20
590.7698490252490728
 30
0.0
 40
0.0211550919514164
 50
261.4104556182110173
 51
279.6499385315690915
  0
ARC
  5
23443
  8
0
 10
4329.4707490097553091
 20
590.8247833477425957
 30
0.0
 40
0.0768531208509195
 50
279.5407927541323261
 51
287.5221296964824091
  0
ARC
  5
23444
  8
0
 10
4329.7234923649330085
 20
590.039825780279557
 30
0.0
 40
0.7477921622367393
 50
94.4472143013663583
 51
107.8811597907219948
  0
ARC
  5
23445
  8
0
 10
4329.7074514854557492
 20
590.1791625384721556
 30
0.0
 40
0.6076532504486183
 50
86.0420001369378014
 51
93.9579998630621986
  0
ARC
  5
23446
  8
0
 10
4329.6905970307579992
 20
590.035449108085345
 30
0.0
 40
0.7522188901762554
 50
72.1595131170414561
 51
85.5168525141985754
  0
LINE
  5
23447
  8
0
 10
4329.4742024574870811
 20
590.8671307495209248
 30
0.0
 11
4330.4072733234879706
 21
590.8671307495209248
 31
0.0
  0
ARC
  5
23448
  8
0
 10
4329.5367079202142122
 20
591.0378861551635055
 30
0.0
 40
0.2092445943573012
 50
73.8465855973040703
 51
106.1534144026959012
  0
ARC
  5
23449
  8
0
 10
4329.5028104551884098
 20
590.9247540908977498
 30
0.0
 40
0.3273426468477493
 50
60.1575371091425097
 51
73.6567263832003505
  0
ARC
  5
2344A
  8
0
 10
4329.6742255935077992
 20
591.2331754553680412
 30
0.0
 40
0.0259266265119772
 50
250.8058753824633129
 51
289.1940318566975066
  0
ARC
  5
2344B
  8
0
 10
4329.4771612140120851
 20
590.1524481261762958
 30
0.0
 40
0.0029851336424633
 50
97.3061249440907261
 51
172.3776352946808004
  0
ARC
  5
2344C
  8
0
 10
4329.4799412094580475
 20
590.1344912139925327
 30
0.0
 40
0.0211550919514164
 50
80.3500614684309369
 51
98.5895443817890111
  0
ARC
  5
2344D
  8
0
 10
4329.4707490097553091
 20
590.0795568914990099
 30
0.0
 40
0.0768531208509195
 50
72.4778703035175482
 51
80.4592072458676739
  0
ARC
  5
2344E
  8
0
 10
4329.7234923649330085
 20
590.8645144589620486
 30
0.0
 40
0.7477921622367393
 50
252.1188402092778915
 51
265.5527856986336133
  0
ARC
  5
2344F
  8
0
 10
4329.7074514854557492
 20
590.72517770076945
 30
0.0
 40
0.6076532504486183
 50
266.0420001369378156
 51
273.9579998630621844
  0
ARC
  5
23450
  8
0
 10
4329.6905970307579992
 20
590.8688911311563743
 30
0.0
 40
0.7522188901762554
 50
274.4831474858013962
 51
287.8404868829584871
  0
LINE
  5
23451
  8
0
 10
4329.4050744609949106
 20
590.9070418168020069
 30
0.0
 11
4329.4742024574870811
 21
590.8671307495209248
 31
0.0
  0
ARC
  5
23452
  8
0
 10
4329.5577978052888284
 20
591.154455913224524
 30
0.0
 40
0.2901136825165157
 50
244.7220468371139077
 51
254.1360249055643976
  0
ARC
  5
23453
  8
0
 10
4329.6366069432260701
 20
591.3192721760417498
 30
0.0
 40
0.472801395309408
 50
240.6789068492400077
 51
244.6148312044823001
  0
ARC
  5
23454
  8
0
 10
4329.5367079202142122
 20
591.076375343878226
 30
0.0
 40
0.2092445943573012
 50
253.846585597304113
 51
286.153414402695887
  0
ARC
  5
23455
  8
0
 10
4329.5028104551884098
 20
591.1895074081438679
 30
0.0
 40
0.3273426468477493
 50
286.3432736167997064
 51
299.842462890857405
  0
ARC
  5
23456
  8
0
 10
4329.6742255935077992
 20
590.8810860436735766
 30
0.0
 40
0.0259266265119772
 50
70.8059681433025645
 51
109.1941246175367013
  0
LINE
  5
23457
  8
0
 10
4330.4764013199792316
 20
591.2072196822397245
 30
0.0
 11
4330.4764013199792316
 21
590.9070418168020069
 31
0.0
  0
LINE
  5
23458
  8
0
 10
4330.4072733234879706
 20
590.1175244503208432
 30
0.0
 11
4330.4072733234879706
 21
590.7868157889207623
 31
0.0
  0
LINE
  5
23459
  8
0
 10
4330.4764013199792316
 20
591.2072196822397245
 30
0.0
 11
4330.4072733234879706
 21
591.2471307495208066
 31
0.0
  0
ARC
  5
2345A
  8
0
 10
4330.3236779756853139
 20
590.9598055858173211
 30
0.0
 40
0.2901136825165157
 50
64.7220468371139219
 51
74.1360249055643834
  0
ARC
  5
2345B
  8
0
 10
4330.2448688377480721
 20
590.7949893230000953
 30
0.0
 40
0.472801395309408
 50
60.6789068492400929
 51
64.6148312044822433
  0
ARC
  5
2345C
  8
0
 10
4330.4043145669629666
 20
590.7518921130653098
 30
0.0
 40
0.0029851336424633
 50
277.3061249440906977
 51
352.3776352946807719
  0
ARC
  5
2345D
  8
0
 10
4330.4015345715160947
 20
590.7698490252490728
 30
0.0
 40
0.0211550919514164
 50
260.3500614684309085
 51
278.5895443817889827
  0
ARC
  5
2345E
  8
0
 10
4330.4107267712188332
 20
590.8247833477425957
 30
0.0
 40
0.0768531208509195
 50
252.4778703035175056
 51
260.4592072458676739
  0
ARC
  5
2345F
  8
0
 10
4330.1579834160420432
 20
590.039825780279557
 30
0.0
 40
0.7477921622367393
 50
72.1188402092779626
 51
85.5527856986336417
  0
ARC
  5
23460
  8
0
 10
4330.174024295518393
 20
590.1791625384721556
 30
0.0
 40
0.6076532504486183
 50
86.0420001369378014
 51
93.9579998630621986
  0
ARC
  5
23461
  8
0
 10
4330.34476786075993
 20
591.0378861551635055
 30
0.0
 40
0.2092445943573012
 50
73.8465855973040703
 51
106.1534144026959012
  0
ARC
  5
23462
  8
0
 10
4330.3786653257857324
 20
590.9247540908977498
 30
0.0
 40
0.3273426468477493
 50
106.3432736167996069
 51
119.8424628908575045
  0
ARC
  5
23463
  8
0
 10
4330.2072501874672525
 20
591.2331754553680412
 30
0.0
 40
0.0259266265119772
 50
250.8059681433026071
 51
289.1941246175367155
  0
ARC
  5
23464
  8
0
 10
4330.4043145669629666
 20
590.1524481261762958
 30
0.0
 40
0.0029851336424633
 50
7.6223647053191659
 51
82.6938750559092739
  0
ARC
  5
23465
  8
0
 10
4330.4015345715160947
 20
590.1344912139925327
 30
0.0
 40
0.0211550919514164
 50
81.4104556182109889
 51
99.6499385315690631
  0
ARC
  5
23466
  8
0
 10
4330.4107267712188332
 20
590.0795568914990099
 30
0.0
 40
0.0768531208509195
 50
99.5407927541323261
 51
107.5221296964823949
  0
ARC
  5
23467
  8
0
 10
4330.1579834160420432
 20
590.8645144589620486
 30
0.0
 40
0.7477921622367393
 50
274.4472143013663867
 51
287.8811597907219948
  0
ARC
  5
23468
  8
0
 10
4330.174024295518393
 20
590.72517770076945
 30
0.0
 40
0.6076532504486183
 50
266.0420001369378156
 51
273.9579998630621844
  0
LINE
  5
23469
  8
0
 10
4330.4764013199792316
 20
590.9070418168020069
 30
0.0
 11
4330.4072733234879706
 21
590.8671307495209248
 31
0.0
  0
ARC
  5
2346A
  8
0
 10
4330.3236779756853139
 20
591.154455913224524
 30
0.0
 40
0.2901136825165157
 50
285.8639750944356024
 51
295.2779531628860923
  0
ARC
  5
2346B
  8
0
 10
4330.2448688377480721
 20
591.3192721760417498
 30
0.0
 40
0.472801395309408
 50
295.3851687955176999
 51
299.3210931507599071
  0
ARC
  5
2346C
  8
0
 10
4330.34476786075993
 20
591.076375343878226
 30
0.0
 40
0.2092445943573012
 50
253.846585597304113
 51
286.153414402695887
  0
ARC
  5
2346D
  8
0
 10
4330.3786653257857324
 20
591.1895074081438679
 30
0.0
 40
0.3273426468477493
 50
240.1575371091425097
 51
253.6567263832002936
  0
ARC
  5
2346E
  8
0
 10
4330.2072501874672525
 20
590.8810860436735766
 30
0.0
 40
0.0259266265119772
 50
70.8058753824633271
 51
109.1940318566974071
  0
ARC
  5
2346F
  8
0
 10
4330.1908787502170526
 20
590.035449108085345
 30
0.0
 40
0.7522188901762554
 50
94.4831474858014246
 51
107.8404868829585013
  0
ARC
  5
23470
  8
0
 10
4330.1908787502170526
 20
590.8688911311563743
 30
0.0
 40
0.7522188901762554
 50
252.1595131170413993
 51
265.5168525141986038
  0
ARC
  5
23471
  8
0
 10
4329.9407378904870711
 20
590.818457811357348
 30
0.0
 40
0.0697951587015216
 50
253.6179930132892935
 51
286.3820069867106781
  0
ARC
  5
23472
  8
0
 10
4329.9407378904870711
 20
590.3621863244115957
 30
0.0
 40
0.884944425109241
 50
73.0503825171981021
 51
106.9496174828018979
  0
ARC
  5
23473
  8
0
 10
4329.9407378904870711
 20
590.0858824278842576
 30
0.0
 40
0.0697951587015216
 50
73.6179930132892366
 51
106.3820069867107065
  0
ARC
  5
23474
  8
0
 10
4329.9407378904870711
 20
591.7520751746301357
 30
0.0
 40
0.884944425109241
 50
253.0503825171981021
 51
286.9496174828018979
  0
LINE
  5
23475
  8
0
 10
4329.674225572521209
 20
590.9070126701857362
 30
0.0
 11
4329.674225572521209
 21
591.2072488288559953
 31
0.0
  0
LINE
  5
23476
  8
0
 10
4330.2072502084538428
 20
590.9070126701857362
 30
0.0
 11
4330.2072502084538428
 21
591.2072488288559953
 31
0.0
  0
LINE
  5
23477
  8
0
 10
4329.685087890487921
 20
591.4911307495208348
 30
0.0
 11
4330.1963878904871308
 21
591.4911307495208348
 31
0.0
  0
LINE
  5
23478
  8
0
 10
4329.685087890487921
 20
591.3237012090208964
 30
0.0
 11
4330.1963878904871308
 21
591.3237012090208964
 31
0.0
  0
LINE
  5
23479
  8
0
 10
4329.685087890487921
 20
591.2668157887361531
 30
0.0
 11
4329.685087890487921
 21
591.3237012090208964
 31
0.0
  0
ARC
  5
2347A
  8
0
 10
4329.6654028512930381
 20
591.2668157887361531
 30
0.0
 40
0.0196850391953921
 50
270.0
 51
0.0000005377382629
  0
LINE
  5
2347B
  8
0
 10
4329.6600878904873753
 20
591.4411634395266901
 30
0.0
 11
4329.6600878904873753
 21
591.4360461498888526
 31
0.0
  0
LINE
  5
2347C
  8
0
 10
4329.6600878904873753
 20
591.4091712316886742
 30
0.0
 11
4329.6600878904873753
 21
591.4040539420508367
 31
0.0
  0
LINE
  5
2347D
  8
0
 10
4329.6600878904873753
 20
591.377179023850772
 30
0.0
 11
4329.6600878904873753
 21
591.3720617342129344
 31
0.0
  0
LINE
  5
2347E
  8
0
 10
4329.6600878904873753
 20
591.4680383577268685
 30
0.0
 11
4329.6600878904873753
 21
591.4731556473647061
 31
0.0
  0
LINE
  5
2347F
  8
0
 10
4329.680417387487978
 20
591.4864602465207781
 30
0.0
 11
4329.680417387487978
 21
591.4842062959443183
 31
0.0
  0
LINE
  5
23480
  8
0
 10
4329.680417387487978
 20
591.4569850677005434
 30
0.0
 11
4329.680417387487978
 21
591.4522140881063024
 31
0.0
  0
LINE
  5
23481
  8
0
 10
4329.680417387487978
 20
591.4249928598626411
 30
0.0
 11
4329.680417387487978
 21
591.4202218802682864
 31
0.0
  0
LINE
  5
23482
  8
0
 10
4329.680417387487978
 20
591.3930006520246252
 30
0.0
 11
4329.680417387487978
 21
591.3882296724302705
 31
0.0
  0
LINE
  5
23483
  8
0
 10
4329.680417387487978
 20
591.3610084441866093
 30
0.0
 11
4329.680417387487978
 21
591.3562095938009406
 31
0.0
  0
LINE
  5
23484
  8
0
 10
4329.680417387487978
 20
591.3610084441866093
 30
0.0
 11
4329.6600878904873753
 21
591.3720617342129344
 31
0.0
  0
LINE
  5
23485
  8
0
 10
4329.680417387487978
 20
591.3882296724302705
 30
0.0
 11
4329.6600878904873753
 21
591.377179023850772
 31
0.0
  0
LINE
  5
23486
  8
0
 10
4329.680417387487978
 20
591.3930006520246252
 30
0.0
 11
4329.6600878904873753
 21
591.4040539420508367
 31
0.0
  0
LINE
  5
23487
  8
0
 10
4329.680417387487978
 20
591.4202218802682864
 30
0.0
 11
4329.6600878904873753
 21
591.4091712316886742
 31
0.0
  0
LINE
  5
23488
  8
0
 10
4329.680417387487978
 20
591.4249928598626411
 30
0.0
 11
4329.6600878904873753
 21
591.4360461498888526
 31
0.0
  0
LINE
  5
23489
  8
0
 10
4329.680417387487978
 20
591.4522140881063024
 30
0.0
 11
4329.6600878904873753
 21
591.4411634395266901
 31
0.0
  0
LINE
  5
2348A
  8
0
 10
4329.680417387487978
 20
591.4569850677005434
 30
0.0
 11
4329.6600878904873753
 21
591.4680383577268685
 31
0.0
  0
LINE
  5
2348B
  8
0
 10
4329.680417387487978
 20
591.4842062959443183
 30
0.0
 11
4329.6600878904873753
 21
591.4731556473647061
 31
0.0
  0
LINE
  5
2348C
  8
0
 10
4330.1963878904871308
 20
591.2668157887361531
 30
0.0
 11
4330.1963878904871308
 21
591.3237012090208964
 31
0.0
  0
ARC
  5
2348D
  8
0
 10
4330.2160729296820136
 20
591.2668157887361531
 30
0.0
 40
0.0196850391953921
 50
179.9999994622617123
 51
270.0
  0
LINE
  5
2348E
  8
0
 10
4330.2213878904876765
 20
591.4571608089238453
 30
0.0
 11
4330.2213878904876765
 21
591.452043519285894
 31
0.0
  0
LINE
  5
2348F
  8
0
 10
4330.2213878904876765
 20
591.4251686010858293
 30
0.0
 11
4330.2213878904876765
 21
591.4200513114478781
 31
0.0
  0
LINE
  5
23490
  8
0
 10
4330.2213878904876765
 20
591.3931763932476997
 30
0.0
 11
4330.2213878904876765
 21
591.3880591036098622
 31
0.0
  0
LINE
  5
23491
  8
0
 10
4330.2010583934870738
 20
591.4729824370976985
 30
0.0
 11
4330.2010583934870738
 21
591.4682114575033438
 31
0.0
  0
LINE
  5
23492
  8
0
 10
4330.2010583934870738
 20
591.4409902292596826
 30
0.0
 11
4330.2010583934870738
 21
591.4362192496654416
 31
0.0
  0
LINE
  5
23493
  8
0
 10
4330.2010583934870738
 20
591.4089980214216666
 30
0.0
 11
4330.2010583934870738
 21
591.4042270418274256
 31
0.0
  0
LINE
  5
23494
  8
0
 10
4330.2010583934870738
 20
591.3770058135836507
 30
0.0
 11
4330.2213878904876765
 21
591.3880591036098622
 31
0.0
  0
LINE
  5
23495
  8
0
 10
4330.2010583934870738
 20
591.4042270418274256
 30
0.0
 11
4330.2213878904876765
 21
591.3931763932476997
 31
0.0
  0
LINE
  5
23496
  8
0
 10
4330.2010583934870738
 20
591.4089980214216666
 30
0.0
 11
4330.2213878904876765
 21
591.4200513114478781
 31
0.0
  0
LINE
  5
23497
  8
0
 10
4330.2010583934870738
 20
591.4362192496654416
 30
0.0
 11
4330.2213878904876765
 21
591.4251686010858293
 31
0.0
  0
LINE
  5
23498
  8
0
 10
4330.2010583934870738
 20
591.4409902292596826
 30
0.0
 11
4330.2213878904876765
 21
591.452043519285894
 31
0.0
  0
LINE
  5
23499
  8
0
 10
4330.2010583934870738
 20
591.4682114575033438
 30
0.0
 11
4330.2213878904876765
 21
591.4571608089238453
 31
0.0
  0
LINE
  5
2349A
  8
0
 10
4330.2010583934870738
 20
591.4729824370976985
 30
0.0
 11
4330.209789201429885
 21
591.4777294385779669
 31
0.0
  0
LINE
  5
2349B
  8
0
 10
4330.2213878904876765
 20
591.3611841854096838
 30
0.0
 11
4330.2213878904876765
 21
591.3560668957718462
 31
0.0
  0
LINE
  5
2349C
  8
0
 10
4330.2010583934870738
 20
591.3770058135836507
 30
0.0
 11
4330.2010583934870738
 21
591.3722348339894097
 31
0.0
  0
LINE
  5
2349D
  8
0
 10
4330.2010583934870738
 20
591.3450136057457485
 30
0.0
 11
4330.2213878904876765
 21
591.3560668957718462
 31
0.0
  0
LINE
  5
2349E
  8
0
 10
4330.2010583934870738
 20
591.3722348339894097
 30
0.0
 11
4330.2213878904876765
 21
591.3611841854096838
 31
0.0
  0
LINE
  5
2349F
  8
0
 10
4330.2010583934870738
 20
591.3450136057457485
 30
0.0
 11
4330.2010583934870738
 21
591.3402426261515075
 31
0.0
  0
LINE
  5
234A0
  8
0
 10
4329.680417387487978
 20
591.3586090189936613
 30
0.0
 11
4330.2010583934870738
 21
591.3746203237866439
 31
0.0
  0
LINE
  5
234A1
  8
0
 10
4329.6600878904873753
 20
591.3746203790318532
 30
0.0
 11
4330.2213878904876765
 21
591.3906177484288946
 31
0.0
  0
LINE
  5
234A2
  8
0
 10
4329.680417387487978
 20
591.3906151622275047
 30
0.0
 11
4330.2010583934870738
 21
591.40662646702026
 31
0.0
  0
LINE
  5
234A3
  8
0
 10
4329.6600878904873753
 20
591.4066265222653556
 30
0.0
 11
4330.2213878904876765
 21
591.4226238916626244
 31
0.0
  0
LINE
  5
234A4
  8
0
 10
4329.680417387487978
 20
591.4226073700655206
 30
0.0
 11
4330.2010583934870738
 21
591.4386186748582759
 31
0.0
  0
LINE
  5
234A5
  8
0
 10
4329.6600878904873753
 20
591.4386187301033715
 30
0.0
 11
4330.2213878904876765
 21
591.4546160995006403
 31
0.0
  0
LINE
  5
234A6
  8
0
 10
4329.680417387487978
 20
591.4545995779035366
 30
0.0
 11
4330.2010583934870738
 21
591.4706108826962918
 31
0.0
  0
LINE
  5
234A7
  8
0
 10
4329.6600878904873753
 20
591.4706109379415011
 30
0.0
 11
4330.209789201429885
 21
591.4777294385779669
 31
0.0
  0
LINE
  5
234A8
  8
0
 10
4329.5592794729227535
 20
590.7868157889207623
 30
0.0
 11
4329.5892378904873112
 21
590.8004629435207562
 31
0.0
  0
LINE
  5
234A9
  8
0
 10
4329.5892378904873112
 20
590.8004629435207562
 30
0.0
 11
4329.5892378904873112
 21
590.847445710220768
 31
0.0
  0
ARC
  5
234AA
  8
0
 10
4329.5695528508458665
 20
590.847445710220768
 30
0.0
 40
0.0196850396414282
 50
0.0
 51
89.989328567605483
  0
LINE
  5
234AB
  8
0
 10
4329.5892378904873112
 20
590.8004629435207562
 30
0.0
 11
4330.2922378904877405
 21
590.8004629435207562
 31
0.0
  0
LINE
  5
234AC
  8
0
 10
4330.3221963080522983
 20
590.7868157889207623
 30
0.0
 11
4330.2922378904877405
 21
590.8004629435207562
 31
0.0
  0
LINE
  5
234AD
  8
0
 10
4330.2922378904877405
 20
590.8004629435207562
 30
0.0
 11
4330.2922378904877405
 21
590.847445710220768
 31
0.0
  0
ARC
  5
234AE
  8
0
 10
4330.3119229301291853
 20
590.847445710220768
 30
0.0
 40
0.0196850396414282
 50
90.0106714323945312
 51
180.0
  0
LINE
  5
234AF
  8
0
 10
4329.9407378904870711
 20
590.7486626526557529
 30
0.0
 11
4329.9407378904870711
 21
590.1556775865858526
 31
0.0
  0
LINE
  5
234B0
  8
0
 10
4329.685087890487921
 20
591.4911307495208348
 30
0.0
 11
4329.680417387487978
 21
591.4864602465207781
 31
0.0
  0
LINE
  5
234B1
  8
0
 10
4330.1963878904871308
 20
591.4911307495208348
 30
0.0
 11
4330.209789201429885
 21
591.4777294385779669
 31
0.0
  0
LINE
  5
234B2
  8
0
 10
4329.6600878904873753
 20
591.3451589452213284
 30
0.0
 11
4329.6600878904873753
 21
591.3400416555834909
 31
0.0
  0
LINE
  5
234B3
  8
0
 10
4329.680417387487978
 20
591.328988365557052
 30
0.0
 11
4329.680417387487978
 21
591.3269573978717517
 31
0.0
  0
LINE
  5
234B4
  8
0
 10
4329.680417387487978
 20
591.328988365557052
 30
0.0
 11
4329.6600878904873753
 21
591.3400416555834909
 31
0.0
  0
LINE
  5
234B5
  8
0
 10
4329.680417387487978
 20
591.3562095938009406
 30
0.0
 11
4329.6600878904873753
 21
591.3451589452213284
 31
0.0
  0
LINE
  5
234B6
  8
0
 10
4329.6804036182866184
 20
591.3280358226209046
 30
0.0
 11
4330.2010583934870738
 21
591.3426002451570866
 31
0.0
  0
LINE
  5
234B7
  8
0
 10
4329.685087890487921
 20
591.3237012090208964
 30
0.0
 11
4329.680417387487978
 21
591.3269573978717517
 31
0.0
  0
LINE
  5
234B8
  8
0
 10
4330.2010583934870738
 20
591.3402426261515075
 30
0.0
 11
4330.2117657358903671
 21
591.3344223602534839
 31
0.0
  0
LINE
  5
234B9
  8
0
 10
4330.1963878904871308
 20
591.3237012090208964
 30
0.0
 11
4330.2117657358903671
 21
591.3344223602534839
 31
0.0
  0
LINE
  5
234BA
  8
0
 10
4329.836246734856104
 20
591.3237012090208964
 30
0.0
 11
4330.2117657358903671
 21
591.3344223602534839
 31
0.0
  0
LINE
  5
234BB
  8
0
 10
4330.2213878904876765
 20
591.3586255405908787
 30
0.0
 11
4329.6600878904873753
 21
591.3426003004022959
 31
0.0
  0
VIEWPORT
  5
7BC8
 67
     1
  8
0
 10
8.4975296442687753
 20
4.5
 30
0.0
 40
16.9950592885375507
 41
9.0
 68
     1
 69
     1
1001
ACAD
1000
MVIEW
1002
{
1070
    16
1010
0.0
1020
0.0
1030
0.0
1010
0.0
1020
0.0
1030
1.0
1040
0.0
1040
9.0
1040
8.4975296442687753
1040
4.5
1040
50.0
1040
0.0
1040
0.0
1070
     0
1070
   100
1070
     1
1070
     1
1070
     0
1070
     0
1070
     0
1070
     0
1040
0.0
1040
0.0
1040
0.0
1040
1.0
1040
1.0
1040
0.0
1040
0.0
1070
     0
1002
{
1002
}
1002
}
  0
ENDSEC
  0
EOF
