  0
SECTION
  2
HEADER
  9
$ACADVER
  1
AC1009
  9
$INSBASE
 10
3840.2406705654489087
 20
358.2485458048140003
 30
0.0
  9
$EXTMIN
 10
3836.8981587544490139
 20
355.492649880614124
 30
0.0
  9
$EXTMAX
 10
3840.2523284387580134
 20
360.2360458048141254
 30
0.0
  9
$LIMMIN
 10
0.0
 20
0.0
  9
$LIMMAX
 10
11.6929133858000007
 20
8.2677165353999982
  9
$ORTHOMODE
 70
     0
  9
$REGENMODE
 70
     1
  9
$FILLMODE
 70
     1
  9
$QTEXTMODE
 70
     0
  9
$MIRRTEXT
 70
     0
  9
$DRAGMODE
 70
     2
  9
$LTSCALE
 40
0.6431102362
  9
$OSMODE
 70
  4095
  9
$ATTMODE
 70
     1
  9
$TEXTSIZE
 40
0.2
  9
$TRACEWID
 40
0.05
  9
$TEXTSTYLE
  7
STANDARD
  9
$CLAYER
  8
0
  9
$CELTYPE
  6
BYLAYER
  9
$CECOLOR
 62
   256
  9
$DIMSCALE
 40
1.0
  9
$DIMASZ
 40
0.1875
  9
$DIMEXO
 40
0.0625
  9
$DIMDLI
 40
0.4443307087
  9
$DIMRND
 40
0.0
  9
$DIMDLE
 40
0.0
  9
$DIMEXE
 40
0.125
  9
$DIMTP
 40
0.01
  9
$DIMTM
 40
0.01
  9
$DIMTXT
 40
2.0
  9
$DIMCEN
 40
0.1052362205
  9
$DIMTSZ
 40
0.0
  9
$DIMTOL
 70
     1
  9
$DIMLIM
 70
     0
  9
$DIMTIH
 70
     1
  9
$DIMTOH
 70
     1
  9
$DIMSE1
 70
     0
  9
$DIMSE2
 70
     0
  9
$DIMTAD
 70
     0
  9
$DIMZIN
 70
     0
  9
$DIMBLK
  1

  9
$DIMASO
 70
     1
  9
$DIMSHO
 70
     1
  9
$DIMPOST
  1
\X
  9
$DIMAPOST
  1

  9
$DIMALT
 70
     1
  9
$DIMALTD
 70
     2
  9
$DIMALTF
 40
25.3999999999999986
  9
$DIMLFAC
 40
1.0
  9
$DIMTOFL
 70
     0
  9
$DIMTVP
 40
0.0
  9
$DIMTIX
 70
     0
  9
$DIMSOXD
 70
     0
  9
$DIMSAH
 70
     0
  9
$DIMBLK1
  1

  9
$DIMBLK2
  1

  9
$DIMSTYLE
  2
STANDARD
  9
$DIMCLRD
 70
     0
  9
$DIMCLRE
 70
     0
  9
$DIMCLRT
 70
     0
  9
$DIMTFAC
 40
1.0
  9
$DIMGAP
 40
0.09
  9
$LUNITS
 70
     2
  9
$LUPREC
 70
     4
  9
$SKETCHINC
 40
0.1
  9
$FILLETRAD
 40
0.0
  9
$AUNITS
 70
     0
  9
$AUPREC
 70
     0
  9
$MENU
  1
.
  9
$ELEVATION
 40
0.0
  9
$PELEVATION
 40
0.0
  9
$THICKNESS
 40
0.0
  9
$LIMCHECK
 70
     0
  9
$BLIPMODE
 70
     0
  9
$CHAMFERA
 40
0.0
  9
$CHAMFERB
 40
0.0
  9
$SKPOLY
 70
     0
  9
$TDCREATE
 40
2458060.468368056230247
  9
$TDUPDATE
 40
2460880.4536921298131347
  9
$TDINDWG
 40
0.6049376157
  9
$TDUSRTIMER
 40
0.6049376157
  9
$USRTIMER
 70
     1
  9
$ANGBASE
 50
0.0
  9
$ANGDIR
 70
     0
  9
$PDMODE
 70
     0
  9
$PDSIZE
 40
0.3125
  9
$PLINEWID
 40
0.0
  9
$COORDS
 70
     1
  9
$SPLFRAME
 70
     0
  9
$SPLINETYPE
 70
     6
  9
$SPLINESEGS
 70
     8
  9
$ATTDIA
 70
     1
  9
$ATTREQ
 70
     1
  9
$HANDLING
 70
     1
  9
$HANDSEED
  5
D57E
  9
$SURFTAB1
 70
     6
  9
$SURFTAB2
 70
     6
  9
$SURFTYPE
 70
     6
  9
$SURFU
 70
     6
  9
$SURFV
 70
     6
  9
$UCSNAME
  2

  9
$UCSORG
 10
0.0
 20
0.0
 30
0.0
  9
$UCSXDIR
 10
1.0
 20
0.0
 30
0.0
  9
$UCSYDIR
 10
0.0
 20
1.0
 30
0.0
  9
$PUCSNAME
  2

  9
$PUCSORG
 10
0.0
 20
0.0
 30
0.0
  9
$PUCSXDIR
 10
1.0
 20
0.0
 30
0.0
  9
$PUCSYDIR
 10
0.0
 20
1.0
 30
0.0
  9
$USERI1
 70
     0
  9
$USERI2
 70
     0
  9
$USERI3
 70
     0
  9
$USERI4
 70
     0
  9
$USERI5
 70
     0
  9
$USERR1
 40
0.0
  9
$USERR2
 40
0.0
  9
$USERR3
 40
0.0
  9
$USERR4
 40
0.0
  9
$USERR5
 40
0.0
  9
$WORLDVIEW
 70
     1
  9
$SHADEDGE
 70
     3
  9
$SHADEDIF
 70
    70
  9
$TILEMODE
 70
     1
  9
$MAXACTVP
 70
    64
  9
$PLIMCHECK
 70
     0
  9
$PEXTMIN
 10
1.0000000000000000E+20
 20
1.0000000000000000E+20
 30
1.0000000000000000E+20
  9
$PEXTMAX
 10
-1.0000000000000000E+20
 20
-1.0000000000000000E+20
 30
-1.0000000000000000E+20
  9
$PLIMMIN
 10
0.0
 20
0.0
  9
$PLIMMAX
 10
12.0
 20
9.0
  9
$UNITMODE
 70
     0
  9
$VISRETAIN
 70
     1
  9
$PLINEGEN
 70
     0
  9
$PSLTSCALE
 70
     1
  0
ENDSEC
  0
SECTION
  2
TABLES
  0
TABLE
  2
VPORT
 70
     1
  0
VPORT
  2
*ACTIVE
 70
     0
 10
0.0
 20
0.0
 11
1.0
 21
1.0
 12
705.657885198166241
 22
168.2161083115705935
 13
0.0
 23
0.0
 14
1.0
 24
1.0
 15
0.0
 25
0.0
 16
0.0
 26
0.0
 36
71.4061910302851857
 17
3132.9173583984370453
 27
189.6482395311433891
 37
0.0
 40
4.7780614242550419
 41
2.2939024390243898
 42
50.0
 43
0.0
 44
0.0
 50
0.0
 51
0.0
 71
     0
 72
   100
 73
     1
 74
     1
 75
     0
 76
     0
 77
     0
 78
     0
  0
ENDTAB
  0
TABLE
  2
LTYPE
 70
     2
  0
LTYPE
  2
CONTINUOUS
 70
     0
  3
Solid line
 72
    65
 73
     0
 40
0.0
  0
LTYPE
  2
PHANTOM2
 70
     0
  3
___ _ _ ___ _ _ ___ _ _ ___ _ _
 72
    65
 73
     6
 40
1.25
 49
0.625
 49
-0.125
 49
0.125
 49
-0.125
 49
0.125
 49
-0.125
  0
ENDTAB
  0
TABLE
  2
LAYER
 70
     2
  0
LAYER
  2
0
 70
     0
 62
   255
  6
CONTINUOUS
  0
LAYER
  2
DEFPOINTS
 70
     0
 62
     7
  6
CONTINUOUS
  0
ENDTAB
  0
TABLE
  2
STYLE
 70
     1
  0
STYLE
  2
STANDARD
 70
     0
 40
0.0
 41
0.8
 50
0.0
 71
     0
 42
0.2
  3
txt
  4

  0
ENDTAB
  0
TABLE
  2
VIEW
 70
     0
  0
ENDTAB
  0
TABLE
  2
UCS
 70
     0
  0
ENDTAB
  0
TABLE
  2
APPID
 70
     9
  0
APPID
  2
ACAD
 70
     0
  0
APPID
  2
ACAD_MLEADERVER
 70
     0
  0
APPID
  2
ACAD_EXEMPT_FROM_CAD_STANDARDS
 70
     0
  0
APPID
  2
ACAD_NAV_VCDISPLAY
 70
     0
  0
APPID
  2
ACAECLAYERSTANDARD
 70
     0
  0
APPID
  2
ACCMTRANSPARENCY
 70
     0
  0
APPID
  2
ACAD_DSTYLE_DIMJAG
 70
     0
  0
APPID
  2
ACAD_DSTYLE_DIMTALN
 70
     0
  0
APPID
  2
ACDBATTR
 70
     0
  0
ENDTAB
  0
TABLE
  2
DIMSTYLE
 70
     1
  0
DIMSTYLE
  2
STANDARD
 70
     0
  3

  4

  5

  6

  7

 40
1.0
 41
0.1875
 42
0.0625
 43
0.38
 44
0.125
 45
0.0
 46
0.0
 47
0.01
 48
0.01
140
0.15625
141
0.09
142
0.0
143
25.3999999999999986
144
1.0
145
0.0
146
1.0
147
0.09
 71
     1
 72
     0
 73
     1
 74
     1
 75
     0
 76
     0
 77
     0
 78
     4
170
     0
171
     2
172
     0
173
     0
174
     0
175
     0
176
     0
177
     0
178
     0
  0
ENDTAB
  0
ENDSEC
  0
SECTION
  2
BLOCKS
  0
BLOCK
  8
0
  2
$MODEL_SPACE
 70
     0
 10
0.0
 20
0.0
 30
0.0
  3
$MODEL_SPACE
  1

  0
ENDBLK
  5
21
  8
0
  0
BLOCK
 67
     1
  8
0
  2
$PAPER_SPACE
 70
     0
 10
0.0
 20
0.0
 30
0.0
  3
$PAPER_SPACE
  1

  0
ENDBLK
  5
1D
 67
     1
  8
0
  0
BLOCK
  8
0
  2
_FILLED
 70
     0
 10
0.0
 20
0.0
 30
0.0
  3
_FILLED
  1

  0
SOLID
  5
9A2B
  8
0
  6
BYBLOCK
 62
     0
 10
0.0
 20
0.0
 30
0.0
 11
-1.0
 21
0.1666666667
 31
0.0
 12
-1.0
 22
-0.1666666667
 32
0.0
 13
-1.0
 23
-0.1666666667
 33
0.0
  0
ENDBLK
  5
9A2C
  8
0
  6
BYBLOCK
 62
     0
  0
BLOCK
  8
0
  2
A$CF701A2A3
 70
     0
 10
0.0
 20
0.0
 30
0.0
  3
A$CF701A2A3
  1

  0
ARC
  5
C34C
  8
0
 10
31.7467228304983315
 20
18.9726778524811515
 30
0.0
 40
0.0600571174933638
 50
178.1599123593194065
 51
269.9437701250961936
  0
ARC
  5
C34D
  8
0
 10
14.1289194617463902
 20
24.7599222207127703
 30
0.0
 40
18.4863577086482387
 50
341.76286500014902
 51
343.1049022069964849
  0
ARC
  5
C34E
  8
0
 10
32.3547745090794123
 20
17.8805677586952285
 30
0.0
 40
1.5998037006317429
 50
93.3602506880195904
 51
109.6281531223668964
  0
LINE
  5
C34F
  8
0
 10
32.2610038963430412
 20
19.477620967809461
 30
0.0
 11
47.4137775890446775
 21
19.4776209679094592
 31
0.0
  0
ARC
  5
C350
  8
0
 10
47.4325531323292111
 20
18.9089821500664286
 30
0.0
 40
0.5689487025941281
 50
57.5632611277698203
 51
91.8911278545007804
  0
ARC
  5
C351
  8
0
 10
47.448256021399807
 20
18.9336909094594716
 30
0.0
 40
0.5396723722929054
 50
4.1367077670949124
 51
57.5632611277699908
  0
ARC
  5
C352
  8
0
 10
47.926522090646607
 20
18.9726210998054405
 30
0.0
 40
0.0600003333965774
 50
270.0002551523782017
 51
359.9998709935546799
  0
ARC
  5
C353
  8
0
 10
47.587873331907609
 20
13200570.7895198706537485
 30
0.0
 40
13200551.8768991101533175
 50
269.9999996394840878
 51
270.0000014698749169
  0
ARC
  5
C354
  8
0
 10
47.5048128781491386
 20
18.5626208638961003
 30
0.0
 40
0.3499999003706384
 50
89.9999881479334078
 51
171.8937702021669054
  0
LINE
  5
C355
  8
0
 10
47.1583100607211989
 20
18.611973956747029
 30
0.0
 11
46.9122706485524006
 21
16.2638807503362912
 31
0.0
  0
ARC
  5
C356
  8
0
 10
46.5165232617200175
 20
16.3055558619400109
 30
0.0
 40
0.3979356846424334
 50
269.8857876861554814
 51
353.988489347651182
  0
LINE
  5
C357
  8
0
 10
46.5157300248430374
 20
15.9076209679094607
 30
0.0
 11
33.1574562263430508
 21
15.9076209679094607
 31
0.0
  0
ARC
  5
C358
  8
0
 10
33.1573073574459798
 20
16.3072334039208293
 30
0.0
 40
0.3996124637406694
 50
186.0447802799496912
 51
270.0213445787450723
  0
LINE
  5
C359
  8
0
 10
32.7599167805571128
 20
16.2651519284618296
 30
0.0
 11
32.516055175344448
 21
18.6028364391144407
 31
0.0
  0
ARC
  5
C35A
  8
0
 10
31.8520912294043193
 20
221431.4055756253947038
 30
0.0
 40
221412.4929548866057303
 50
269.9999727181537992
 51
270.0000818454552132
  0
ARC
  5
C35B
  8
0
 10
32.1683734246978403
 20
18.5626211517521007
 30
0.0
 40
0.3499998129575639
 50
6.5979081346952482
 51
90.0000818454552416
  0
ARC
  5
C35C
  8
0
 10
45.8650816453542873
 20
15.8875491405182707
 30
0.0
 40
0.0201276786869227
 50
94.2693119370321568
 51
176.8142859841273093
  0
LINE
  5
C35D
  8
0
 10
45.8449850709466418
 20
15.8886676870094607
 30
0.0
 11
45.841566230231038
 21
15.8234323212015102
 31
0.0
  0
ARC
  5
C35E
  8
0
 10
45.7616576806436228
 20
15.8276281037750408
 30
0.0
 40
0.0800186283847036
 50
269.0289202575320928
 51
356.9943132536590156
  0
ARC
  5
C35F
  8
0
 10
45.4881080674959506
 20
15.8875565959269398
 30
0.0
 40
0.0201199864796374
 50
2.9608163598199928
 51
85.7389377034040336
  0
LINE
  5
C360
  8
0
 10
45.5082011956612718
 20
15.8885958535124097
 30
0.0
 11
45.5116200210550303
 21
15.8234323212015102
 31
0.0
  0
ARC
  5
C361
  8
0
 10
45.5915285706424527
 20
15.8276281037750408
 30
0.0
 40
0.0800186283847036
 50
183.0056867463410128
 51
270.9710797424679072
  0
LINE
  5
C362
  8
0
 10
45.5928847045430388
 20
15.7476209679094605
 30
0.0
 11
45.7603015467430509
 21
15.7476209679094605
 31
0.0
  0
LINE
  5
C363
  8
0
 10
45.5082011956612718
 20
15.8885958535124097
 30
0.0
 11
45.8449850710174118
 21
15.8886676883476099
 31
0.0
  0
ARC
  5
C364
  8
0
 10
33.8081046058317867
 20
15.8875491405182707
 30
0.0
 40
0.0201276786869227
 50
3.1857140158728141
 51
85.7306880629678147
  0
LINE
  5
C365
  8
0
 10
33.8282011802394322
 20
15.8886676870094607
 30
0.0
 11
33.8316199281443417
 21
15.8234340913846196
 31
0.0
  0
ARC
  5
C366
  8
0
 10
33.9115285705424583
 20
15.8276281037750408
 30
0.0
 40
0.0800186283847036
 50
183.0056867463410128
 51
270.9710797424679072
  0
ARC
  5
C367
  8
0
 10
34.1850781836901305
 20
15.8875565959269398
 30
0.0
 40
0.0201199864796374
 50
94.2610622965959664
 51
177.0391836401799992
  0
LINE
  5
C368
  8
0
 10
34.1649850555248094
 20
15.8885958535124097
 30
0.0
 11
34.1615663229417379
 21
15.8234340913846196
 31
0.0
  0
ARC
  5
C369
  8
0
 10
34.0816576805436284
 20
15.8276281037750408
 30
0.0
 40
0.0800186283847036
 50
269.0289202575320928
 51
356.9943132536590156
  0
LINE
  5
C36A
  8
0
 10
34.0803015466430494
 20
15.7476209679094605
 30
0.0
 11
33.9128847044430302
 21
15.7476209679094605
 31
0.0
  0
LINE
  5
C36B
  8
0
 10
34.1649813062561094
 20
15.8885958543432597
 30
0.0
 11
33.8282011801686622
 21
15.8886676883476099
 31
0.0
  0
ARC
  5
C36C
  8
0
 10
32.2858884908540418
 20
18.8727042983943782
 30
0.0
 40
0.540700003591007
 50
125.9961878855065009
 51
175.7663630876411958
  0
ARC
  5
C36D
  8
0
 10
32.1946556962307469
 20
18.9137422562681685
 30
0.0
 40
0.4565898564669273
 50
85.7394130099727363
 51
119.7480005322425001
  0
LINE
  5
C36E
  8
0
 10
32.2285770162430296
 20
19.3690703150094592
 30
0.0
 11
47.4673695904430417
 21
19.3692474916094604
 31
0.0
  0
ARC
  5
C36F
  8
0
 10
47.4840113596567122
 20
18.9284751076434787
 30
0.0
 40
0.4410864347830401
 50
59.920538647086893
 51
92.1622281370483307
  0
ARC
  5
C370
  8
0
 10
47.3872974703873595
 20
18.8727041306933785
 30
0.0
 40
0.5407003051843597
 50
4.2336527987503709
 51
54.0037984291052808
  0
LINE
  5
C371
  8
0
 10
33.4061094097430384
 20
16.2661562000733895
 30
0.0
 11
46.2670768410430284
 21
16.2661562000733895
 31
0.0
  0
ARC
  5
C372
  8
0
 10
46.6029290276408332
 20
20.0234958731951203
 30
0.0
 40
3.7723199904643612
 50
264.8921551320796084
 51
274.7037085467621864
  0
ARC
  5
C373
  8
0
 10
33.0773997285922974
 20
19.8775415783709093
 30
0.0
 40
3.6263141624883168
 50
264.9773376339214224
 51
275.2007531578998965
  0
LINE
  5
C374
  8
0
 10
39.8365931255930406
 20
19.4776209678594583
 30
0.0
 11
42.422034637173077
 21
21.782013515564099
 31
0.0
  0
LINE
  5
C375
  8
0
 62
     1
 10
20.1960368498429013
 20
19.4776209679094592
 30
0.0
 11
3839.6558902019201014
 21
115.3308306698462502
 31
0.0
  0
ENDBLK
  5
C379
  8
0
  0
BLOCK
  8
0
  2
A$CE5733616
 70
     0
 10
0.0
 20
0.0
 30
0.0
  3
A$CE5733616
  1

  0
LINE
  5
CE4C
  8
0
 10
84.9829147755524446
 20
31.4124628089336504
 30
0.0
 11
102.0954408435826934
 21
31.4124628089330393
 31
0.0
  0
LINE
  5
CE4D
  8
0
 10
85.0789246027330961
 20
30.9724628089322991
 30
0.0
 11
101.9994307484718945
 21
30.9724628089314287
 31
0.0
  0
LINE
  5
CE4E
  8
0
 10
84.9234649654688383
 20
31.3443560166565796
 30
0.0
 11
84.9600249825658977
 21
31.0762492243781594
 31
0.0
  0
ARC
  5
CE4F
  8
0
 10
84.9829147755524446
 20
31.352462808933641
 30
0.0
 40
0.06
 50
89.9999999999967457
 51
187.7651660117462029
  0
ARC
  5
CE50
  8
0
 10
85.0789246027330961
 20
31.0924628089322894
 30
0.0
 40
0.12
 50
187.7651660117452082
 51
270.0000000000017053
  0
LINE
  5
CE51
  8
0
 10
102.1548903857751043
 20
31.3443560166565796
 30
0.0
 11
102.1183303686780022
 21
31.0762492243781594
 31
0.0
  0
ARC
  5
CE52
  8
0
 10
102.095440575691498
 20
31.352462808933641
 30
0.0
 40
0.06
 50
352.2348339882537971
 51
90.0000000000032543
  0
ARC
  5
CE53
  8
0
 10
101.9994307485108038
 20
31.0924628089322894
 30
0.0
 40
0.12
 50
269.9999999999984084
 51
352.2348339882548771
  0
ARC
  5
CE54
  8
0
 10
85.1028903769324643
 20
30.9624405083961598
 30
0.0
 40
0.0100241416205229
 50
0.1250676505844978
 51
88.9018596795675364
  0
LINE
  5
CE55
  8
0
 10
85.1129144946719265
 20
30.9624625061585803
 30
0.0
 11
85.1129091013719545
 21
29.6036838201336003
 31
0.0
  0
ARC
  5
CE56
  8
0
 10
85.8934301100430844
 20
29.6098402164392311
 30
0.0
 40
0.7805452877267615
 50
180.451913794396404
 51
202.3412571420417976
  0
ARC
  5
CE57
  8
0
 10
92.0858352803753917
 20
32.218462411685401
 30
0.0
 40
7.4999522575869539
 50
202.7915181140728009
 51
267.9200917066231113
  0
LINE
  5
CE58
  8
0
 10
91.8136374465719456
 20
24.7234512572336307
 30
0.0
 11
96.9093828410031506
 21
24.5344217893135799
 31
0.0
  0
ARC
  5
CE59
  8
0
 10
96.7282314493092343
 20
24.2947911161531209
 30
0.0
 40
0.2499880601911229
 50
5.1859009808369887
 51
77.8637882583573457
  0
LINE
  5
CE5A
  8
0
 10
96.9771962260772398
 20
24.3173869159170302
 30
0.0
 11
97.0041776755719809
 21
24.0324628089336407
 31
0.0
  0
LINE
  5
CE5B
  8
0
 10
97.0041776755719809
 20
24.0324628089336407
 30
0.0
 11
99.6941776755719644
 21
24.0324628089336407
 31
0.0
  0
LINE
  5
CE5C
  8
0
 10
99.6941776755719644
 20
24.0324628089336407
 30
0.0
 11
99.8258826001719655
 21
25.4232668123336403
 31
0.0
  0
ARC
  5
CE5D
  8
0
 10
100.0748130265897942
 20
25.3996562825021392
 30
0.0
 40
0.2500476240949471
 50
104.3604699134967007
 51
174.5818239924844875
  0
ARC
  5
CE5E
  8
0
 10
99.5692000697989386
 20
27.2499620009862795
 30
0.0
 40
1.6681335041248251
 50
285.4218292518190196
 51
352.0185412348465093
  0
LINE
  5
CE5F
  8
0
 10
101.2211744548889953
 20
27.0183372644191415
 30
0.0
 11
101.5055465953756055
 21
30.7415164743205516
 31
0.0
  0
ARC
  5
CE60
  8
0
 10
101.7548673422718934
 20
30.7224619416336395
 30
0.0
 40
0.2500008672978051
 50
90.0
 51
175.7927127852148885
  0
ARC
  5
CE61
  8
0
 10
88.9797734045270516
 20
30.015517906996191
 30
0.0
 40
3.702312927285246
 50
165.0205738551815955
 51
209.3298528617980878
  0
ARC
  5
CE62
  8
0
 10
85.6042473678808165
 20
30.7275454028012298
 30
0.0
 40
0.2449523803881541
 50
18.4458034290141093
 51
90.9682248278403875
  0
ARC
  5
CE63
  8
0
 10
92.0178080556396054
 20
32.0144134797006004
 30
0.0
 40
6.2449197825782523
 50
198.792258992815988
 51
268.4188042926635944
  0
ARC
  5
CE64
  8
0
 10
121.1827326016120026
 20
42.2164760040769877
 30
0.0
 40
37.1425453444134916
 50
197.8925736266386082
 51
199.1981098960808936
  0
ARC
  5
CE65
  8
0
 10
94.8493710122818783
 20
95.1601391060167856
 30
0.0
 40
69.45325749832773
 50
267.5211602258539756
 51
269.7955617086101938
  0
ARC
  5
CE66
  8
0
 10
100.2990881089647957
 20
164.2197161940173089
 30
0.0
 40
138.6295234160863004
 50
267.6445375607414121
 51
268.7496320342316949
  0
ARC
  5
CE67
  8
0
 10
98.6905985133701336
 20
-24.5581429022480187
 30
0.0
 40
50.2013358816318984
 50
89.6230315250721645
 51
91.6169941607644063
  0
ARC
  5
CE68
  8
0
 10
99.5176893785355645
 20
29.5451625884180515
 30
0.0
 40
3.934546876667536
 50
262.7460984753367939
 51
277.2290186948965811
  0
LINE
  5
CE69
  8
0
 10
97.2228656637029331
 20
24.7253349691075712
 30
0.0
 11
97.2740108966863346
 21
25.6232022752647204
 31
0.0
  0
ARC
  5
CE6A
  8
0
 10
96.933374191620544
 20
24.8478563302189208
 30
0.0
 40
0.3143513899078374
 50
265.6229202519058958
 51
337.0604801042724716
  0
LINE
  5
CE6B
  8
0
 10
93.5391778095676045
 20
31.4124628089333413
 30
0.0
 11
98.3384569022564961
 21
34.1309550850729622
 31
0.0
  0
ENDBLK
  5
CE6F
  8
0
  0
ENDSEC
  0
SECTION
  2
ENTITIES
  0
ATTDEF
  5
3930
  8
DEFPOINTS
 10
3840.2416617720900831
 20
358.2517273114420959
 30
0.0
 40
0.001
  1
P22713-LV
  3

  2
MODELNUMBER
 70
     0
1001
ACDBATTR
1070
     0
1070
     1
  0
ATTDEF
  5
3931
  8
DEFPOINTS
 10
3840.2416617720900831
 20
358.2500606447753739
 30
0.0
 40
0.001
  1
KALLISTA
  3

  2
BRANDNAME
 70
     0
1001
ACDBATTR
1070
     0
1070
     1
  0
ATTDEF
  5
3932
  8
DEFPOINTS
 10
3840.2416617720900831
 20
358.2483939781088225
 30
0.0
 40
0.001
  1
VALVE TRIM
  3

  2
PRODUCT
 70
     0
1001
ACDBATTR
1070
     0
1070
     1
  0
LINE
  5
D3D0
  8
0
 10
3840.2406705654489087
 20
360.2360458048141254
 30
0.0
 11
3840.2406705654489087
 21
356.2610458048141027
 31
0.0
  0
LINE
  5
D3D1
  8
0
 10
3839.8377023667680987
 20
360.1484381313077847
 30
0.0
 11
3839.8377023667680987
 21
356.3486534783203865
 31
0.0
  0
LINE
  5
D3D2
  8
0
 10
3839.7616705654490943
 20
356.7464457422141209
 30
0.0
 11
3839.7616705654490943
 21
359.7506458674139935
 31
0.0
  0
LINE
  5
D3D3
  8
0
 10
3839.5986705654490834
 20
359.2968291950140838
 30
0.0
 11
3839.5986705654490834
 21
357.2002624146140874
 31
0.0
  0
LINE
  5
D3D4
  8
0
 10
3839.5486705654489015
 20
359.2043838200140726
 30
0.0
 11
3839.5486705654489015
 21
357.2927077895436128
 31
0.0
  0
LINE
  5
D3D5
  8
0
 10
3838.8314256739490702
 20
358.8045700617635134
 30
0.0
 11
3838.8314256739490702
 21
357.692521547864601
 31
0.0
  0
LINE
  5
D3D6
  8
0
 10
3838.001670565448876
 20
358.5870458050858929
 30
0.0
 11
3838.001670565448876
 21
357.9100458045422215
 31
0.0
  0
LINE
  5
D3D7
  8
0
 10
3837.9022149716661261
 20
358.561045804814114
 30
0.0
 11
3837.9022149716661261
 21
357.9360457077041247
 31
0.0
  0
LINE
  5
D3D8
  8
0
 10
3837.8036705654490106
 20
358.7029204667140903
 30
0.0
 11
3837.8036705654490106
 21
357.7941711430141254
 31
0.0
  0
ARC
  5
D3D9
  8
0
 10
3837.8529427685489281
 20
358.5525458048140877
 30
0.0
 40
0.0499999999999998
 50
9.7878190567148682
 51
170.2121808288943043
  0
ARC
  5
D3DA
  8
0
 10
3838.0786705645978145
 20
358.5870458050858929
 30
0.0
 40
0.0769999991490958
 50
109.1566963623964028
 51
180.0000002022918011
  0
ARC
  5
D3DB
  8
0
 10
3838.8007928190490929
 20
358.6885458048139981
 30
0.0
 40
0.12
 50
75.2101908558017271
 51
126.8036663982269943
  0
ARC
  5
D3DC
  8
0
 10
3838.722913090009115
 20
358.7926359001647256
 30
0.0
 40
0.0100000005044281
 50
271.6303310030057219
 51
306.8036661896766191
  0
ARC
  5
D3DD
  8
0
 10
3838.7875159954392075
 20
356.5447749877274077
 30
0.0
 40
2.2387890555852699
 50
91.6462827647055036
 51
109.1417499436768992
  0
ARC
  5
D3DE
  8
0
 10
3838.8339784119489195
 20
358.8142387498140806
 30
0.0
 40
0.0099999999999979
 50
255.2101903125864055
 51
321.4957562888187113
  0
ARC
  5
D3DF
  8
0
 10
3838.8926705654130274
 20
358.7675458049737927
 30
0.0
 40
0.0649999998402313
 50
89.9999999678219496
 51
141.4957563701877064
  0
ARC
  5
D3E0
  8
0
 10
3838.9596705654489597
 20
358.8525458048139853
 30
0.0
 40
0.02
 50
270.0
 51
0.0
  0
ARC
  5
D3E1
  8
0
 10
3838.9996705654489233
 20
358.9128488175073244
 30
0.0
 40
0.0199999999999988
 50
92.4739042733703371
 51
180.0000000000065086
  0
ARC
  5
D3E2
  8
0
 10
3838.9836493886177777
 20
359.2825656569647208
 30
0.0
 40
0.3500638047892933
 50
272.4817039326115946
 51
335.0998727186852761
  0
LINE
  5
D3E3
  8
0
 10
3839.301172339949062
 20
359.1351755528140757
 30
0.0
 11
3839.301172339949062
 21
357.3619160568479174
 31
0.0
  0
ARC
  5
D3E4
  8
0
 10
3839.6286705652019009
 20
359.2043838200846153
 30
0.0
 40
0.0799999997524738
 50
116.3877998868349977
 51
180.0000000505077935
  0
ARC
  5
D3E5
  8
0
 10
3839.5886705654488651
 20
359.2850063974140085
 30
0.0
 40
0.009999999999992
 50
296.3877996769269885
 51
0.0000000000260551
  0
ARC
  5
D3E6
  8
0
 10
3840.2026705655248406
 20
359.2968291949997024
 30
0.0
 40
0.6040000000757711
 50
137.2673213534353067
 51
179.9999999986320915
  0
ARC
  5
D3E7
  8
0
 10
3839.7516705654461475
 20
359.7134765279159865
 30
0.0
 40
0.0100000000036362
 50
317.2673215866041119
 51
359.9994270309471744
  0
ARC
  5
D3E8
  8
0
 10
3839.8416705654490215
 20
359.7506458674139935
 30
0.0
 40
0.0799999999999997
 50
98.9490180636947656
 51
180.0
  0
ARC
  5
D3E9
  8
0
 10
3839.8276705653720455
 20
359.8395503105426201
 30
0.0
 40
0.0100000000772554
 50
278.9490181214849258
 51
359.9999998365922238
  0
ARC
  5
D3EA
  8
0
 10
3839.9276705654501711
 20
360.1460458048140936
 30
0.0
 40
0.0900000000000008
 50
90.0
 51
178.4768182435099106
  0
LINE
  5
D3EB
  8
0
 10
3840.2406705654489087
 20
360.2360458048141254
 30
0.0
 11
3839.9276705654501711
 21
360.2360458048141254
 31
0.0
  0
LINE
  5
D3EC
  8
0
 10
3839.5486705654489015
 20
359.1525458048141104
 30
0.0
 11
3839.3283842760488369
 21
359.1525458048141104
 31
0.0
  0
ARC
  5
D3ED
  8
0
 10
3839.3283842760629341
 20
359.1225458047686061
 30
0.0
 40
0.0300000000454981
 50
90.0000000254818957
 51
155.1027927645554882
  0
LINE
  5
D3EE
  8
0
 10
3838.9796705654489415
 20
358.9128488175073244
 30
0.0
 11
3838.9796705654489415
 21
357.5842427922963225
 31
0.0
  0
LINE
  5
D3EF
  8
0
 10
3838.9596705654489597
 20
358.8325458048140035
 30
0.0
 11
3838.8926705654489524
 21
358.8325458048140035
 31
0.0
  0
LINE
  5
D3F0
  8
0
 10
3838.7231975980657808
 20
358.7826399477211226
 30
0.0
 11
3838.7231975980657808
 21
357.7144516619069918
 31
0.0
  0
LINE
  5
D3F1
  8
0
 10
3837.0556390693500362
 20
358.7029204667140903
 30
0.0
 11
3837.0556390693500362
 21
357.7998580431139999
 31
0.0
  0
LINE
  5
D3F2
  8
0
 10
3837.0556390693500362
 20
358.7029204667140903
 30
0.0
 11
3837.8036705654490106
 21
358.7029204667140903
 31
0.0
  0
LINE
  5
D3F3
  8
0
 10
3837.9022149549141432
 20
358.5610459019239897
 30
0.0
 11
3838.001670565448876
 21
358.5610459019239897
 31
0.0
  0
ARC
  5
D3F4
  8
0
 10
3837.8529427685489281
 20
357.9445458048140836
 30
0.0
 40
0.0499999999999998
 50
189.7878191711056957
 51
350.212180943285091
  0
ARC
  5
D3F5
  8
0
 10
3838.0786705645978145
 20
357.9100458045422215
 30
0.0
 40
0.0769999991490958
 50
179.9999997977081136
 51
250.8433036376036114
  0
ARC
  5
D3F6
  8
0
 10
3838.8007928190490929
 20
357.8085458048140026
 30
0.0
 40
0.12
 50
233.1963336017728921
 51
284.7898091441982729
  0
ARC
  5
D3F7
  8
0
 10
3838.722913090009115
 20
357.7044557094633888
 30
0.0
 40
0.0100000005044238
 50
53.1963338103233596
 51
88.3696689969942923
  0
ARC
  5
D3F8
  8
0
 10
3838.7875159954392075
 20
359.9523166219008203
 30
0.0
 40
2.2387890555852681
 50
250.8582500563231008
 51
268.3537172352944253
  0
ARC
  5
D3F9
  8
0
 10
3838.8339784119489195
 20
357.6828528598140906
 30
0.0
 40
0.0099999999999979
 50
38.5042437111813669
 51
104.789809687413495
  0
ARC
  5
D3FA
  8
0
 10
3838.8926705654130274
 20
357.7295458046543217
 30
0.0
 40
0.0649999998402313
 50
218.5042436298122936
 51
270.0000000321780931
  0
ARC
  5
D3FB
  8
0
 10
3838.9596705654489597
 20
357.6445458048140722
 30
0.0
 40
0.02
 50
0.0
 51
90.0
  0
ARC
  5
D3FC
  8
0
 10
3838.9836493886177777
 20
357.2145259526635073
 30
0.0
 40
0.3500638047892933
 50
24.9001272813146883
 51
87.5187175990856048
  0
ARC
  5
D3FD
  8
0
 10
3838.9996705654489233
 20
357.5842427922963225
 30
0.0
 40
0.02
 50
180.0
 51
267.518717599085619
  0
ARC
  5
D3FE
  8
0
 10
3839.6286705652019009
 20
357.2927077895436128
 30
0.0
 40
0.0799999997524738
 50
179.9999999494922065
 51
243.6122001131649881
  0
ARC
  5
D3FF
  8
0
 10
3839.5886705654488651
 20
357.2120852122139922
 30
0.0
 40
0.009999999999992
 50
359.9999999999740226
 51
63.6122003230730328
  0
ARC
  5
D400
  8
0
 10
3840.2026705655248406
 20
357.2002624146285257
 30
0.0
 40
0.6040000000757711
 50
180.0000000013679085
 51
222.732678646564608
  0
ARC
  5
D401
  8
0
 10
3839.7516705654461475
 20
356.7836150817121279
 30
0.0
 40
0.0100000000036362
 50
0.0005729690527556
 51
42.7326784133959734
  0
ARC
  5
D402
  8
0
 10
3839.8416705654490215
 20
356.7464457422141209
 30
0.0
 40
0.0799999999999997
 50
180.0
 51
261.0509819363052202
  0
ARC
  5
D403
  8
0
 10
3839.8276705653720455
 20
356.657541299085608
 30
0.0
 40
0.0100000000772554
 50
0.0000001634078413
 51
81.0509818785151168
  0
ARC
  5
D404
  8
0
 10
3839.9276705654501711
 20
356.3510458048140777
 30
0.0
 40
0.0900000000000008
 50
181.5231817564900041
 51
270.0
  0
LINE
  5
D405
  8
0
 10
3840.2406705654489087
 20
356.2610458048141027
 30
0.0
 11
3839.9276705654501711
 21
356.2610458048141027
 31
0.0
  0
LINE
  5
D406
  8
0
 10
3839.5486705654489015
 20
357.3445458048141177
 30
0.0
 11
3839.3283842760488369
 21
357.3445458048141177
 31
0.0
  0
ARC
  5
D407
  8
0
 10
3839.3283842760629341
 20
357.374545804859622
 30
0.0
 40
0.0300000000454981
 50
204.8972072354445118
 51
269.9999999745181185
  0
LINE
  5
D408
  8
0
 10
3838.9596705654489597
 20
357.6645458048141109
 30
0.0
 11
3838.8926705654489524
 21
357.6645458048141109
 31
0.0
  0
LINE
  5
D409
  8
0
 10
3837.9022149549141432
 20
357.9360457077041247
 30
0.0
 11
3838.001670565448876
 21
357.9360457077041247
 31
0.0
  0
LINE
  5
D40A
  8
0
 10
3837.7564385228488391
 20
357.7941711430141254
 30
0.0
 11
3837.8036705654490106
 21
357.7941711430141254
 31
0.0
  0
LINE
  5
D40B
  8
0
 10
3837.054756240558163
 20
357.7972187435835849
 30
0.0
 11
3837.0166705654492034
 21
357.9286937557141073
 31
0.0
  0
LINE
  5
D40C
  8
0
 10
3837.001670565448876
 20
357.9286937557141073
 30
0.0
 11
3837.0166705654492034
 21
357.9286937557141073
 31
0.0
  0
LINE
  5
D40D
  8
0
 10
3836.9766705654487851
 20
357.9575937557140719
 30
0.0
 11
3836.9766705654487851
 21
358.5395303405140908
 31
0.0
  0
ARC
  5
D40E
  8
0
 10
3837.0038186195261005
 20
357.9558150827700729
 30
0.0
 40
0.0272062587945769
 50
176.2514805455780049
 51
265.4715323433110825
  0
LINE
  5
D40F
  8
0
 10
3837.0166705654492034
 20
358.5683978540139947
 30
0.0
 11
3837.0166705654492034
 21
357.9286937557141073
 31
0.0
  0
LINE
  5
D410
  8
0
 10
3837.0166705654492034
 20
358.5683978540139947
 30
0.0
 11
3837.0556390693500362
 21
358.7029204667140903
 31
0.0
  0
LINE
  5
D411
  8
0
 10
3837.0166705654492034
 20
358.5683978540139947
 30
0.0
 11
3837.001670565448876
 21
358.5683978540139947
 31
0.0
  0
ARC
  5
D412
  8
0
 10
3837.0036655110361608
 20
358.5414111061772928
 30
0.0
 40
0.0270603837130657
 50
94.2277949558167762
 51
183.985415825511609
  0
LINE
  5
D413
  8
0
 10
3836.9674007156168045
 20
358.5210551318556895
 30
0.0
 11
3836.9766705654487851
 21
358.5210551318556895
 31
0.0
  0
ARC
  5
D414
  8
0
 10
3837.4690248962388068
 20
358.2485458047913198
 30
0.0
 40
0.5708661417897034
 50
151.4868030346898991
 51
208.5131969553538056
  0
ARC
  5
D415
  8
0
 10
3837.0859912158780389
 20
358.0441639284936173
 30
0.0
 40
0.1367663111263591
 50
150.1237329611676898
 51
206.2933563447614063
  0
ARC
  5
D416
  8
0
 10
3837.4690248961492216
 20
358.2485458048140003
 30
0.0
 40
0.519800107500008
 50
164.8035751008023908
 51
195.1964248991976092
  0
ARC
  5
D417
  8
0
 10
3837.0859914222351108
 20
358.4529277996816177
 30
0.0
 40
0.1367665491111875
 50
153.7085850939672014
 51
209.8762670388323102
  0
LINE
  5
D418
  8
0
 10
3836.9766705654487851
 20
357.9760364777724249
 30
0.0
 11
3836.9674007156959306
 21
357.9760364777724249
 31
0.0
  0
LINE
  5
D419
  8
0
 10
3836.9766705654487851
 20
358.1122911413140741
 30
0.0
 11
3836.9674007156800144
 21
358.1122911413140741
 31
0.0
  0
LINE
  5
D41A
  8
0
 10
3836.9766705654487851
 20
358.3848004683376871
 30
0.0
 11
3836.9674007156859261
 21
358.3848004683376871
 31
0.0
  0
LINE
  5
D41B
  8
0
 10
3837.1923231576488433
 20
357.9365413040139856
 30
0.0
 11
3837.1819706134001535
 21
357.7971583354889162
 31
0.0
  0
LINE
  5
D41C
  8
0
 10
3837.1923231576488433
 20
357.9365413040139856
 30
0.0
 11
3837.7610511106490776
 21
357.9365413040139856
 31
0.0
  0
ARC
  5
D41D
  8
0
 10
3837.0547203169671775
 20
357.7978443781125861
 30
0.0
 40
0.0006266650415939
 50
273.2862914211680163
 51
341.4358778124470177
  0
ARC
  5
D41E
  8
0
 10
3837.0498570132021996
 20
357.7995759219987235
 30
0.0
 40
0.005788934756668
 50
340.5140012494932193
 51
2.7933903352097329
  0
LINE
  5
D41F
  8
0
 10
3837.0376707790492219
 20
355.5713345433140944
 30
0.0
 11
3837.2112718231669533
 21
357.9086343106395134
 31
0.0
  0
ARC
  5
D420
  8
0
 10
3837.1803789191321812
 20
357.7762187435787951
 30
0.0
 40
0.021
 50
355.7522022107963835
 51
90.0
  0
LINE
  5
D421
  8
0
 10
3837.0376707790578621
 20
355.5713345433048858
 30
0.0
 11
3837.5696710288189024
 21
355.5713345433048858
 31
0.0
  0
LINE
  5
D422
  8
0
 10
3837.0376707790492219
 20
355.5713345433140944
 30
0.0
 11
3837.1106705725492247
 21
355.492649880614124
 31
0.0
  0
LINE
  5
D423
  8
0
 10
3837.4886705673488905
 20
355.492649880614124
 30
0.0
 11
3837.1106602958689109
 21
355.492649880614124
 31
0.0
  0
LINE
  5
D424
  8
0
 10
3837.5696710288189024
 20
355.5713345433048858
 30
0.0
 11
3837.4886705673488905
 21
355.492649880614124
 31
0.0
  0
LINE
  5
D425
  8
0
 10
3837.5696710288189024
 20
355.5713345433048858
 30
0.0
 11
3837.641905436244997
 21
357.8008994246620205
 31
0.0
  0
ARC
  5
D426
  8
0
 10
3837.7781855306820944
 20
357.7995417159502267
 30
0.0
 40
0.1362868574473679
 50
118.9784846237052989
 51
179.4292019515777952
  0
ARC
  5
D427
  8
0
 10
3837.7927224381028282
 20
357.7732931999943844
 30
0.0
 40
0.1662919614675098
 50
100.9794060257064956
 51
118.9784846237052989
  0
ARC
  5
D428
  8
0
 10
3837.7574871271222037
 20
357.6854921607633742
 30
0.0
 40
0.1086840409349535
 50
90.5528091417966863
 51
128.7038837163385097
  0
ARC
  5
D429
  8
0
 10
3837.7765176337288722
 20
357.661741505051225
 30
0.0
 40
0.1391184594190368
 50
128.7038837163385097
 51
179.9713480093803071
  0
ARC
  5
D42A
  8
0
 10
3837.1736703974947886
 20
357.9021403988797942
 30
0.0
 40
0.0391324384063138
 50
25.140967063847409
 51
61.5326921677662284
  0
ARC
  5
D42B
  8
0
 10
3837.1899295448401972
 20
357.9093494651964988
 30
0.0
 40
0.0213542569575437
 50
358.0808041554078045
 51
26.1647064361177293
  0
LINE
  5
D42C
  8
0
 10
3837.7564385228488391
 20
357.7941711430141254
 30
0.0
 11
3837.7610511106490776
 21
357.9365413040139856
 31
0.0
  0
LINE
  5
D42E
  8
0
 10
3837.0547562405590725
 20
357.7972187435789237
 30
0.0
 11
3837.1803789191321812
 21
357.7972187435789237
 31
0.0
  0
ENDSEC
  0
EOF
