  0
SECTION
  2
HEADER
  9
$ACADVER
  1
AC1009
  9
$INSBASE
 10
6735.2890001629057224
 20
281.6571656179563092
 30
0.0
  9
$EXTMIN
 10
6731.2890001629057224
 20
277.6571480392493072
 30
0.0
  9
$EXTMAX
 10
6739.2890001629048129
 20
285.6571480392493072
 30
0.0
  9
$LIMMIN
 10
0.0
 20
0.0
  9
$LIMMAX
 10
11.6929133858000007
 20
8.2677165353999982
  9
$ORTHOMODE
 70
     0
  9
$REGENMODE
 70
     1
  9
$FILLMODE
 70
     1
  9
$QTEXTMODE
 70
     0
  9
$MIRRTEXT
 70
     0
  9
$DRAGMODE
 70
     2
  9
$LTSCALE
 40
0.6431102362
  9
$OSMODE
 70
  4095
  9
$ATTMODE
 70
     1
  9
$TEXTSIZE
 40
0.2
  9
$TRACEWID
 40
0.05
  9
$TEXTSTYLE
  7
STANDARD
  9
$CLAYER
  8
0
  9
$CELTYPE
  6
BYLAYER
  9
$CECOLOR
 62
   256
  9
$DIMSCALE
 40
1.0
  9
$DIMASZ
 40
0.1875
  9
$DIMEXO
 40
0.0625
  9
$DIMDLI
 40
0.4443307087
  9
$DIMRND
 40
0.0
  9
$DIMDLE
 40
0.0
  9
$DIMEXE
 40
0.125
  9
$DIMTP
 40
0.01
  9
$DIMTM
 40
0.01
  9
$DIMTXT
 40
2.0
  9
$DIMCEN
 40
0.1052362205
  9
$DIMTSZ
 40
0.0
  9
$DIMTOL
 70
     1
  9
$DIMLIM
 70
     0
  9
$DIMTIH
 70
     1
  9
$DIMTOH
 70
     1
  9
$DIMSE1
 70
     0
  9
$DIMSE2
 70
     0
  9
$DIMTAD
 70
     0
  9
$DIMZIN
 70
     0
  9
$DIMBLK
  1

  9
$DIMASO
 70
     1
  9
$DIMSHO
 70
     1
  9
$DIMPOST
  1
\X
  9
$DIMAPOST
  1

  9
$DIMALT
 70
     1
  9
$DIMALTD
 70
     2
  9
$DIMALTF
 40
25.3999999999999986
  9
$DIMLFAC
 40
1.0
  9
$DIMTOFL
 70
     0
  9
$DIMTVP
 40
0.0
  9
$DIMTIX
 70
     0
  9
$DIMSOXD
 70
     0
  9
$DIMSAH
 70
     0
  9
$DIMBLK1
  1

  9
$DIMBLK2
  1

  9
$DIMSTYLE
  2
STANDARD
  9
$DIMCLRD
 70
     0
  9
$DIMCLRE
 70
     0
  9
$DIMCLRT
 70
     0
  9
$DIMTFAC
 40
1.0
  9
$DIMGAP
 40
0.09
  9
$LUNITS
 70
     2
  9
$LUPREC
 70
     4
  9
$SKETCHINC
 40
0.1
  9
$FILLETRAD
 40
0.0
  9
$AUNITS
 70
     0
  9
$AUPREC
 70
     0
  9
$MENU
  1
.
  9
$ELEVATION
 40
0.0
  9
$PELEVATION
 40
0.0
  9
$THICKNESS
 40
0.0
  9
$LIMCHECK
 70
     0
  9
$BLIPMODE
 70
     0
  9
$CHAMFERA
 40
0.0
  9
$CHAMFERB
 40
0.0
  9
$SKPOLY
 70
     0
  9
$TDCREATE
 40
2458060.468368056230247
  9
$TDUPDATE
 40
2460838.7602083329111338
  9
$TDINDWG
 40
0.9464422454
  9
$TDUSRTIMER
 40
0.9464422454
  9
$USRTIMER
 70
     1
  9
$ANGBASE
 50
0.0
  9
$ANGDIR
 70
     0
  9
$PDMODE
 70
     0
  9
$PDSIZE
 40
0.3125
  9
$PLINEWID
 40
0.0
  9
$COORDS
 70
     1
  9
$SPLFRAME
 70
     0
  9
$SPLINETYPE
 70
     6
  9
$SPLINESEGS
 70
     8
  9
$ATTDIA
 70
     1
  9
$ATTREQ
 70
     1
  9
$HANDLING
 70
     1
  9
$HANDSEED
  5
34EFE
  9
$SURFTAB1
 70
     6
  9
$SURFTAB2
 70
     6
  9
$SURFTYPE
 70
     6
  9
$SURFU
 70
     6
  9
$SURFV
 70
     6
  9
$UCSNAME
  2

  9
$UCSORG
 10
0.0
 20
0.0
 30
0.0
  9
$UCSXDIR
 10
1.0
 20
0.0
 30
0.0
  9
$UCSYDIR
 10
0.0
 20
1.0
 30
0.0
  9
$PUCSNAME
  2

  9
$PUCSORG
 10
0.0
 20
0.0
 30
0.0
  9
$PUCSXDIR
 10
1.0
 20
0.0
 30
0.0
  9
$PUCSYDIR
 10
0.0
 20
1.0
 30
0.0
  9
$USERI1
 70
     0
  9
$USERI2
 70
     0
  9
$USERI3
 70
     0
  9
$USERI4
 70
     0
  9
$USERI5
 70
     0
  9
$USERR1
 40
0.0
  9
$USERR2
 40
0.0
  9
$USERR3
 40
0.0
  9
$USERR4
 40
0.0
  9
$USERR5
 40
0.0
  9
$WORLDVIEW
 70
     1
  9
$SHADEDGE
 70
     3
  9
$SHADEDIF
 70
    70
  9
$TILEMODE
 70
     1
  9
$MAXACTVP
 70
    64
  9
$PLIMCHECK
 70
     0
  9
$PEXTMIN
 10
1.0000000000000000E+20
 20
1.0000000000000000E+20
 30
1.0000000000000000E+20
  9
$PEXTMAX
 10
-1.0000000000000000E+20
 20
-1.0000000000000000E+20
 30
-1.0000000000000000E+20
  9
$PLIMMIN
 10
0.0
 20
0.0
  9
$PLIMMAX
 10
12.0
 20
9.0
  9
$UNITMODE
 70
     0
  9
$VISRETAIN
 70
     1
  9
$PLINEGEN
 70
     0
  9
$PSLTSCALE
 70
     1
  0
ENDSEC
  0
SECTION
  2
TABLES
  0
TABLE
  2
VPORT
 70
     1
  0
VPORT
  2
*ACTIVE
 70
     0
 10
0.0
 20
0.0
 11
1.0
 21
1.0
 12
2823.9236437175932224
 22
149.0775429367101879
 13
0.0
 23
0.0
 14
1.0
 24
1.0
 15
0.0
 25
0.0
 16
0.0
 26
0.0
 36
60.4960186965801583
 17
3911.3653564453120453
 27
132.5796051025390057
 37
0.0
 40
8.0597374066617942
 41
2.204387990762124
 42
50.0
 43
0.0
 44
0.0
 50
0.0
 51
0.0
 71
     0
 72
   100
 73
     1
 74
     1
 75
     0
 76
     0
 77
     0
 78
     0
  0
ENDTAB
  0
TABLE
  2
LTYPE
 70
     2
  0
LTYPE
  2
CONTINUOUS
 70
     0
  3
Solid line
 72
    65
 73
     0
 40
0.0
  0
LTYPE
  2
PHANTOM2
 70
     0
  3
___ _ _ ___ _ _ ___ _ _ ___ _ _
 72
    65
 73
     6
 40
1.25
 49
0.625
 49
-0.125
 49
0.125
 49
-0.125
 49
0.125
 49
-0.125
  0
ENDTAB
  0
TABLE
  2
LAYER
 70
     2
  0
LAYER
  2
0
 70
     0
 62
   255
  6
CONTINUOUS
  0
LAYER
  2
DEFPOINTS
 70
     0
 62
     7
  6
CONTINUOUS
  0
ENDTAB
  0
TABLE
  2
STYLE
 70
     1
  0
STYLE
  2
STANDARD
 70
     0
 40
0.0
 41
0.8
 50
0.0
 71
     0
 42
0.2
  3
txt
  4

  0
ENDTAB
  0
TABLE
  2
VIEW
 70
     0
  0
ENDTAB
  0
TABLE
  2
UCS
 70
     0
  0
ENDTAB
  0
TABLE
  2
APPID
 70
    11
  0
APPID
  2
ACAD
 70
     0
  0
APPID
  2
ACAD_MLEADERVER
 70
     0
  0
APPID
  2
ACAD_EXEMPT_FROM_CAD_STANDARDS
 70
     0
  0
APPID
  2
ACAD_NAV_VCDISPLAY
 70
     0
  0
APPID
  2
ACAECLAYERSTANDARD
 70
     0
  0
APPID
  2
ACCMTRANSPARENCY
 70
     0
  0
APPID
  2
ACAD_DSTYLE_DIMJAG
 70
     0
  0
APPID
  2
ACAD_DSTYLE_DIMTALN
 70
     0
  0
APPID
  2
ACDBATTR
 70
     0
  0
APPID
  2
ACADANNOTATIVE
 70
     0
  0
APPID
  2
DCO15
 70
     0
  0
ENDTAB
  0
TABLE
  2
DIMSTYLE
 70
     1
  0
DIMSTYLE
  2
STANDARD
 70
     0
  3

  4

  5

  6

  7

 40
1.0
 41
0.1875
 42
0.0625
 43
0.38
 44
0.125
 45
0.0
 46
0.0
 47
0.01
 48
0.01
140
0.15625
141
0.09
142
0.0
143
25.3999999999999986
144
1.0
145
0.0
146
1.0
147
0.09
 71
     1
 72
     0
 73
     1
 74
     1
 75
     0
 76
     0
 77
     0
 78
     4
170
     0
171
     2
172
     0
173
     0
174
     0
175
     0
176
     0
177
     0
178
     0
  0
ENDTAB
  0
ENDSEC
  0
SECTION
  2
BLOCKS
  0
BLOCK
  8
0
  2
$MODEL_SPACE
 70
     0
 10
0.0
 20
0.0
 30
0.0
  3
$MODEL_SPACE
  1

  0
ENDBLK
  5
21
  8
0
  0
BLOCK
 67
     1
  8
0
  2
$PAPER_SPACE
 70
     0
 10
0.0
 20
0.0
 30
0.0
  3
$PAPER_SPACE
  1

  0
ENDBLK
  5
1D
 67
     1
  8
0
  0
BLOCK
  8
0
  2
_FILLED
 70
     0
 10
0.0
 20
0.0
 30
0.0
  3
_FILLED
  1

  0
SOLID
  5
2853B
  8
0
  6
BYBLOCK
 62
     0
 10
0.0
 20
0.0
 30
0.0
 11
-1.0
 21
0.1666666667
 31
0.0
 12
-1.0
 22
-0.1666666667
 32
0.0
 13
-1.0
 23
-0.1666666667
 33
0.0
  0
ENDBLK
  5
2853C
  8
0
  6
BYBLOCK
 62
     0
  0
ENDSEC
  0
SECTION
  2
ENTITIES
  0
ATTDEF
  5
2842F
  8
DEFPOINTS
 10
6735.2838292143142098
 20
281.6557212780120949
 30
0.0
 40
0.001
  1
P22715-LX
  3

  2
MODELNUMBER
 70
     0
1001
ACDBATTR
1070
     0
1070
     1
  0
ATTDEF
  5
28430
  8
DEFPOINTS
 10
6735.2837034046569897
 20
281.6540544376330217
 30
0.0
 40
0.001
  1

  3

  2
TRADENAME
 70
     0
1001
ACDBATTR
1070
     0
1070
     1
  0
ATTDEF
  5
28431
  8
DEFPOINTS
 10
6735.2838292143142098
 20
281.6523879446787078
 30
0.0
 40
0.001
  1
VALVE TRIM
  3

  2
PRODUCT
 70
     0
1001
ACDBATTR
1070
     0
1070
     1
  0
CIRCLE
  5
34DCD
  8
0
 10
6735.2890001629057224
 20
281.6571480392493072
 30
0.0
 40
4.0
  0
CIRCLE
  5
34DCE
  8
0
 10
6735.2890001629057224
 20
281.6571480392493072
 30
0.0
 40
3.5937034252999989
  0
CIRCLE
  5
34DCF
  8
0
 10
6735.2890001629057224
 20
281.6571480392493072
 30
0.0
 40
3.0050523332999992
  0
CIRCLE
  5
34DD0
  8
0
 10
6735.2890001629057224
 20
281.6571480392493072
 30
0.0
 40
2.798989630099999
  0
ARC
  5
34DD1
  8
0
 10
6735.2890001629057224
 20
281.6571480392493072
 30
0.0
 40
2.0190260579999988
 50
278.4675786692978932
 51
261.5324724682279793
  0
ARC
  5
34DD2
  8
0
 10
6735.2890001629057224
 20
281.6571480392493072
 30
0.0
 40
0.8170000000000001
 50
288.0393012957417227
 51
251.9614261763927914
  0
ARC
  5
34DD3
  8
0
 10
6735.2890001629057224
 20
281.6571480392493072
 30
0.0
 40
0.7449289322000001
 50
289.6311557659462892
 51
250.3696894771630923
  0
ARC
  5
34DD4
  8
0
 10
6735.2890001629057224
 20
281.6571480392493072
 30
0.0
 40
0.5695000000000002
 50
295.3118476190521164
 51
244.6894366931038007
  0
LINE
  5
34DD5
  8
0
 10
6735.2890001629057224
 20
282.1115227011492266
 30
0.0
 11
6734.8955001628646642
 21
281.88433537019921
 31
0.0
  0
LINE
  5
34DD6
  8
0
 10
6734.8955001628646642
 20
281.88433537019921
 30
0.0
 11
6734.8955001628646642
 21
281.429960708299177
 31
0.0
  0
LINE
  5
34DD7
  8
0
 10
6734.8955001628646642
 20
281.429960708299177
 30
0.0
 11
6735.2791501629071718
 21
281.2084602775008193
 31
0.0
  0
ARC
  5
34DD8
  8
0
 10
6735.2890001629057224
 20
281.2255209779552843
 30
0.0
 40
0.0197
 50
239.9999999999994884
 51
299.99999999999892
  0
LINE
  5
34DD9
  8
0
 10
6735.2988501629051825
 20
281.2084602775008193
 30
0.0
 11
6735.6825001629476901
 21
281.429960708299177
 31
0.0
  0
LINE
  5
34DDA
  8
0
 10
6735.6825001629476901
 20
281.429960708299177
 30
0.0
 11
6735.6825001629476901
 21
281.88433537019921
 31
0.0
  0
LINE
  5
34DDB
  8
0
 10
6735.6825001629476901
 20
281.88433537019921
 30
0.0
 11
6735.2890001629057224
 21
282.1115227011492266
 31
0.0
  0
LINE
  5
34DDC
  8
0
 10
6735.2890001629057224
 20
281.9770000883492003
 30
0.0
 11
6735.0120001629329636
 21
281.8170740637992253
 31
0.0
  0
LINE
  5
34DDD
  8
0
 10
6735.0120001629329636
 20
281.8170740637992253
 30
0.0
 11
6735.0120001629329636
 21
281.4972220146992186
 31
0.0
  0
LINE
  5
34DDE
  8
0
 10
6735.0120001629329636
 20
281.4972220146992186
 30
0.0
 11
6735.2890001629057224
 21
281.3372959901491868
 31
0.0
  0
LINE
  5
34DDF
  8
0
 10
6735.2890001629057224
 20
281.3372959901491868
 30
0.0
 11
6735.5660001628793907
 21
281.4972220146992186
 31
0.0
  0
LINE
  5
34DE0
  8
0
 10
6735.5660001628793907
 20
281.4972220146992186
 30
0.0
 11
6735.5660001628793907
 21
281.8170740637992253
 31
0.0
  0
LINE
  5
34DE1
  8
0
 10
6735.5660001628793907
 20
281.8170740637992253
 30
0.0
 11
6735.2890001629057224
 21
281.9770000883492003
 31
0.0
  0
LINE
  5
34DE2
  8
0
 10
6735.2890001629057224
 20
281.929657366349204
 30
0.0
 11
6735.0530001628703758
 21
281.7934027027991988
 31
0.0
  0
LINE
  5
34DE3
  8
0
 10
6735.0530001628703758
 20
281.7934027027991988
 30
0.0
 11
6735.0530001628703758
 21
281.5208933756991883
 31
0.0
  0
LINE
  5
34DE4
  8
0
 10
6735.0530001628703758
 20
281.5208933756991883
 30
0.0
 11
6735.2890001629057224
 21
281.384638712149183
 31
0.0
  0
LINE
  5
34DE5
  8
0
 10
6735.2890001629057224
 20
281.384638712149183
 30
0.0
 11
6735.525000162942888
 21
281.5208933756991883
 31
0.0
  0
LINE
  5
34DE6
  8
0
 10
6735.525000162942888
 20
281.5208933756991883
 30
0.0
 11
6735.525000162942888
 21
281.7934027027991988
 31
0.0
  0
LINE
  5
34DE7
  8
0
 10
6735.525000162942888
 20
281.7934027027991988
 30
0.0
 11
6735.2890001629057224
 21
281.929657366349204
 31
0.0
  0
ARC
  5
34DE8
  8
0
 10
6735.2890001629057224
 20
281.6571480392493072
 30
0.0
 40
0.5544999999999983
 50
295.9788718783298123
 51
244.0224662856064128
  0
ARC
  5
34DE9
  8
0
 10
6735.2890001629057224
 20
281.6571480392493072
 30
0.0
 40
0.5314999999999981
 50
297.08234491306672
 51
242.9190835765151917
  0
ARC
  5
34DEA
  8
0
 10
6735.0325578105848763
 20
281.3280828380919729
 30
0.0
 40
0.0196999998228669
 50
357.9202784828347035
 51
60.0000003882255086
  0
LINE
  5
34DEB
  8
0
 10
6735.052244834026169
 20
281.3273679247473069
 30
0.0
 11
6734.9670015578276434
 21
278.9799696156200071
 31
0.0
  0
LINE
  5
34DEC
  8
0
 10
6734.9670015578276434
 20
278.9799696156200071
 30
0.0
 11
6735.0429963366059383
 21
278.9012390554493095
 31
0.0
  0
LINE
  5
34DED
  8
0
 10
6735.0429963366059383
 20
278.9012390554493095
 30
0.0
 11
6735.5349963409071279
 21
278.9012430231492203
 31
0.0
  0
LINE
  5
34DEE
  8
0
 10
6735.5349963409071279
 20
278.9012430231492203
 30
0.0
 11
6735.6109971922069235
 21
278.9799366622492016
 31
0.0
  0
LINE
  5
34DEF
  8
0
 10
6735.6109971922069235
 20
278.9799366622492016
 30
0.0
 11
6735.5257425153058648
 21
281.3280828380492267
 31
0.0
  0
ARC
  5
34DF0
  8
0
 10
6735.5442769589790259
 20
281.3287557723082273
 30
0.0
 40
0.0185466558385279
 50
117.9206624610965974
 51
182.0793375389899893
  0
CIRCLE
  5
34DF1
  8
0
 10
6735.2890001629057224
 20
282.9221480392491799
 30
0.0
 40
0.2000000000000002
  0
CIRCLE
  5
34DF2
  8
0
 10
6735.2890001629057224
 20
282.9221480392491799
 30
0.0
 40
0.105
  0
LINE
  5
34DF3
  8
0
 10
6734.9670015578276434
 20
278.9799696156200071
 30
0.0
 11
6735.6109971922069235
 21
278.9799366622492016
 31
0.0
  0
ENDSEC
  0
EOF
