  0
SECTION
  2
HEADER
  9
$ACADVER
  1
AC1009
  9
$INSBASE
 10
6713.0894755410954531
 20
279.6700683643924208
 30
0.0
  9
$EXTMIN
 10
6709.0894755410954531
 20
275.6700683643924208
 30
0.0
  9
$EXTMAX
 10
6717.0894755410954531
 20
283.6700683643924208
 30
0.0
  9
$LIMMIN
 10
0.0
 20
0.0
  9
$LIMMAX
 10
11.6929133858000007
 20
8.2677165353999982
  9
$ORTHOMODE
 70
     0
  9
$REGENMODE
 70
     1
  9
$FILLMODE
 70
     1
  9
$QTEXTMODE
 70
     0
  9
$MIRRTEXT
 70
     0
  9
$DRAGMODE
 70
     2
  9
$LTSCALE
 40
0.6431102362
  9
$OSMODE
 70
  4095
  9
$ATTMODE
 70
     1
  9
$TEXTSIZE
 40
0.2
  9
$TRACEWID
 40
0.05
  9
$TEXTSTYLE
  7
STANDARD
  9
$CLAYER
  8
0
  9
$CELTYPE
  6
BYLAYER
  9
$CECOLOR
 62
   256
  9
$DIMSCALE
 40
1.0
  9
$DIMASZ
 40
0.1875
  9
$DIMEXO
 40
0.0625
  9
$DIMDLI
 40
0.4443307087
  9
$DIMRND
 40
0.0
  9
$DIMDLE
 40
0.0
  9
$DIMEXE
 40
0.125
  9
$DIMTP
 40
0.01
  9
$DIMTM
 40
0.01
  9
$DIMTXT
 40
2.0
  9
$DIMCEN
 40
0.1052362205
  9
$DIMTSZ
 40
0.0
  9
$DIMTOL
 70
     1
  9
$DIMLIM
 70
     0
  9
$DIMTIH
 70
     1
  9
$DIMTOH
 70
     1
  9
$DIMSE1
 70
     0
  9
$DIMSE2
 70
     0
  9
$DIMTAD
 70
     0
  9
$DIMZIN
 70
     0
  9
$DIMBLK
  1

  9
$DIMASO
 70
     1
  9
$DIMSHO
 70
     1
  9
$DIMPOST
  1
\X
  9
$DIMAPOST
  1

  9
$DIMALT
 70
     1
  9
$DIMALTD
 70
     2
  9
$DIMALTF
 40
25.3999999999999986
  9
$DIMLFAC
 40
1.0
  9
$DIMTOFL
 70
     0
  9
$DIMTVP
 40
0.0
  9
$DIMTIX
 70
     0
  9
$DIMSOXD
 70
     0
  9
$DIMSAH
 70
     0
  9
$DIMBLK1
  1

  9
$DIMBLK2
  1

  9
$DIMSTYLE
  2
STANDARD
  9
$DIMCLRD
 70
     0
  9
$DIMCLRE
 70
     0
  9
$DIMCLRT
 70
     0
  9
$DIMTFAC
 40
1.0
  9
$DIMGAP
 40
0.09
  9
$LUNITS
 70
     2
  9
$LUPREC
 70
     4
  9
$SKETCHINC
 40
0.1
  9
$FILLETRAD
 40
0.0
  9
$AUNITS
 70
     0
  9
$AUPREC
 70
     0
  9
$MENU
  1
.
  9
$ELEVATION
 40
0.0
  9
$PELEVATION
 40
0.0
  9
$THICKNESS
 40
0.0
  9
$LIMCHECK
 70
     0
  9
$BLIPMODE
 70
     0
  9
$CHAMFERA
 40
0.0
  9
$CHAMFERB
 40
0.0
  9
$SKPOLY
 70
     0
  9
$TDCREATE
 40
2458060.468368056230247
  9
$TDUPDATE
 40
2460822.6562152779661119
  9
$TDINDWG
 40
0.9388728009
  9
$TDUSRTIMER
 40
0.9388728009
  9
$USRTIMER
 70
     1
  9
$ANGBASE
 50
0.0
  9
$ANGDIR
 70
     0
  9
$PDMODE
 70
     0
  9
$PDSIZE
 40
0.3125
  9
$PLINEWID
 40
0.0
  9
$COORDS
 70
     1
  9
$SPLFRAME
 70
     0
  9
$SPLINETYPE
 70
     6
  9
$SPLINESEGS
 70
     8
  9
$ATTDIA
 70
     1
  9
$ATTREQ
 70
     1
  9
$HANDLING
 70
     1
  9
$HANDSEED
  5
34D48
  9
$SURFTAB1
 70
     6
  9
$SURFTAB2
 70
     6
  9
$SURFTYPE
 70
     6
  9
$SURFU
 70
     6
  9
$SURFV
 70
     6
  9
$UCSNAME
  2

  9
$UCSORG
 10
0.0
 20
0.0
 30
0.0
  9
$UCSXDIR
 10
1.0
 20
0.0
 30
0.0
  9
$UCSYDIR
 10
0.0
 20
1.0
 30
0.0
  9
$PUCSNAME
  2

  9
$PUCSORG
 10
0.0
 20
0.0
 30
0.0
  9
$PUCSXDIR
 10
1.0
 20
0.0
 30
0.0
  9
$PUCSYDIR
 10
0.0
 20
1.0
 30
0.0
  9
$USERI1
 70
     0
  9
$USERI2
 70
     0
  9
$USERI3
 70
     0
  9
$USERI4
 70
     0
  9
$USERI5
 70
     0
  9
$USERR1
 40
0.0
  9
$USERR2
 40
0.0
  9
$USERR3
 40
0.0
  9
$USERR4
 40
0.0
  9
$USERR5
 40
0.0
  9
$WORLDVIEW
 70
     1
  9
$SHADEDGE
 70
     3
  9
$SHADEDIF
 70
    70
  9
$TILEMODE
 70
     1
  9
$MAXACTVP
 70
    64
  9
$PLIMCHECK
 70
     0
  9
$PEXTMIN
 10
1.0000000000000000E+20
 20
1.0000000000000000E+20
 30
1.0000000000000000E+20
  9
$PEXTMAX
 10
-1.0000000000000000E+20
 20
-1.0000000000000000E+20
 30
-1.0000000000000000E+20
  9
$PLIMMIN
 10
0.0
 20
0.0
  9
$PLIMMAX
 10
12.0
 20
9.0
  9
$UNITMODE
 70
     0
  9
$VISRETAIN
 70
     1
  9
$PLINEGEN
 70
     0
  9
$PSLTSCALE
 70
     1
  0
ENDSEC
  0
SECTION
  2
TABLES
  0
TABLE
  2
VPORT
 70
     1
  0
VPORT
  2
*ACTIVE
 70
     0
 10
0.0
 20
0.0
 11
1.0
 21
1.0
 12
2801.7241190957829531
 22
147.0904632618533014
 13
0.0
 23
0.0
 14
1.0
 24
1.0
 15
0.0
 25
0.0
 16
0.0
 26
0.0
 36
60.4960186965801583
 17
3911.3653564453120453
 27
132.5796051025390057
 37
0.0
 40
8.0550213322412301
 41
2.1449438202247189
 42
50.0
 43
0.0
 44
0.0
 50
0.0
 51
0.0
 71
     0
 72
   100
 73
     1
 74
     1
 75
     0
 76
     0
 77
     0
 78
     0
  0
ENDTAB
  0
TABLE
  2
LTYPE
 70
     2
  0
LTYPE
  2
CONTINUOUS
 70
     0
  3
Solid line
 72
    65
 73
     0
 40
0.0
  0
LTYPE
  2
PHANTOM2
 70
     0
  3
___ _ _ ___ _ _ ___ _ _ ___ _ _
 72
    65
 73
     6
 40
1.25
 49
0.625
 49
-0.125
 49
0.125
 49
-0.125
 49
0.125
 49
-0.125
  0
ENDTAB
  0
TABLE
  2
LAYER
 70
     2
  0
LAYER
  2
0
 70
     0
 62
   255
  6
CONTINUOUS
  0
LAYER
  2
DEFPOINTS
 70
     0
 62
     7
  6
CONTINUOUS
  0
ENDTAB
  0
TABLE
  2
STYLE
 70
     1
  0
STYLE
  2
STANDARD
 70
     0
 40
0.0
 41
0.8
 50
0.0
 71
     0
 42
0.2
  3
txt
  4

  0
ENDTAB
  0
TABLE
  2
VIEW
 70
     0
  0
ENDTAB
  0
TABLE
  2
UCS
 70
     0
  0
ENDTAB
  0
TABLE
  2
APPID
 70
    11
  0
APPID
  2
ACAD
 70
     0
  0
APPID
  2
ACAD_MLEADERVER
 70
     0
  0
APPID
  2
ACAD_EXEMPT_FROM_CAD_STANDARDS
 70
     0
  0
APPID
  2
ACAD_NAV_VCDISPLAY
 70
     0
  0
APPID
  2
ACAECLAYERSTANDARD
 70
     0
  0
APPID
  2
ACCMTRANSPARENCY
 70
     0
  0
APPID
  2
ACAD_DSTYLE_DIMJAG
 70
     0
  0
APPID
  2
ACAD_DSTYLE_DIMTALN
 70
     0
  0
APPID
  2
ACDBATTR
 70
     0
  0
APPID
  2
ACADANNOTATIVE
 70
     0
  0
APPID
  2
DCO15
 70
     0
  0
ENDTAB
  0
TABLE
  2
DIMSTYLE
 70
     1
  0
DIMSTYLE
  2
STANDARD
 70
     0
  3

  4

  5

  6

  7

 40
1.0
 41
0.1875
 42
0.0625
 43
0.38
 44
0.125
 45
0.0
 46
0.0
 47
0.01
 48
0.01
140
0.15625
141
0.09
142
0.0
143
25.3999999999999986
144
1.0
145
0.0
146
1.0
147
0.09
 71
     1
 72
     0
 73
     1
 74
     1
 75
     0
 76
     0
 77
     0
 78
     4
170
     0
171
     2
172
     0
173
     0
174
     0
175
     0
176
     0
177
     0
178
     0
  0
ENDTAB
  0
ENDSEC
  0
SECTION
  2
BLOCKS
  0
BLOCK
  8
0
  2
$MODEL_SPACE
 70
     0
 10
0.0
 20
0.0
 30
0.0
  3
$MODEL_SPACE
  1

  0
ENDBLK
  5
21
  8
0
  0
BLOCK
 67
     1
  8
0
  2
$PAPER_SPACE
 70
     0
 10
0.0
 20
0.0
 30
0.0
  3
$PAPER_SPACE
  1

  0
ENDBLK
  5
1D
 67
     1
  8
0
  0
BLOCK
  8
0
  2
_FILLED
 70
     0
 10
0.0
 20
0.0
 30
0.0
  3
_FILLED
  1

  0
SOLID
  5
2853B
  8
0
  6
BYBLOCK
 62
     0
 10
0.0
 20
0.0
 30
0.0
 11
-1.0
 21
0.1666666667
 31
0.0
 12
-1.0
 22
-0.1666666667
 32
0.0
 13
-1.0
 23
-0.1666666667
 33
0.0
  0
ENDBLK
  5
2853C
  8
0
  6
BYBLOCK
 62
     0
  0
ENDSEC
  0
SECTION
  2
ENTITIES
  0
ATTDEF
  5
2842F
  8
DEFPOINTS
 10
6713.0853643093832943
 20
279.6739486944543955
 30
0.0
 40
0.001
  1
P22715-XX
  3

  2
MODELNUMBER
 70
     0
1001
ACDBATTR
1070
     0
1070
     1
  0
ATTDEF
  5
28430
  8
DEFPOINTS
 10
6713.0852384997269837
 20
279.6722818540753224
 30
0.0
 40
0.001
  1

  3

  2
TRADENAME
 70
     0
1001
ACDBATTR
1070
     0
1070
     1
  0
ATTDEF
  5
28431
  8
DEFPOINTS
 10
6713.0853643093832943
 20
279.6706153611211221
 30
0.0
 40
0.001
  1
VALVE TRIM
  3

  2
PRODUCT
 70
     0
1001
ACDBATTR
1070
     0
1070
     1
  0
CIRCLE
  5
349F7
  8
0
 10
6713.0894755410954531
 20
279.6700683643924208
 30
0.0
 40
4.0
  0
CIRCLE
  5
349F8
  8
0
 10
6713.0894755410954531
 20
279.6700683643924208
 30
0.0
 40
3.5937034252999989
  0
CIRCLE
  5
349F9
  8
0
 10
6713.0894755410954531
 20
279.6700683643924208
 30
0.0
 40
3.0050523332999992
  0
CIRCLE
  5
349FA
  8
0
 10
6713.0894755410954531
 20
279.6700683643924208
 30
0.0
 40
2.798989630099999
  0
CIRCLE
  5
349FB
  8
0
 10
6713.0894755410954531
 20
279.6700683643924208
 30
0.0
 40
2.0190260579999988
  0
ARC
  5
349FC
  8
0
 10
6713.0894755410954531
 20
279.6700683643924208
 30
0.0
 40
0.8294999999999999
 50
111.5820820143160006
 51
158.4179179931057888
  0
ARC
  5
349FD
  8
0
 10
6713.0894755410954531
 20
279.6700683643924208
 30
0.0
 40
0.8294999999999999
 50
201.5820820143335936
 51
248.4179179930852968
  0
ARC
  5
349FE
  8
0
 10
6713.0894755410954531
 20
279.6700683643924208
 30
0.0
 40
0.8294999999999999
 50
291.5820820143160859
 51
338.4179179931057888
  0
ARC
  5
349FF
  8
0
 10
6713.0894755410954531
 20
279.6700683643924208
 30
0.0
 40
0.8294999999999999
 50
21.5820820143336185
 51
68.4179179930853536
  0
ARC
  5
34A00
  8
0
 10
6713.0894755410954531
 20
279.6700683643924208
 30
0.0
 40
0.8140710678
 50
112.0122766285366964
 51
157.9877233790371918
  0
ARC
  5
34A01
  8
0
 10
6713.0894755410954531
 20
279.6700683643924208
 30
0.0
 40
0.8140710678
 50
202.0122766285620912
 51
247.9877233790510047
  0
ARC
  5
34A02
  8
0
 10
6713.0894755410954531
 20
279.6700683643924208
 30
0.0
 40
0.8140710678
 50
292.0122766285367106
 51
337.9877233790372202
  0
ARC
  5
34A03
  8
0
 10
6713.0894755410954531
 20
279.6700683643924208
 30
0.0
 40
0.8140710678
 50
22.012276628562109
 51
67.9877233790510047
  0
ARC
  5
34A04
  8
0
 10
6713.0894755410954531
 20
279.6700683643924208
 30
0.0
 40
0.7449289322000001
 50
114.1793068694802002
 51
155.8206931389667886
  0
ARC
  5
34A05
  8
0
 10
6713.0894755410954531
 20
279.6700683643924208
 30
0.0
 40
0.7449289322000001
 50
204.1793068694566955
 51
245.8206931389694887
  0
ARC
  5
34A06
  8
0
 10
6713.0894755410954531
 20
279.6700683643924208
 30
0.0
 40
0.7449289322000001
 50
294.1793068694801718
 51
335.8206931389668739
  0
ARC
  5
34A07
  8
0
 10
6713.0894755410954531
 20
279.6700683643924208
 30
0.0
 40
0.7449289322000001
 50
24.179306869456731
 51
65.8206931389695455
  0
ARC
  5
34A08
  8
0
 10
6713.0894755410954531
 20
279.6700683643924208
 30
0.0
 40
0.5695000000000002
 50
122.3957998976298001
 51
147.6042001143007099
  0
ARC
  5
34A09
  8
0
 10
6713.0894755410954531
 20
279.6700683643924208
 30
0.0
 40
0.5695000000000002
 50
212.3957998976001136
 51
237.6042001142822073
  0
ARC
  5
34A0A
  8
0
 10
6713.0894755410954531
 20
279.6700683643924208
 30
0.0
 40
0.5695000000000002
 50
302.3957998976297858
 51
327.6042001143006814
  0
ARC
  5
34A0B
  8
0
 10
6713.0894755410954531
 20
279.6700683643924208
 30
0.0
 40
0.5695000000000002
 50
32.395799897600142
 51
57.6042001142822215
  0
ARC
  5
34A0C
  8
0
 10
6713.0894755410954531
 20
279.6700683643924208
 30
0.0
 40
0.5545000000000001
 50
123.3847207474263996
 51
146.615279264936305
  0
ARC
  5
34A0D
  8
0
 10
6713.0894755410954531
 20
279.6700683643924208
 30
0.0
 40
0.5545000000000001
 50
213.3847207474202037
 51
236.615279264936305
  0
ARC
  5
34A0E
  8
0
 10
6713.0894755410954531
 20
279.6700683643924208
 30
0.0
 40
0.5545000000000001
 50
303.3847207474263996
 51
326.615279264936305
  0
ARC
  5
34A0F
  8
0
 10
6713.0894755410954531
 20
279.6700683643924208
 30
0.0
 40
0.5545000000000001
 50
33.3847207474202179
 51
56.6152792649362695
  0
CIRCLE
  5
34A10
  8
0
 10
6713.0894755410954531
 20
279.6700683643924208
 30
0.0
 40
0.3645000000000209
  0
CIRCLE
  5
34A11
  8
0
 10
6713.0894755410954531
 20
279.6700683643924208
 30
0.0
 40
0.3192677165000002
  0
LINE
  5
34A12
  8
0
 10
6712.930363262174069
 20
279.945658915592503
 30
0.0
 11
6712.7712509832526848
 21
279.6700683643924208
 31
0.0
  0
LINE
  5
34A13
  8
0
 10
6712.7712509832526848
 20
279.6700683643924208
 30
0.0
 11
6712.930363262174069
 21
279.3944778131923954
 31
0.0
  0
LINE
  5
34A14
  8
0
 10
6712.930363262174069
 20
279.3944778131923954
 30
0.0
 11
6713.2485878200168372
 21
279.3944778131923954
 31
0.0
  0
LINE
  5
34A15
  8
0
 10
6713.2485878200168372
 20
279.3944778131923954
 30
0.0
 11
6713.4077000989382213
 21
279.6700683643924208
 31
0.0
  0
LINE
  5
34A16
  8
0
 10
6713.4077000989382213
 20
279.6700683643924208
 30
0.0
 11
6713.2485878200168372
 21
279.945658915592503
 31
0.0
  0
LINE
  5
34A17
  8
0
 10
6713.2485878200168372
 20
279.945658915592503
 30
0.0
 11
6712.930363262174069
 21
279.945658915592503
 31
0.0
  0
LINE
  5
34A18
  8
0
 10
6712.9449702239344333
 20
279.9203589155636109
 30
0.0
 11
6712.8004649068743674
 21
279.6700683643347247
 31
0.0
  0
LINE
  5
34A19
  8
0
 10
6712.8004649068743674
 20
279.6700683643347247
 30
0.0
 11
6712.9449702240353872
 21
279.4197778131635914
 31
0.0
  0
LINE
  5
34A1A
  8
0
 10
6712.9449702240353872
 20
279.4197778131635914
 30
0.0
 11
6713.2339808582573824
 21
279.4197778132212875
 31
0.0
  0
LINE
  5
34A1B
  8
0
 10
6713.2339808582573824
 20
279.4197778132212875
 30
0.0
 11
6713.3784861753174482
 21
279.6700683644501737
 31
0.0
  0
LINE
  5
34A1C
  8
0
 10
6713.3784861753174482
 20
279.6700683644501737
 30
0.0
 11
6713.2339808581564284
 21
279.920358915621307
 31
0.0
  0
LINE
  5
34A1D
  8
0
 10
6713.2339808581564284
 20
279.920358915621307
 30
0.0
 11
6712.9449702239344333
 21
279.9203589155636109
 31
0.0
  0
LINE
  5
34A1E
  8
0
 10
6712.9508205551974243
 20
279.910225844692377
 30
0.0
 11
6712.8121655692975764
 21
279.6700683643924208
 31
0.0
  0
LINE
  5
34A1F
  8
0
 10
6712.8121655692975764
 20
279.6700683643924208
 30
0.0
 11
6712.9508205551974243
 21
279.4299108840925214
 31
0.0
  0
LINE
  5
34A20
  8
0
 10
6712.9508205551974243
 20
279.4299108840925214
 30
0.0
 11
6713.2281305269943914
 21
279.4299108840925214
 31
0.0
  0
LINE
  5
34A21
  8
0
 10
6713.2281305269943914
 20
279.4299108840925214
 30
0.0
 11
6713.3667855128933297
 21
279.6700683643924208
 31
0.0
  0
LINE
  5
34A22
  8
0
 10
6713.3667855128933297
 20
279.6700683643924208
 30
0.0
 11
6713.2281305269943914
 21
279.910225844692377
 31
0.0
  0
LINE
  5
34A23
  8
0
 10
6713.2281305269943914
 20
279.910225844692377
 30
0.0
 11
6712.9508205551974243
 21
279.910225844692377
 31
0.0
  0
ARC
  5
34A24
  8
0
 10
6713.08947554180304
 20
282.5432100299404965
 30
0.0
 40
2.6434861732731769
 50
267.0818529290331185
 51
272.9181470336595794
  0
ARC
  5
34A25
  8
0
 10
6710.6013426283952867
 20
281.1068753692924815
 30
0.0
 40
2.6435150379000198
 50
327.07632063906658
 51
332.9125661313013893
  0
ARC
  5
34A26
  8
0
 10
6710.5889981811242251
 20
278.2261879908655828
 30
0.0
 40
2.6577215483968488
 50
27.1020173660492816
 51
32.9070338413734405
  0
ARC
  5
34A27
  8
0
 10
6713.089495036473636
 20
276.7976886867328972
 30
0.0
 40
2.6427241809690312
 50
87.0814340360052768
 51
92.9195061421898032
  0
ARC
  5
34A28
  8
0
 10
6715.5883663168988278
 20
278.2270489132611146
 30
0.0
 40
2.6559218107867948
 50
147.0899639702224988
 51
152.8989228121220947
  0
ARC
  5
34A29
  8
0
 10
6715.5776084534945767
 20
281.1068753691923234
 30
0.0
 40
2.6435150378996588
 50
207.0874338683894962
 51
212.9236793583480107
  0
LINE
  5
34A2A
  8
0
 10
6712.930363262174069
 20
279.945658915592503
 30
0.0
 11
6712.9449702239344333
 21
279.9203589155636109
 31
0.0
  0
LINE
  5
34A2B
  8
0
 10
6712.7712509832526848
 20
279.6700683643924208
 30
0.0
 11
6712.8004649068743674
 21
279.6700683643347247
 31
0.0
  0
LINE
  5
34A2C
  8
0
 10
6712.9449702240353872
 20
279.4197778131635914
 30
0.0
 11
6712.930363262174069
 21
279.3944778131923954
 31
0.0
  0
LINE
  5
34A2D
  8
0
 10
6713.2339808582573824
 20
279.4197778132212875
 30
0.0
 11
6713.2485878200168372
 21
279.3944778131923954
 31
0.0
  0
LINE
  5
34A2E
  8
0
 10
6713.3784861753174482
 20
279.6700683644501737
 30
0.0
 11
6713.4077000989382213
 21
279.6700683643924208
 31
0.0
  0
LINE
  5
34A2F
  8
0
 10
6713.2339808581564284
 20
279.920358915621307
 30
0.0
 11
6713.2485878200168372
 21
279.945658915592503
 31
0.0
  0
LINE
  5
34A30
  8
0
 10
6713.2240534598531667
 20
279.9031517100809197
 30
0.0
 11
6713.2281305269943914
 21
279.910225844692377
 31
0.0
  0
LINE
  5
34A31
  8
0
 10
6712.9548976220321492
 20
279.9031517101685722
 30
0.0
 11
6712.9508205551974243
 21
279.910225844692377
 31
0.0
  0
LINE
  5
34A32
  8
0
 10
6712.8121655692975764
 20
279.6700683643924208
 30
0.0
 11
6712.8202967482893655
 21
279.6700683643653065
 31
0.0
  0
LINE
  5
34A33
  8
0
 10
6712.9508205551974243
 20
279.4299108840925214
 30
0.0
 11
6712.9548933043670331
 21
279.436982810242398
 31
0.0
  0
LINE
  5
34A34
  8
0
 10
6713.2240534598458908
 20
279.4369850185944983
 30
0.0
 11
6713.2281305269943914
 21
279.4299108840925214
 31
0.0
  0
LINE
  5
34A35
  8
0
 10
6713.3586543335368333
 20
279.6700683643653065
 30
0.0
 11
6713.3667855128933297
 21
279.6700683643924208
 31
0.0
  0
LINE
  5
34A36
  8
0
 10
6713.3945936512964181
 20
280.035186474692523
 30
0.0
 11
6713.3945936512964181
 21
281.0260014994923949
 31
0.0
  0
LINE
  5
34A37
  8
0
 10
6713.3945936512964181
 20
281.0260014994923949
 30
0.0
 11
6713.3419527092955832
 21
281.1064452908923954
 31
0.0
  0
LINE
  5
34A38
  8
0
 10
6713.3419527092955832
 20
281.1064452908923954
 30
0.0
 11
6713.0894755410954531
 21
281.1661283643924207
 31
0.0
  0
LINE
  5
34A39
  8
0
 10
6713.0894755410954531
 20
281.1661283643924207
 30
0.0
 11
6712.8369983728962325
 21
281.1064452908923954
 31
0.0
  0
LINE
  5
34A3A
  8
0
 10
6712.8369983728962325
 20
281.1064452908923954
 30
0.0
 11
6712.7843574307962626
 21
281.0260014994923949
 31
0.0
  0
LINE
  5
34A3B
  8
0
 10
6712.7843574307962626
 20
281.0260014994923949
 30
0.0
 11
6712.7843574307962626
 21
280.0351864745924217
 31
0.0
  0
LINE
  5
34A3C
  8
0
 10
6712.7843574307962626
 20
281.0260014994923949
 30
0.0
 11
6713.0894755410954531
 21
281.0551714326924184
 31
0.0
  0
LINE
  5
34A3D
  8
0
 10
6713.0894755410954531
 20
281.0551714326924184
 30
0.0
 11
6713.3945936512964181
 21
281.0260014994923949
 31
0.0
  0
LINE
  5
34A3E
  8
0
 10
6713.0894755410954531
 20
281.1661283643924207
 30
0.0
 11
6713.0894755410954531
 21
280.0345683643924986
 31
0.0
  0
LINE
  5
34A3F
  8
0
 10
6712.724357430794953
 20
279.9751864745924195
 30
0.0
 11
6711.7335424059956495
 21
279.9751864745924195
 31
0.0
  0
ARC
  5
34A40
  8
0
 10
6712.724357430794953
 20
280.0351864745924217
 30
0.0
 40
0.06
 50
270.0
 51
0.0
  0
LINE
  5
34A41
  8
0
 10
6711.7335424059956495
 20
279.9751864745924195
 30
0.0
 11
6711.6530986145962743
 21
279.9225455325923804
 31
0.0
  0
LINE
  5
34A42
  8
0
 10
6711.6530986145962743
 20
279.9225455325923804
 30
0.0
 11
6711.5934155410950552
 21
279.6700683643924208
 31
0.0
  0
LINE
  5
34A43
  8
0
 10
6711.5934155410950552
 20
279.6700683643924208
 30
0.0
 11
6711.6530986145962743
 21
279.4175911961925181
 31
0.0
  0
LINE
  5
34A44
  8
0
 10
6711.6530986145962743
 20
279.4175911961925181
 30
0.0
 11
6711.7335424059956495
 21
279.3649502540923777
 31
0.0
  0
LINE
  5
34A45
  8
0
 10
6711.7335424059956495
 20
279.3649502540923777
 30
0.0
 11
6712.7243574308949974
 21
279.3649502540923777
 31
0.0
  0
LINE
  5
34A46
  8
0
 10
6711.7335424059956495
 20
279.3649502540923777
 30
0.0
 11
6711.7043724727936933
 21
279.6700683643924208
 31
0.0
  0
LINE
  5
34A47
  8
0
 10
6711.7043724727936933
 20
279.6700683643924208
 30
0.0
 11
6711.7335424059956495
 21
279.9751864745924195
 31
0.0
  0
LINE
  5
34A48
  8
0
 10
6711.5934155410950552
 20
279.6700683643924208
 30
0.0
 11
6712.7249755410957732
 21
279.6700683643924208
 31
0.0
  0
LINE
  5
34A49
  8
0
 10
6712.7843574308953976
 20
279.3049502540923754
 30
0.0
 11
6712.7843574308953976
 21
278.3141352292925035
 31
0.0
  0
ARC
  5
34A4A
  8
0
 10
6712.7243574308949974
 20
279.3049502540923754
 30
0.0
 40
0.06
 50
0.0
 51
90.0
  0
LINE
  5
34A4B
  8
0
 10
6712.7843574308953976
 20
278.3141352292925035
 30
0.0
 11
6712.8369983728962325
 21
278.2336914378923893
 31
0.0
  0
LINE
  5
34A4C
  8
0
 10
6712.8369983728962325
 20
278.2336914378923893
 30
0.0
 11
6713.0894755410954531
 21
278.1740083643924208
 31
0.0
  0
LINE
  5
34A4D
  8
0
 10
6713.0894755410954531
 20
278.1740083643924208
 30
0.0
 11
6713.3419527092955832
 21
278.2336914378923893
 31
0.0
  0
LINE
  5
34A4E
  8
0
 10
6713.3419527092955832
 20
278.2336914378923893
 30
0.0
 11
6713.3945936513946435
 21
278.3141352292925035
 31
0.0
  0
LINE
  5
34A4F
  8
0
 10
6713.3945936513946435
 20
278.3141352292925035
 30
0.0
 11
6713.3945936513946435
 21
279.3049502541924198
 31
0.0
  0
ARC
  5
34A50
  8
0
 10
6713.4545936513950437
 20
279.3049502541924198
 30
0.0
 40
0.06
 50
90.0
 51
180.0
  0
LINE
  5
34A51
  8
0
 10
6713.3945936513946435
 20
278.3141352292925035
 30
0.0
 11
6713.0894755410954531
 21
278.2849652960924232
 31
0.0
  0
LINE
  5
34A52
  8
0
 10
6713.0894755410954531
 20
278.2849652960924232
 30
0.0
 11
6712.7843574308953976
 21
278.3141352292925035
 31
0.0
  0
LINE
  5
34A53
  8
0
 10
6713.0894755410954531
 20
278.1740083643924208
 30
0.0
 11
6713.0894755410954531
 21
279.3055683643923999
 31
0.0
  0
LINE
  5
34A54
  8
0
 10
6713.4545936513950437
 20
279.3649502541924221
 30
0.0
 11
6714.4454086761952567
 21
279.3649502541924221
 31
0.0
  0
LINE
  5
34A55
  8
0
 10
6714.4454086761952567
 20
279.3649502541924221
 30
0.0
 11
6714.5258524675946319
 21
279.4175911961925181
 31
0.0
  0
LINE
  5
34A56
  8
0
 10
6714.5258524675946319
 20
279.4175911961925181
 30
0.0
 11
6714.5855355410940319
 21
279.6700683643924208
 31
0.0
  0
LINE
  5
34A57
  8
0
 10
6714.5855355410940319
 20
279.6700683643924208
 30
0.0
 11
6714.5258524675946319
 21
279.9225455325923804
 31
0.0
  0
LINE
  5
34A58
  8
0
 10
6714.5258524675946319
 20
279.9225455325923804
 30
0.0
 11
6714.4454086761952567
 21
279.9751864746925207
 31
0.0
  0
LINE
  5
34A59
  8
0
 10
6714.4454086761952567
 20
279.9751864746925207
 30
0.0
 11
6713.4545936512949993
 21
279.9751864746925207
 31
0.0
  0
ARC
  5
34A5A
  8
0
 10
6713.4545936512949993
 20
280.035186474692523
 30
0.0
 40
0.06
 50
180.0
 51
270.0
  0
LINE
  5
34A5B
  8
0
 10
6714.4454086761952567
 20
279.9751864746925207
 30
0.0
 11
6714.4745786093953939
 21
279.6700683643924208
 31
0.0
  0
LINE
  5
34A5C
  8
0
 10
6714.4745786093953939
 20
279.6700683643924208
 30
0.0
 11
6714.4454086761952567
 21
279.3649502541924221
 31
0.0
  0
LINE
  5
34A5D
  8
0
 10
6714.5855355410940319
 20
279.6700683643924208
 30
0.0
 11
6713.4539755410960424
 21
279.6700683643924208
 31
0.0
  0
LINE
  5
34A5E
  8
0
 10
6712.7667838376673899
 20
279.9927600677211785
 30
0.0
 11
6712.8317351193127251
 21
279.9278087860949995
 31
0.0
  0
LINE
  5
34A5F
  8
0
 10
6712.7667838377656153
 20
279.3473766609636186
 30
0.0
 11
6712.8317351193927607
 21
279.4123279426099771
 31
0.0
  0
LINE
  5
34A60
  8
0
 10
6713.4121672445244258
 20
279.3473766610637199
 30
0.0
 11
6713.347215962878181
 21
279.4123279426898989
 31
0.0
  0
LINE
  5
34A61
  8
0
 10
6713.4121672444252908
 20
279.9927600678212229
 30
0.0
 11
6713.3472159627981455
 21
279.9278087861749214
 31
0.0
  0
ENDSEC
  0
EOF
