  0
SECTION
  2
HEADER
  9
$ACADVER
  1
AC1009
  9
$INSBASE
 10
6748.1486082438887024
 20
283.7532442294747739
 30
0.0
  9
$EXTMIN
 10
6744.1486082438887024
 20
279.7532442294747739
 30
0.0
  9
$EXTMAX
 10
6752.1486082438887024
 20
287.7532442294747739
 30
0.0
  9
$LIMMIN
 10
0.0
 20
0.0
  9
$LIMMAX
 10
11.6929133858000007
 20
8.2677165353999982
  9
$ORTHOMODE
 70
     0
  9
$REGENMODE
 70
     1
  9
$FILLMODE
 70
     1
  9
$QTEXTMODE
 70
     0
  9
$MIRRTEXT
 70
     0
  9
$DRAGMODE
 70
     2
  9
$LTSCALE
 40
0.6431102362
  9
$OSMODE
 70
  4095
  9
$ATTMODE
 70
     1
  9
$TEXTSIZE
 40
0.2
  9
$TRACEWID
 40
0.05
  9
$TEXTSTYLE
  7
STANDARD
  9
$CLAYER
  8
0
  9
$CELTYPE
  6
BYLAYER
  9
$CECOLOR
 62
   256
  9
$DIMSCALE
 40
1.0
  9
$DIMASZ
 40
0.1875
  9
$DIMEXO
 40
0.0625
  9
$DIMDLI
 40
0.4443307087
  9
$DIMRND
 40
0.0
  9
$DIMDLE
 40
0.0
  9
$DIMEXE
 40
0.125
  9
$DIMTP
 40
0.01
  9
$DIMTM
 40
0.01
  9
$DIMTXT
 40
2.0
  9
$DIMCEN
 40
0.1052362205
  9
$DIMTSZ
 40
0.0
  9
$DIMTOL
 70
     1
  9
$DIMLIM
 70
     0
  9
$DIMTIH
 70
     1
  9
$DIMTOH
 70
     1
  9
$DIMSE1
 70
     0
  9
$DIMSE2
 70
     0
  9
$DIMTAD
 70
     0
  9
$DIMZIN
 70
     0
  9
$DIMBLK
  1

  9
$DIMASO
 70
     1
  9
$DIMSHO
 70
     1
  9
$DIMPOST
  1
\X
  9
$DIMAPOST
  1

  9
$DIMALT
 70
     1
  9
$DIMALTD
 70
     2
  9
$DIMALTF
 40
25.3999999999999986
  9
$DIMLFAC
 40
1.0
  9
$DIMTOFL
 70
     0
  9
$DIMTVP
 40
0.0
  9
$DIMTIX
 70
     0
  9
$DIMSOXD
 70
     0
  9
$DIMSAH
 70
     0
  9
$DIMBLK1
  1

  9
$DIMBLK2
  1

  9
$DIMSTYLE
  2
STANDARD
  9
$DIMCLRD
 70
     0
  9
$DIMCLRE
 70
     0
  9
$DIMCLRT
 70
     0
  9
$DIMTFAC
 40
1.0
  9
$DIMGAP
 40
0.09
  9
$LUNITS
 70
     2
  9
$LUPREC
 70
     4
  9
$SKETCHINC
 40
0.1
  9
$FILLETRAD
 40
0.0
  9
$AUNITS
 70
     0
  9
$AUPREC
 70
     0
  9
$MENU
  1
.
  9
$ELEVATION
 40
0.0
  9
$PELEVATION
 40
0.0
  9
$THICKNESS
 40
0.0
  9
$LIMCHECK
 70
     0
  9
$BLIPMODE
 70
     0
  9
$CHAMFERA
 40
0.0
  9
$CHAMFERB
 40
0.0
  9
$SKPOLY
 70
     0
  9
$TDCREATE
 40
2458060.468368056230247
  9
$TDUPDATE
 40
2460960.4876041668467224
  9
$TDINDWG
 40
0.9471482639
  9
$TDUSRTIMER
 40
0.9471482639
  9
$USRTIMER
 70
     1
  9
$ANGBASE
 50
0.0
  9
$ANGDIR
 70
     0
  9
$PDMODE
 70
     0
  9
$PDSIZE
 40
0.3125
  9
$PLINEWID
 40
0.0
  9
$COORDS
 70
     1
  9
$SPLFRAME
 70
     0
  9
$SPLINETYPE
 70
     6
  9
$SPLINESEGS
 70
     8
  9
$ATTDIA
 70
     1
  9
$ATTREQ
 70
     1
  9
$HANDLING
 70
     1
  9
$HANDSEED
  5
35031
  9
$SURFTAB1
 70
     6
  9
$SURFTAB2
 70
     6
  9
$SURFTYPE
 70
     6
  9
$SURFU
 70
     6
  9
$SURFV
 70
     6
  9
$UCSNAME
  2

  9
$UCSORG
 10
0.0
 20
0.0
 30
0.0
  9
$UCSXDIR
 10
1.0
 20
0.0
 30
0.0
  9
$UCSYDIR
 10
0.0
 20
1.0
 30
0.0
  9
$PUCSNAME
  2

  9
$PUCSORG
 10
0.0
 20
0.0
 30
0.0
  9
$PUCSXDIR
 10
1.0
 20
0.0
 30
0.0
  9
$PUCSYDIR
 10
0.0
 20
1.0
 30
0.0
  9
$USERI1
 70
     0
  9
$USERI2
 70
     0
  9
$USERI3
 70
     0
  9
$USERI4
 70
     0
  9
$USERI5
 70
     0
  9
$USERR1
 40
0.0
  9
$USERR2
 40
0.0
  9
$USERR3
 40
0.0
  9
$USERR4
 40
0.0
  9
$USERR5
 40
0.0
  9
$WORLDVIEW
 70
     1
  9
$SHADEDGE
 70
     3
  9
$SHADEDIF
 70
    70
  9
$TILEMODE
 70
     1
  9
$MAXACTVP
 70
    64
  9
$PLIMCHECK
 70
     0
  9
$PEXTMIN
 10
1.0000000000000000E+20
 20
1.0000000000000000E+20
 30
1.0000000000000000E+20
  9
$PEXTMAX
 10
-1.0000000000000000E+20
 20
-1.0000000000000000E+20
 30
-1.0000000000000000E+20
  9
$PLIMMIN
 10
0.0
 20
0.0
  9
$PLIMMAX
 10
12.0
 20
9.0
  9
$UNITMODE
 70
     0
  9
$VISRETAIN
 70
     1
  9
$PLINEGEN
 70
     0
  9
$PSLTSCALE
 70
     1
  0
ENDSEC
  0
SECTION
  2
TABLES
  0
TABLE
  2
VPORT
 70
     1
  0
VPORT
  2
*ACTIVE
 70
     0
 10
0.0
 20
0.0
 11
1.0
 21
1.0
 12
2836.7832517985771119
 22
151.1736391269357114
 13
0.0
 23
0.0
 14
1.0
 24
1.0
 15
0.0
 25
0.0
 16
0.0
 26
0.0
 36
60.4960186965801583
 17
3911.3653564453120453
 27
132.5796051025390057
 37
0.0
 40
8.0579118319656704
 41
2.204387990762124
 42
50.0
 43
0.0
 44
0.0
 50
0.0
 51
0.0
 71
     0
 72
   100
 73
     1
 74
     1
 75
     0
 76
     0
 77
     0
 78
     0
  0
ENDTAB
  0
TABLE
  2
LTYPE
 70
     2
  0
LTYPE
  2
CONTINUOUS
 70
     0
  3
Solid line
 72
    65
 73
     0
 40
0.0
  0
LTYPE
  2
PHANTOM2
 70
     0
  3
___ _ _ ___ _ _ ___ _ _ ___ _ _
 72
    65
 73
     6
 40
1.25
 49
0.625
 49
-0.125
 49
0.125
 49
-0.125
 49
0.125
 49
-0.125
  0
ENDTAB
  0
TABLE
  2
LAYER
 70
     2
  0
LAYER
  2
0
 70
     0
 62
   255
  6
CONTINUOUS
  0
LAYER
  2
DEFPOINTS
 70
     0
 62
     7
  6
CONTINUOUS
  0
ENDTAB
  0
TABLE
  2
STYLE
 70
     1
  0
STYLE
  2
STANDARD
 70
     0
 40
0.0
 41
0.8
 50
0.0
 71
     0
 42
0.2
  3
txt
  4

  0
ENDTAB
  0
TABLE
  2
VIEW
 70
     0
  0
ENDTAB
  0
TABLE
  2
UCS
 70
     0
  0
ENDTAB
  0
TABLE
  2
APPID
 70
    11
  0
APPID
  2
ACAD
 70
     0
  0
APPID
  2
ACAD_MLEADERVER
 70
     0
  0
APPID
  2
ACAD_EXEMPT_FROM_CAD_STANDARDS
 70
     0
  0
APPID
  2
ACAD_NAV_VCDISPLAY
 70
     0
  0
APPID
  2
ACAECLAYERSTANDARD
 70
     0
  0
APPID
  2
ACCMTRANSPARENCY
 70
     0
  0
APPID
  2
ACAD_DSTYLE_DIMJAG
 70
     0
  0
APPID
  2
ACAD_DSTYLE_DIMTALN
 70
     0
  0
APPID
  2
ACDBATTR
 70
     0
  0
APPID
  2
ACADANNOTATIVE
 70
     0
  0
APPID
  2
DCO15
 70
     0
  0
ENDTAB
  0
TABLE
  2
DIMSTYLE
 70
     1
  0
DIMSTYLE
  2
STANDARD
 70
     0
  3

  4

  5

  6

  7

 40
1.0
 41
0.1875
 42
0.0625
 43
0.38
 44
0.125
 45
0.0
 46
0.0
 47
0.01
 48
0.01
140
0.15625
141
0.09
142
0.0
143
25.3999999999999986
144
1.0
145
0.0
146
1.0
147
0.09
 71
     1
 72
     0
 73
     1
 74
     1
 75
     0
 76
     0
 77
     0
 78
     4
170
     0
171
     2
172
     0
173
     0
174
     0
175
     0
176
     0
177
     0
178
     0
  0
ENDTAB
  0
ENDSEC
  0
SECTION
  2
BLOCKS
  0
BLOCK
  8
0
  2
$MODEL_SPACE
 70
     0
 10
0.0
 20
0.0
 30
0.0
  3
$MODEL_SPACE
  1

  0
ENDBLK
  5
21
  8
0
  0
BLOCK
 67
     1
  8
0
  2
$PAPER_SPACE
 70
     0
 10
0.0
 20
0.0
 30
0.0
  3
$PAPER_SPACE
  1

  0
ENDBLK
  5
1D
 67
     1
  8
0
  0
BLOCK
  8
0
  2
_FILLED
 70
     0
 10
0.0
 20
0.0
 30
0.0
  3
_FILLED
  1

  0
SOLID
  5
2853B
  8
0
  6
BYBLOCK
 62
     0
 10
0.0
 20
0.0
 30
0.0
 11
-1.0
 21
0.1666666667
 31
0.0
 12
-1.0
 22
-0.1666666667
 32
0.0
 13
-1.0
 23
-0.1666666667
 33
0.0
  0
ENDBLK
  5
2853C
  8
0
  6
BYBLOCK
 62
     0
  0
ENDSEC
  0
SECTION
  2
ENTITIES
  0
ATTDEF
  5
2842F
  8
DEFPOINTS
 10
6748.1437930474367022
 20
283.7520308136449216
 30
0.0
 40
0.001
  1
P22716-LX
  3

  2
MODELNUMBER
 70
     0
1001
ACDBATTR
1070
     0
1070
     1
  0
ATTDEF
  5
28430
  8
DEFPOINTS
 10
6748.1436672377803916
 20
283.7503639732656779
 30
0.0
 40
0.001
  1
KALLISTA
  3

  2
BRANDNAME
 70
     0
1001
ACDBATTR
1070
     0
1070
     1
  0
ATTDEF
  5
28431
  8
DEFPOINTS
 10
6748.1437930474367022
 20
283.7486974803114776
 30
0.0
 40
0.001
  1
VALVE TRIM
  3

  2
PRODUCT
 70
     0
1001
ACDBATTR
1070
     0
1070
     1
  0
CIRCLE
  5
34EF6
  8
0
 10
6748.1486082438887024
 20
283.7532442294747739
 30
0.0
 40
4.0
  0
CIRCLE
  5
34EF7
  8
0
 10
6748.1486082438887024
 20
283.7532442294747739
 30
0.0
 40
3.5843392950928972
  0
CIRCLE
  5
34EF8
  8
0
 10
6748.1486082438887024
 20
283.7532442294747739
 30
0.0
 40
2.9960224173928971
  0
CIRCLE
  5
34EF9
  8
0
 10
6748.1486082438887024
 20
283.7532442294747739
 30
0.0
 40
2.798989630099999
  0
ARC
  5
34EFA
  8
0
 10
6748.1486082460969556
 20
283.7482974671938223
 30
0.0
 40
2.0141333500599412
 50
278.4882995737929718
 51
261.5117515638007717
  0
ARC
  5
34EFB
  8
0
 10
6748.1486082438887024
 20
283.7532442294747739
 30
0.0
 40
0.8170000000000001
 50
288.0393012957417227
 51
251.9614261763927914
  0
ARC
  5
34EFC
  8
0
 10
6748.1486082438887024
 20
283.7532442294747739
 30
0.0
 40
0.7449289322000001
 50
289.6311557659462892
 51
250.3696894771620123
  0
ARC
  5
34EFD
  8
0
 10
6748.1486082438887024
 20
283.7532442294747739
 30
0.0
 40
0.5695000000000002
 50
295.3118476190521164
 51
244.6894366931038007
  0
LINE
  5
34EFE
  8
0
 10
6748.1486082438887024
 20
284.2076188913748069
 30
0.0
 11
6747.7551082438476442
 21
283.9804315604247904
 31
0.0
  0
LINE
  5
34EFF
  8
0
 10
6747.7551082438476442
 20
283.9804315604247904
 30
0.0
 11
6747.7551082438476442
 21
283.5260568985248142
 31
0.0
  0
LINE
  5
34F00
  8
0
 10
6747.7551082438476442
 20
283.5260568985248142
 30
0.0
 11
6748.1387582438892423
 21
283.304556467726286
 31
0.0
  0
ARC
  5
34F01
  8
0
 10
6748.1486082438887024
 20
283.3216171681808078
 30
0.0
 40
0.0197
 50
239.9999999999994884
 51
299.99999999999892
  0
LINE
  5
34F02
  8
0
 10
6748.1584582438899815
 20
283.304556467726286
 30
0.0
 11
6748.5421082439297606
 21
283.5260568985248142
 31
0.0
  0
LINE
  5
34F03
  8
0
 10
6748.5421082439297606
 20
283.5260568985248142
 30
0.0
 11
6748.5421082439297606
 21
283.9804315604247904
 31
0.0
  0
LINE
  5
34F04
  8
0
 10
6748.5421082439297606
 20
283.9804315604247904
 30
0.0
 11
6748.1486082438887024
 21
284.2076188913748069
 31
0.0
  0
LINE
  5
34F05
  8
0
 10
6748.1486082438887024
 20
284.0730962785747806
 30
0.0
 11
6747.8716082439159436
 21
283.9131702540248057
 31
0.0
  0
LINE
  5
34F06
  8
0
 10
6747.8716082439159436
 20
283.9131702540248057
 30
0.0
 11
6747.8716082439159436
 21
283.5933182049247989
 31
0.0
  0
LINE
  5
34F07
  8
0
 10
6747.8716082439159436
 20
283.5933182049247989
 30
0.0
 11
6748.1486082438887024
 21
283.4333921803747103
 31
0.0
  0
LINE
  5
34F08
  8
0
 10
6748.1486082438887024
 20
283.4333921803747103
 30
0.0
 11
6748.4256082438623707
 21
283.5933182049247989
 31
0.0
  0
LINE
  5
34F09
  8
0
 10
6748.4256082438623707
 20
283.5933182049247989
 30
0.0
 11
6748.4256082438623707
 21
283.9131702540248057
 31
0.0
  0
LINE
  5
34F0A
  8
0
 10
6748.4256082438623707
 20
283.9131702540248057
 30
0.0
 11
6748.1486082438887024
 21
284.0730962785747806
 31
0.0
  0
LINE
  5
34F0B
  8
0
 10
6748.1486082438887024
 20
284.0257535565747844
 30
0.0
 11
6747.9126082438524463
 21
283.8894988930247791
 31
0.0
  0
LINE
  5
34F0C
  8
0
 10
6747.9126082438524463
 20
283.8894988930247791
 30
0.0
 11
6747.9126082438524463
 21
283.6169895659248255
 31
0.0
  0
LINE
  5
34F0D
  8
0
 10
6747.9126082438524463
 20
283.6169895659248255
 30
0.0
 11
6748.1486082438887024
 21
283.4807349023748202
 31
0.0
  0
LINE
  5
34F0E
  8
0
 10
6748.1486082438887024
 20
283.4807349023748202
 30
0.0
 11
6748.3846082439267775
 21
283.6169895659248255
 31
0.0
  0
LINE
  5
34F0F
  8
0
 10
6748.3846082439267775
 20
283.6169895659248255
 30
0.0
 11
6748.3846082439267775
 21
283.8894988930247791
 31
0.0
  0
LINE
  5
34F10
  8
0
 10
6748.3846082439267775
 20
283.8894988930247791
 30
0.0
 11
6748.1486082438887024
 21
284.0257535565747844
 31
0.0
  0
ARC
  5
34F11
  8
0
 10
6748.1486082438887024
 20
283.7532442294747739
 30
0.0
 40
0.5544999999999983
 50
295.9788718783298123
 51
244.0224662856064128
  0
ARC
  5
34F12
  8
0
 10
6748.1486082438887024
 20
283.7532442294747739
 30
0.0
 40
0.5314999999999981
 50
297.08234491306672
 51
242.9190835765151917
  0
ARC
  5
34F13
  8
0
 10
6747.8921658915696753
 20
283.4241790283176101
 30
0.0
 40
0.0196999998228669
 50
357.9202784828347035
 51
60.0000003882255086
  0
LINE
  5
34F14
  8
0
 10
6747.911852915009149
 20
283.4234641149727736
 30
0.0
 11
6747.8266096388133519
 21
281.0760658058455874
 31
0.0
  0
LINE
  5
34F15
  8
0
 10
6747.8266096388133519
 20
281.0760658058455874
 30
0.0
 11
6747.9026044175889183
 21
280.9973352456747193
 31
0.0
  0
LINE
  5
34F16
  8
0
 10
6747.9026044175889183
 20
280.9973352456747193
 30
0.0
 11
6748.3946044218891984
 21
280.9973392133748007
 31
0.0
  0
LINE
  5
34F17
  8
0
 10
6748.3946044218891984
 20
280.9973392133748007
 30
0.0
 11
6748.470605273188994
 21
281.076032852474782
 31
0.0
  0
LINE
  5
34F18
  8
0
 10
6748.470605273188994
 20
281.076032852474782
 30
0.0
 11
6748.3853505962897543
 21
283.424179028274807
 31
0.0
  0
ARC
  5
34F19
  8
0
 10
6748.403885039962006
 20
283.4248519625338076
 30
0.0
 40
0.0185466558385279
 50
117.9206624610965974
 51
182.0793375389899893
  0
CIRCLE
  5
34F1A
  8
0
 10
6748.1486082438887024
 20
285.0182442294748171
 30
0.0
 40
0.2000000000000002
  0
CIRCLE
  5
34F1B
  8
0
 10
6748.1486082438887024
 20
285.0182442294748171
 30
0.0
 40
0.105
  0
LINE
  5
34F1C
  8
0
 10
6747.8266096388133519
 20
281.0760658058455874
 30
0.0
 11
6748.470605273188994
 21
281.076032852474782
 31
0.0
  0
ARC
  5
34F1D
  8
0
 10
6748.1486082438887024
 20
283.7532618081818896
 30
0.0
 40
0.4129999999999989
 50
102.316244552572897
 51
137.6837554474662966
  0
ARC
  5
34F1E
  8
0
 10
6748.1486082438887024
 20
283.7532618081818896
 30
0.0
 40
0.4129999999999989
 50
162.3231986058272867
 51
197.6768013941727133
  0
ARC
  5
34F1F
  8
0
 10
6748.1486082438887024
 20
283.7532618081818896
 30
0.0
 40
0.4129999999999989
 50
222.3301553084791067
 51
234.9707010681480881
  0
ARC
  5
34F20
  8
0
 10
6748.1486082438887024
 20
283.7532618081818896
 30
0.0
 40
0.4129999999999989
 50
305.0314341497727924
 51
317.669844691521007
  0
ARC
  5
34F21
  8
0
 10
6748.1486082438887024
 20
283.7532618081818896
 30
0.0
 40
0.4129999999999989
 50
342.3231986058273151
 51
17.6768013941726707
  0
ARC
  5
34F22
  8
0
 10
6748.1486082438887024
 20
283.7532618081818896
 30
0.0
 40
0.4129999999999989
 50
42.3162445525337105
 51
77.6837554474271172
  0
LINE
  5
34F23
  8
0
 10
6747.8470208499902583
 20
281.6381423090412
 30
0.0
 11
6747.7402800429890704
 21
281.4532618081818782
 31
0.0
  0
LINE
  5
34F24
  8
0
 10
6747.7402800429890704
 20
281.4532618081818782
 30
0.0
 11
6747.8343879508192913
 21
281.2902621303940123
 31
0.0
  0
LINE
  5
34F25
  8
0
 10
6748.4628272810778071
 20
281.2902599552836023
 30
0.0
 11
6748.5569364446901091
 21
281.4532618081818782
 31
0.0
  0
LINE
  5
34F26
  8
0
 10
6748.5569364446901091
 20
281.4532618081818782
 30
0.0
 11
6748.4501967044716366
 21
281.6381404614538155
 31
0.0
  0
ENDSEC
  0
EOF
