  0
SECTION
  2
HEADER
  9
$ACADVER
  1
AC1009
  9
$INSBASE
 10
3153.1183358223638606
 20
86.6989312834551953
 30
0.0
  9
$EXTMIN
 10
3152.0868358223629002
 20
86.6939644824053772
 30
0.0
  9
$EXTMAX
 10
3155.7578123877669896
 20
110.8547147502962957
 30
0.0
  9
$LIMMIN
 10
0.0
 20
0.0
  9
$LIMMAX
 10
11.6929133858000007
 20
8.2677165353999982
  9
$ORTHOMODE
 70
     0
  9
$REGENMODE
 70
     1
  9
$FILLMODE
 70
     1
  9
$QTEXTMODE
 70
     0
  9
$MIRRTEXT
 70
     0
  9
$DRAGMODE
 70
     2
  9
$LTSCALE
 40
0.6431102362
  9
$OSMODE
 70
  4095
  9
$ATTMODE
 70
     1
  9
$TEXTSIZE
 40
0.2
  9
$TRACEWID
 40
0.05
  9
$TEXTSTYLE
  7
STANDARD
  9
$CLAYER
  8
0
  9
$CELTYPE
  6
BYLAYER
  9
$CECOLOR
 62
   256
  9
$DIMSCALE
 40
1.0
  9
$DIMASZ
 40
0.1875
  9
$DIMEXO
 40
0.0625
  9
$DIMDLI
 40
0.4443307087
  9
$DIMRND
 40
0.0
  9
$DIMDLE
 40
0.0
  9
$DIMEXE
 40
0.125
  9
$DIMTP
 40
0.01
  9
$DIMTM
 40
0.01
  9
$DIMTXT
 40
2.0
  9
$DIMCEN
 40
0.1052362205
  9
$DIMTSZ
 40
0.0
  9
$DIMTOL
 70
     1
  9
$DIMLIM
 70
     0
  9
$DIMTIH
 70
     1
  9
$DIMTOH
 70
     1
  9
$DIMSE1
 70
     0
  9
$DIMSE2
 70
     0
  9
$DIMTAD
 70
     0
  9
$DIMZIN
 70
     0
  9
$DIMBLK
  1

  9
$DIMASO
 70
     1
  9
$DIMSHO
 70
     1
  9
$DIMPOST
  1
\X
  9
$DIMAPOST
  1

  9
$DIMALT
 70
     1
  9
$DIMALTD
 70
     2
  9
$DIMALTF
 40
25.3999999999999986
  9
$DIMLFAC
 40
1.0
  9
$DIMTOFL
 70
     0
  9
$DIMTVP
 40
0.0
  9
$DIMTIX
 70
     0
  9
$DIMSOXD
 70
     0
  9
$DIMSAH
 70
     0
  9
$DIMBLK1
  1

  9
$DIMBLK2
  1

  9
$DIMSTYLE
  2
STANDARD
  9
$DIMCLRD
 70
     0
  9
$DIMCLRE
 70
     0
  9
$DIMCLRT
 70
     0
  9
$DIMTFAC
 40
1.0
  9
$DIMGAP
 40
0.09
  9
$LUNITS
 70
     2
  9
$LUPREC
 70
     4
  9
$SKETCHINC
 40
0.1
  9
$FILLETRAD
 40
0.0
  9
$AUNITS
 70
     0
  9
$AUPREC
 70
     0
  9
$MENU
  1
.
  9
$ELEVATION
 40
0.0
  9
$PELEVATION
 40
0.0
  9
$THICKNESS
 40
0.0
  9
$LIMCHECK
 70
     0
  9
$BLIPMODE
 70
     0
  9
$CHAMFERA
 40
0.0
  9
$CHAMFERB
 40
0.0
  9
$SKPOLY
 70
     0
  9
$TDCREATE
 40
2458060.468368056230247
  9
$TDUPDATE
 40
2460644.6438078708015382
  9
$TDINDWG
 40
0.4945440972
  9
$TDUSRTIMER
 40
0.4945440972
  9
$USRTIMER
 70
     1
  9
$ANGBASE
 50
0.0
  9
$ANGDIR
 70
     0
  9
$PDMODE
 70
     0
  9
$PDSIZE
 40
0.3125
  9
$PLINEWID
 40
0.0
  9
$COORDS
 70
     2
  9
$SPLFRAME
 70
     0
  9
$SPLINETYPE
 70
     6
  9
$SPLINESEGS
 70
     8
  9
$ATTDIA
 70
     1
  9
$ATTREQ
 70
     1
  9
$HANDLING
 70
     1
  9
$HANDSEED
  5
3460B
  9
$SURFTAB1
 70
     6
  9
$SURFTAB2
 70
     6
  9
$SURFTYPE
 70
     6
  9
$SURFU
 70
     6
  9
$SURFV
 70
     6
  9
$UCSNAME
  2

  9
$UCSORG
 10
0.0
 20
0.0
 30
0.0
  9
$UCSXDIR
 10
1.0
 20
0.0
 30
0.0
  9
$UCSYDIR
 10
0.0
 20
1.0
 30
0.0
  9
$PUCSNAME
  2

  9
$PUCSORG
 10
0.0
 20
0.0
 30
0.0
  9
$PUCSXDIR
 10
1.0
 20
0.0
 30
0.0
  9
$PUCSYDIR
 10
0.0
 20
1.0
 30
0.0
  9
$USERI1
 70
     0
  9
$USERI2
 70
     0
  9
$USERI3
 70
     0
  9
$USERI4
 70
     0
  9
$USERI5
 70
     0
  9
$USERR1
 40
0.0
  9
$USERR2
 40
0.0
  9
$USERR3
 40
0.0
  9
$USERR4
 40
0.0
  9
$USERR5
 40
0.0
  9
$WORLDVIEW
 70
     1
  9
$SHADEDGE
 70
     3
  9
$SHADEDIF
 70
    70
  9
$TILEMODE
 70
     1
  9
$MAXACTVP
 70
    64
  9
$PLIMCHECK
 70
     0
  9
$PEXTMIN
 10
1.0000000000000000E+20
 20
1.0000000000000000E+20
 30
1.0000000000000000E+20
  9
$PEXTMAX
 10
-1.0000000000000000E+20
 20
-1.0000000000000000E+20
 30
-1.0000000000000000E+20
  9
$PLIMMIN
 10
0.0
 20
0.0
  9
$PLIMMAX
 10
12.0
 20
9.0
  9
$UNITMODE
 70
     0
  9
$VISRETAIN
 70
     1
  9
$PLINEGEN
 70
     0
  9
$PSLTSCALE
 70
     1
  0
ENDSEC
  0
SECTION
  2
TABLES
  0
TABLE
  2
VPORT
 70
     1
  0
VPORT
  2
*ACTIVE
 70
     0
 10
0.0
 20
0.0
 11
1.0
 21
1.0
 12
-649.6217432777473277
 22
-27.2209225803990584
 13
0.0
 23
0.0
 14
1.0
 24
1.0
 15
0.0
 25
0.0
 16
0.0
 26
0.0
 36
17.1152628219792007
 17
3803.5440673828129547
 27
125.9952621967499056
 37
0.0
 40
24.33210310667031
 41
2.21775147928994
 42
50.0
 43
0.0
 44
0.0
 50
0.0
 51
0.0
 71
     0
 72
   100
 73
     1
 74
     1
 75
     0
 76
     0
 77
     0
 78
     0
  0
ENDTAB
  0
TABLE
  2
LTYPE
 70
     2
  0
LTYPE
  2
CONTINUOUS
 70
     0
  3
Solid line
 72
    65
 73
     0
 40
0.0
  0
LTYPE
  2
PHANTOM2
 70
     0
  3
___ _ _ ___ _ _ ___ _ _ ___ _ _
 72
    65
 73
     6
 40
1.25
 49
0.625
 49
-0.125
 49
0.125
 49
-0.125
 49
0.125
 49
-0.125
  0
ENDTAB
  0
TABLE
  2
LAYER
 70
     2
  0
LAYER
  2
0
 70
     0
 62
   255
  6
CONTINUOUS
  0
LAYER
  2
DEFPOINTS
 70
     0
 62
     7
  6
CONTINUOUS
  0
ENDTAB
  0
TABLE
  2
STYLE
 70
     1
  0
STYLE
  2
STANDARD
 70
     0
 40
0.0
 41
0.8
 50
0.0
 71
     0
 42
0.2
  3
txt
  4

  0
ENDTAB
  0
TABLE
  2
VIEW
 70
     0
  0
ENDTAB
  0
TABLE
  2
UCS
 70
     0
  0
ENDTAB
  0
TABLE
  2
APPID
 70
    11
  0
APPID
  2
ACAD
 70
     0
  0
APPID
  2
ACAD_MLEADERVER
 70
     0
  0
APPID
  2
ACAD_EXEMPT_FROM_CAD_STANDARDS
 70
     0
  0
APPID
  2
ACAD_NAV_VCDISPLAY
 70
     0
  0
APPID
  2
ACAECLAYERSTANDARD
 70
     0
  0
APPID
  2
ACCMTRANSPARENCY
 70
     0
  0
APPID
  2
ACAD_DSTYLE_DIMJAG
 70
     0
  0
APPID
  2
ACAD_DSTYLE_DIMTALN
 70
     0
  0
APPID
  2
ACDBATTR
 70
     0
  0
APPID
  2
DCO15
 70
     0
  0
APPID
  2
ACADANNOTATIVE
 70
     0
  0
ENDTAB
  0
TABLE
  2
DIMSTYLE
 70
     2
  0
DIMSTYLE
  2
STANDARD
 70
     0
  3

  4

  5

  6

  7

 40
1.0
 41
0.1875
 42
0.0625
 43
0.38
 44
0.125
 45
0.0
 46
0.0
 47
0.01
 48
0.01
140
0.15625
141
0.09
142
0.0
143
25.3999999999999986
144
1.0
145
0.0
146
1.0
147
0.09
 71
     1
 72
     0
 73
     1
 74
     1
 75
     0
 76
     0
 77
     0
 78
     4
170
     0
171
     2
172
     0
173
     0
174
     0
175
     0
176
     0
177
     0
178
     0
  0
DIMSTYLE
  2
ANNOTATIVE
 70
     0
  3

  4

  5

  6

  7

 40
0.0
 41
0.18
 42
0.0625
 43
0.38
 44
0.18
 45
0.0
 46
0.0
 47
0.0
 48
0.0
140
0.18
141
0.09
142
0.0
143
25.3999999999999986
144
1.0
145
0.0
146
1.0
147
0.09
 71
     0
 72
     0
 73
     1
 74
     1
 75
     0
 76
     0
 77
     0
 78
     0
170
     0
171
     2
172
     0
173
     0
174
     0
175
     0
176
     0
177
     0
178
     0
  0
ENDTAB
  0
ENDSEC
  0
SECTION
  2
BLOCKS
  0
BLOCK
  8
0
  2
$MODEL_SPACE
 70
     0
 10
0.0
 20
0.0
 30
0.0
  3
$MODEL_SPACE
  1

  0
ENDBLK
  5
21
  8
0
  0
BLOCK
 67
     1
  8
0
  2
$PAPER_SPACE
 70
     0
 10
0.0
 20
0.0
 30
0.0
  3
$PAPER_SPACE
  1

  0
ENDBLK
  5
1D
 67
     1
  8
0
  0
BLOCK
  8
0
  2
_FILLED
 70
     0
 10
0.0
 20
0.0
 30
0.0
  3
_FILLED
  1

  0
SOLID
  5
32933
  8
0
  6
BYBLOCK
 62
     0
 10
0.0
 20
0.0
 30
0.0
 11
-1.0
 21
0.1666666667
 31
0.0
 12
-1.0
 22
-0.1666666667
 32
0.0
 13
-1.0
 23
-0.1666666667
 33
0.0
  0
ENDBLK
  5
32934
  8
0
  6
BYBLOCK
 62
     0
  0
ENDSEC
  0
SECTION
  2
ENTITIES
  0
ATTDEF
  5
30D2B
  8
DEFPOINTS
 10
3153.1185473783898487
 20
86.6972978157387644
 30
0.0
 40
0.001
  1
P23174-AF
  3

  2
MODELNUMBER
 70
     0
1001
ACDBATTR
1070
     0
1070
     1
  0
ATTDEF
  5
30D2C
  8
DEFPOINTS
 10
3153.1185473783898487
 20
86.695631149072085
 30
0.0
 40
0.001
  1
JUXTAPOSE
  3

  2
TRADENAME
 70
     0
1001
ACDBATTR
1070
     0
1070
     1
  0
ATTDEF
  5
30D2D
  8
DEFPOINTS
 10
3153.1185473783898487
 20
86.6939644824054199
 30
0.0
 40
0.001
  1
KITCHEN SINK FAUCET
  3

  2
PRODUCT
 70
     0
1001
ACDBATTR
1070
     0
1070
     1
  0
LINE
  5
33F21
  8
0
 10
3152.1068358223637915
 20
86.6989312834551953
 30
0.0
 11
3154.1298358223630203
 21
86.6989312834551953
 31
0.0
  0
LINE
  5
33F22
  8
0
 10
3153.8332345642888868
 20
100.3842223686528001
 30
0.0
 11
3152.403437080437925
 21
100.3842223686528001
 31
0.0
  0
LINE
  5
33F23
  8
0
 10
3153.8332345642888868
 20
100.2632225240805042
 30
0.0
 11
3152.403437080437925
 21
100.2632225240805042
 31
0.0
  0
LINE
  5
33F24
  8
0
 10
3152.3834370804379432
 20
100.3642223686529036
 30
0.0
 11
3152.3834370804379432
 21
100.2832225240805002
 31
0.0
  0
ARC
  5
33F25
  8
0
 10
3152.403437080437925
 20
100.3642223686529036
 30
0.0
 40
0.02
 50
90.0
 51
180.0
  0
ARC
  5
33F26
  8
0
 10
3152.403437080437925
 20
100.2832225240805002
 30
0.0
 40
0.02
 50
180.0
 51
270.0
  0
LINE
  5
33F27
  8
0
 10
3152.4284340192230047
 20
100.2512225240806032
 30
0.0
 11
3152.4284340192230047
 21
96.507244836955195
 31
0.0
  0
LINE
  5
33F28
  8
0
 10
3152.4284340192230047
 20
96.4836448369551789
 30
0.0
 11
3152.4284340192230047
 21
95.8261684590551681
 31
0.0
  0
ARC
  5
33F29
  8
0
 10
3152.4402340192232259
 20
96.4836448369551789
 30
0.0
 40
0.0118
 50
90.0
 51
180.0
  0
ARC
  5
33F2A
  8
0
 10
3152.4404340192231757
 20
100.2512225240806032
 30
0.0
 40
0.012
 50
90.0
 51
179.9999999999959073
  0
ARC
  5
33F2B
  8
0
 10
3155.2763254532401334
 20
-361.1880793096228217
 30
0.0
 40
461.5496995691095776
 50
90.3591192449943179
 51
90.3721811307369904
  0
LINE
  5
33F2C
  8
0
 10
3152.2478171634547834
 20
100.3212833396823953
 30
0.0
 11
3152.2478171634547834
 21
99.6316281198341613
 31
0.0
  0
ARC
  5
33F2D
  8
0
 10
3152.2784171634548329
 20
100.3212833396823953
 30
0.0
 40
0.0306
 50
90.3721811305806568
 51
180.0000000000781029
  0
LINE
  5
33F2E
  8
0
 10
3152.3834370804379432
 20
100.3511161371253024
 30
0.0
 11
3152.3132321655639316
 21
100.3511167846050967
 31
0.0
  0
ARC
  5
33F2F
  8
0
 10
3152.3135517424038881
 20
100.343535644746396
 30
0.0
 40
0.0075878726211571
 50
92.4138283086009835
 51
164.6702174974946047
  0
LINE
  5
33F30
  8
0
 10
3152.3034930277581225
 20
100.3128126326760992
 30
0.0
 11
3152.3034930277581225
 21
99.6383342442315723
 31
0.0
  0
ARC
  5
33F31
  8
0
 10
3152.3400355887270052
 20
100.3349203404398935
 30
0.0
 40
0.0354312121570613
 50
162.5559919120595964
 51
175.7136444148912062
  0
ARC
  5
33F32
  8
0
 10
3152.5080348898341072
 20
100.3184514951676931
 30
0.0
 40
0.2042281151154462
 50
174.6288963224172051
 51
178.6085101381686968
  0
ARC
  5
33F33
  8
0
 10
3151.9779178483381656
 20
100.3296066610185022
 30
0.0
 40
0.3260080318673739
 50
357.0471493392456068
 51
358.9110333347816209
  0
ARC
  5
33F34
  8
0
 10
3152.2957868569619677
 20
100.3404610167504956
 30
0.0
 40
0.011672702673716
 50
26.2426665635942484
 51
81.5676190387150655
  0
ARC
  5
33F35
  8
0
 10
3152.3795300065407901
 20
100.3420599395651038
 30
0.0
 40
0.0079047928705858
 50
60.3786092655551272
 51
88.9885027863857943
  0
ARC
  5
33F36
  8
0
 10
3152.3807649021591715
 20
100.3442609238709053
 30
0.0
 40
0.0058068216756631
 50
100.8729561108485058
 51
130.578882207674809
  0
ARC
  5
33F37
  8
0
 10
3152.4507704489601565
 20
100.2805415242297045
 30
0.0
 40
0.1004269452887109
 50
137.2811784600056058
 51
173.831377125691688
  0
ARC
  5
33F38
  8
0
 10
3152.4401954665299854
 20
100.273412596960199
 30
0.0
 40
0.0910513964286851
 50
168.6492200535610948
 51
188.5043809661798093
  0
ARC
  5
33F39
  8
0
 10
3152.3901507671448599
 20
100.2684708311461037
 30
0.0
 40
0.0409034431008656
 50
192.0273090804953995
 51
226.4248635169759041
  0
ARC
  5
33F3A
  8
0
 10
3152.3910814306568682
 20
100.2698734562160041
 30
0.0
 40
0.0425621213454128
 50
226.8187527952783
 51
265.6870925242209864
  0
LINE
  5
33F3B
  8
0
 10
3152.3878806157517829
 20
100.2274318615552033
 30
0.0
 11
3152.4284340192230047
 21
100.2274318615552033
 31
0.0
  0
LINE
  5
33F3C
  8
0
 10
3152.3841948620638505
 20
100.2777693569234998
 30
0.0
 11
3152.3841948620638505
 21
100.2684962667288033
 31
0.0
  0
ARC
  5
33F3D
  8
0
 10
3152.3901948620641633
 20
100.2684962667288033
 30
0.0
 40
0.006
 50
180.0
 51
269.2700295108124919
  0
LINE
  5
33F3E
  8
0
 10
3152.3901184218011622
 20
100.262496753674796
 30
0.0
 11
3152.4350062611488283
 21
100.2619248342190019
 31
0.0
  0
ARC
  5
33F3F
  8
0
 10
3152.4221468465111684
 20
100.2532838692840045
 30
0.0
 40
0.009118304680974
 50
27.6962351244723202
 51
74.1849808606574044
  0
ARC
  5
33F40
  8
0
 10
3156.9515826020328859
 20
99.8245319955482557
 30
0.0
 40
4.6518175257720698
 50
182.293984237158412
 51
182.4912468722669985
  0
ARC
  5
33F41
  8
0
 10
3152.442956187207983
 20
99.6293541297515901
 30
0.0
 40
0.1389720521128092
 50
182.8961079346410941
 51
185.5009183345767951
  0
ARC
  5
33F42
  8
0
 10
3152.3703388577991973
 20
99.6223607015193267
 30
0.0
 40
0.0660187480831748
 50
185.5009183345763972
 51
190.6943745557987882
  0
ARC
  5
33F43
  8
0
 10
3152.3229054725779861
 20
99.6134028936498055
 30
0.0
 40
0.0177469306798077
 50
190.6943745557983902
 51
202.5578828212750864
  0
ARC
  5
33F44
  8
0
 10
3152.3144743150328395
 20
99.6099006107467062
 30
0.0
 40
0.0086172864876136
 50
202.5578828212765927
 51
227.7940539372098954
  0
ARC
  5
33F45
  8
0
 10
3152.3131506923259622
 20
99.6084411626827375
 30
0.0
 40
0.0066470160184018
 50
227.794053937211487
 51
269.3375789938423281
  0
ARC
  5
33F46
  8
0
 10
3152.3990985882142013
 20
174.977005880160192
 30
0.0
 40
75.3752603787001618
 50
269.9346091043190086
 51
270.0222990464026225
  0
LINE
  5
33F47
  8
0
 10
3152.2782246289348222
 20
99.6010287255516147
 30
0.0
 11
3152.4284340192230047
 21
99.600083592700841
 31
0.0
  0
ARC
  5
33F48
  8
0
 10
3152.2958524828259215
 20
99.612130305503257
 30
0.0
 40
0.0114321217176695
 50
280.8941797492320234
 51
335.1851786351746227
  0
ARC
  5
33F49
  8
0
 10
3152.2784171634548329
 20
99.6316281198341613
 30
0.0
 40
0.0306
 50
180.0
 51
269.6394938511862165
  0
LINE
  5
33F4A
  8
0
 10
3153.7964376255049501
 20
96.4954448369551727
 30
0.0
 11
3152.4402340192232259
 21
96.4954448369551727
 31
0.0
  0
LINE
  5
33F4B
  8
0
 10
3153.7885376255048868
 20
95.8064684590551678
 30
0.0
 11
3152.448134019221925
 21
95.8064684590551678
 31
0.0
  0
LINE
  5
33F4C
  8
0
 10
3153.5311695585642155
 20
95.7252716086551629
 30
0.0
 11
3152.7055020861639605
 21
95.7252716086551629
 31
0.0
  0
ARC
  5
33F4D
  8
0
 10
3152.4402340192232259
 20
96.507244836955195
 30
0.0
 40
0.0118
 50
179.9999999999955094
 51
270.0
  0
ARC
  5
33F4E
  8
0
 10
3152.448134019221925
 20
95.8261684590551681
 30
0.0
 40
0.0197
 50
179.9999999999988063
 51
270.0
  0
LINE
  5
33F4F
  8
0
 10
3152.5283809852571721
 20
95.8064684590551678
 30
0.0
 11
3152.5283809852571721
 21
87.0839312834551862
 31
0.0
  0
LINE
  5
33F50
  8
0
 10
3152.695502086164197
 20
95.7352716086551823
 30
0.0
 11
3152.695502086164197
 21
95.7435502664090166
 31
0.0
  0
ARC
  5
33F51
  8
0
 10
3152.7055020861639605
 20
95.7352716086551823
 30
0.0
 40
0.01
 50
180.0000000000023874
 51
270.0
  0
LINE
  5
33F52
  8
0
 10
3152.5551524236670957
 20
95.8064684590551678
 30
0.0
 11
3152.558259090420961
 21
95.7597382563406967
 31
0.0
  0
ARC
  5
33F53
  8
0
 10
3152.6566689550008959
 20
96.0455034379871364
 30
0.0
 40
0.3085016557744939
 50
252.7719765894140949
 51
262.721519178855317
  0
ARC
  5
33F54
  8
0
 10
3152.5682370648428332
 20
95.7604016012356567
 30
0.0
 40
0.01
 50
183.8034791555251104
 51
252.9104353007406871
  0
ARC
  5
33F55
  8
0
 10
3152.6177176337851051
 20
95.7495977393233346
 30
0.0
 40
0.0101109601894827
 50
269.2440962505115181
 51
331.5839751451057964
  0
ARC
  5
33F56
  8
0
 10
3152.6207787308439947
 20
95.749612578106877
 30
0.0
 40
0.0100039619926507
 50
263.5093981652403272
 51
328.0925962656521051
  0
ARC
  5
33F57
  8
0
 10
3152.5227468707671505
 20
95.4369666996802835
 30
0.0
 40
0.3162220048683498
 50
74.2911172321806959
 51
80.817054213072467
  0
ARC
  5
33F58
  8
0
 10
3152.6591502488790866
 20
96.055002932194725
 30
0.0
 40
0.3177105818725961
 50
254.3064217294474929
 51
260.8017497157990761
  0
LINE
  5
33F59
  8
0
 10
3152.5918282307811751
 20
95.8064684590551678
 30
0.0
 11
3152.5971425927241398
 21
95.7572466151557649
 31
0.0
  0
LINE
  5
33F5A
  8
0
 10
3152.6691194919608279
 20
95.7511484418409395
 30
0.0
 11
3152.6662693502039474
 21
95.7452625529530934
 31
0.0
  0
LINE
  5
33F5B
  8
0
 10
3152.6708974811031112
 20
95.749091897699401
 30
0.0
 11
3152.6690542363421628
 21
95.745026908716909
 31
0.0
  0
LINE
  5
33F5C
  8
0
 10
3152.6053768210858834
 20
95.7484669935793846
 30
0.0
 11
3152.6555610443388105
 21
95.7397677437498089
 31
0.0
  0
ARC
  5
33F5D
  8
0
 10
3152.6572690356870226
 20
95.7496208024401056
 30
0.0
 40
0.01
 50
260.1657143173582085
 51
334.1622017332555856
  0
ARC
  5
33F5E
  8
0
 10
3152.6070848124340955
 20
95.7583200522696956
 30
0.0
 40
0.01
 50
186.162214683288795
 51
260.1657143173582085
  0
ARC
  5
33F5F
  8
0
 10
3152.6598844724471746
 20
95.7504440960038465
 30
0.0
 40
0.0106503750167659
 50
266.4540942174652969
 51
329.4268383860268727
  0
ARC
  5
33F60
  8
0
 10
3152.6783809371290772
 20
96.0428277834245137
 30
0.0
 40
0.3038925111116603
 50
260.5252160346619803
 51
265.6440266715093799
  0
LINE
  5
33F61
  8
0
 10
3152.6599274689651793
 20
95.8064684590551678
 30
0.0
 11
3152.6676132462480382
 21
95.755119353235699
 31
0.0
  0
LINE
  5
33F62
  8
0
 10
3152.7575862371868425
 20
95.7929476655086205
 30
0.0
 11
3152.7370819523130194
 21
95.7457854945514129
 31
0.0
  0
ARC
  5
33F63
  8
0
 10
3152.7824812660810494
 20
96.3422059003177083
 30
0.0
 40
0.6049412746290591
 50
259.8368715123943957
 51
264.737234424284793
  0
ARC
  5
33F64
  8
0
 10
3152.6775030779817826
 20
95.7565996330352931
 30
0.0
 40
0.01
 50
188.5126623635700867
 51
259.8368715123943957
  0
ARC
  5
33F65
  8
0
 10
3152.7279111801631188
 20
95.7497725910076838
 30
0.0
 40
0.01
 50
264.7372344242846793
 51
336.50246305295002
  0
ARC
  5
33F66
  8
0
 10
3152.7052860533081002
 20
95.8357707744885658
 30
0.0
 40
0.0938000219599355
 50
251.5939658178845093
 51
264.0127781535206282
  0
LINE
  5
33F67
  8
0
 10
3152.7550465211129449
 20
95.8064684590551678
 30
0.0
 11
3152.7651009865858214
 21
95.7529410772868914
 31
0.0
  0
LINE
  5
33F68
  8
0
 10
3152.8582076591801524
 20
95.8064684590551678
 30
0.0
 11
3152.8346732814420648
 21
95.7464114050246735
 31
0.0
  0
ARC
  5
33F69
  8
0
 10
3152.8454950030040891
 20
96.2362412221934846
 30
0.0
 40
0.4965979350565883
 50
261.6616264563430718
 51
267.6287831809397062
  0
ARC
  5
33F6A
  8
0
 10
3152.7749291065902071
 20
95.7547871696976216
 30
0.0
 40
0.01
 50
190.6383511597771871
 51
261.661626456343015
  0
ARC
  5
33F6B
  8
0
 10
3152.8253626324681136
 20
95.7500599411285265
 30
0.0
 40
0.01
 50
267.6287831809397062
 51
338.6014260833754861
  0
LINE
  5
33F6C
  8
0
 10
3152.870895428050062
 20
95.8064684590551678
 30
0.0
 11
3152.8831691499308363
 21
95.7514821925497444
 31
0.0
  0
LINE
  5
33F6D
  8
0
 10
3152.9738090054638633
 20
95.8064684590551678
 30
0.0
 11
3152.9529342810519665
 21
95.7474793670673137
 31
0.0
  0
ARC
  5
33F6E
  8
0
 10
3152.9334057600490269
 20
96.0222121868789884
 30
0.0
 40
0.2815847189083498
 50
261.4287437401657144
 51
272.131563486152686
  0
ARC
  5
33F6F
  8
0
 10
3152.8929289657271511
 20
95.7536607231594132
 30
0.0
 40
0.01
 50
192.5829641600809907
 51
261.4287437401657144
  0
ARC
  5
33F70
  8
0
 10
3152.9435071418051848
 20
95.7508153894933969
 30
0.0
 40
0.01
 50
272.131563486152686
 51
340.5124365612389283
  0
LINE
  5
33F71
  8
0
 10
3152.9997628124738185
 20
95.8064684590551678
 30
0.0
 11
3153.0141727329478272
 21
95.750376628654152
 31
0.0
  0
LINE
  5
33F72
  8
0
 10
3153.102533220901023
 20
95.8064684590551678
 30
0.0
 11
3153.0840248808722208
 21
95.748448500366095
 31
0.0
  0
ARC
  5
33F73
  8
0
 10
3153.0550003372791252
 20
95.9662598642390634
 30
0.0
 40
0.2256554545731346
 50
261.6970726417249011
 51
275.1872291122051024
  0
ARC
  5
33F74
  8
0
 10
3153.0238582323017908
 20
95.7528648212207258
 30
0.0
 40
0.01
 50
194.4076528824172954
 51
261.6970726417249011
  0
ARC
  5
33F75
  8
0
 10
3153.0744978765887936
 20
95.7514876103328447
 30
0.0
 40
0.01
 50
275.1872291122051024
 51
342.3073411421539731
  0
LINE
  5
33F76
  8
0
 10
3153.6985128317010094
 20
87.0739312834551811
 30
0.0
 11
3152.5381588130271666
 21
87.0739312834551811
 31
0.0
  0
ARC
  5
33F77
  8
0
 10
3152.5383809852569357
 20
87.0839312834551862
 30
0.0
 40
0.01
 50
180.0
 51
270.0
  0
ARC
  5
33F78
  8
0
 10
3152.3109826610229902
 20
87.069979201848767
 30
0.0
 40
0.2172566420499844
 50
338.8417340592886262
 51
358.4750231641876894
  0
ARC
  5
33F79
  8
0
 10
3152.5381588130271666
 20
87.063931283455176
 30
0.0
 40
0.01
 50
90.0
 51
178.4750231641889116
  0
ARC
  5
33F7A
  8
0
 10
3152.3407414645012068
 20
87.0584614529745551
 30
0.0
 40
0.1853466918222624
 50
312.5505125305842853
 51
338.8417340592886262
  0
ARC
  5
33F7B
  8
0
 10
3152.2544873578281113
 20
87.1603412401969848
 30
0.0
 40
0.3187730668179491
 50
286.3766411744207971
 51
311.5882588498906216
  0
ARC
  5
33F7C
  8
0
 10
3152.1443600113498178
 20
87.4897013462502287
 30
0.0
 40
0.6659440978844073
 50
277.6597578573009173
 51
287.4776527565508104
  0
ARC
  5
33F7D
  8
0
 10
3152.0766211728241615
 20
87.9701153984079269
 30
0.0
 40
1.1511045375916931
 50
271.4784026175670988
 51
277.8140572815880205
  0
LINE
  5
33F7E
  8
0
 10
3152.0868358223629002
 20
86.7994006966462166
 30
0.0
 11
3152.0868358223629002
 21
86.7189312834551771
 31
0.0
  0
ARC
  5
33F7F
  8
0
 10
3152.1068358223637915
 20
86.7994006966462166
 30
0.0
 40
0.02
 50
91.4784026175670562
 51
180.0
  0
ARC
  5
33F80
  8
0
 10
3152.1068358223637915
 20
86.7189312834551771
 30
0.0
 40
0.02
 50
180.0
 51
270.0
  0
LINE
  5
33F81
  8
0
 10
3152.1063198197598467
 20
86.8193940390709571
 30
0.0
 11
3154.1303518249678746
 21
86.8193940390709571
 31
0.0
  0
LINE
  5
33F82
  8
0
 10
3153.8532345642897781
 20
100.3642223686529036
 30
0.0
 11
3153.8532345642897781
 21
100.2832225240805002
 31
0.0
  0
ARC
  5
33F83
  8
0
 10
3153.8332345642888868
 20
100.3642223686529036
 30
0.0
 40
0.02
 50
0.0
 51
90.0
  0
ARC
  5
33F84
  8
0
 10
3153.8332345642888868
 20
100.2832225240805002
 30
0.0
 40
0.02
 50
270.0
 51
0.0
  0
LINE
  5
33F85
  8
0
 10
3153.8082376255051713
 20
100.2512225240806032
 30
0.0
 11
3153.8082376255051713
 21
96.507244836955195
 31
0.0
  0
LINE
  5
33F86
  8
0
 10
3153.8082376255051713
 20
96.4836448369551789
 30
0.0
 11
3153.8082376255051713
 21
95.8261684590551681
 31
0.0
  0
ARC
  5
33F87
  8
0
 10
3153.7964376255049501
 20
96.4836448369551789
 30
0.0
 40
0.0118
 50
0.0
 51
90.0
  0
ARC
  5
33F88
  8
0
 10
3153.7962376255050003
 20
100.2512225240806032
 30
0.0
 40
0.012
 50
0.0000000000040711
 51
90.0
  0
ARC
  5
33F89
  8
0
 10
3150.9603461914880427
 20
-361.1880793096228217
 30
0.0
 40
461.5496995691095776
 50
89.6278188692630238
 51
89.6408807550056963
  0
LINE
  5
33F8A
  8
0
 10
3153.9888544812720284
 20
100.3212833396823953
 30
0.0
 11
3153.9888544812720284
 21
99.6316281198341613
 31
0.0
  0
ARC
  5
33F8B
  8
0
 10
3153.9582544812728884
 20
100.3212833396823953
 30
0.0
 40
0.0306
 50
359.9999999999217835
 51
89.6278188694454201
  0
LINE
  5
33F8C
  8
0
 10
3153.8532345642897781
 20
100.3511161371253024
 30
0.0
 11
3153.9234394791628802
 21
100.3511167846050967
 31
0.0
  0
ARC
  5
33F8D
  8
0
 10
3153.9231199023229237
 20
100.343535644746396
 30
0.0
 40
0.0075878726211571
 50
15.3297825025053793
 51
87.5861716913990307
  0
LINE
  5
33F8E
  8
0
 10
3153.9331786169691441
 20
100.3128126326760992
 30
0.0
 11
3153.9331786169691441
 21
99.6383342442315723
 31
0.0
  0
ARC
  5
33F8F
  8
0
 10
3153.8966360559998066
 20
100.3349203404398935
 30
0.0
 40
0.0354312121570613
 50
4.2863555851087911
 51
17.4440080879403396
  0
ARC
  5
33F90
  8
0
 10
3153.7286367548931594
 20
100.3184514951676931
 30
0.0
 40
0.2042281151154462
 50
1.3914898618313121
 51
5.371103677582779
  0
ARC
  5
33F91
  8
0
 10
3154.2587537963891009
 20
100.3296066610185022
 30
0.0
 40
0.3260080318673739
 50
181.0889666652180097
 51
182.9528506607543079
  0
ARC
  5
33F92
  8
0
 10
3153.9408847877648441
 20
100.3404610167504956
 30
0.0
 40
0.011672702673716
 50
98.4323809612849345
 51
153.7573334364057018
  0
ARC
  5
33F93
  8
0
 10
3153.8571416381869312
 20
100.3420599395651038
 30
0.0
 40
0.0079047928705858
 50
91.0114972136141915
 51
119.6213907344448018
  0
ARC
  5
33F94
  8
0
 10
3153.8559067425690046
 20
100.3442609238709053
 30
0.0
 40
0.0058068216756631
 50
49.4211177923251768
 51
79.12704388915148
  0
ARC
  5
33F95
  8
0
 10
3153.78590119576711
 20
100.2805415242297045
 30
0.0
 40
0.1004269452887109
 50
6.1686228743082339
 51
42.7188215399944013
  0
ARC
  5
33F96
  8
0
 10
3153.7964761781968264
 20
100.273412596960199
 30
0.0
 40
0.0910513964286851
 50
351.4956190338202191
 51
11.3507799464388999
  0
ARC
  5
33F97
  8
0
 10
3153.8465208775819519
 20
100.2684708311461037
 30
0.0
 40
0.0409034431008656
 50
313.5751364830240959
 51
347.9726909195040889
  0
ARC
  5
33F98
  8
0
 10
3153.8455902140699436
 20
100.2698734562160041
 30
0.0
 40
0.0425621213454128
 50
274.3129074757790136
 51
313.1812472047217284
  0
LINE
  5
33F99
  8
0
 10
3153.8487910289759384
 20
100.2274318615552033
 30
0.0
 11
3153.8082376255051713
 21
100.2274318615552033
 31
0.0
  0
LINE
  5
33F9A
  8
0
 10
3153.8524767826638708
 20
100.2777693569234998
 30
0.0
 11
3153.8524767826638708
 21
100.2684962667288033
 31
0.0
  0
ARC
  5
33F9B
  8
0
 10
3153.8464767826640127
 20
100.2684962667288033
 30
0.0
 40
0.006
 50
270.7299704891873944
 51
0.0
  0
LINE
  5
33F9C
  8
0
 10
3153.8465532229270138
 20
100.262496753674796
 30
0.0
 11
3153.8016653835779834
 21
100.2619248342190019
 31
0.0
  0
ARC
  5
33F9D
  8
0
 10
3153.8145247982160981
 20
100.2532838692840045
 30
0.0
 40
0.009118304680974
 50
105.8150191393425956
 51
152.3037648755276905
  0
ARC
  5
33F9E
  8
0
 10
3149.2850890426939259
 20
99.8245319955482557
 30
0.0
 40
4.6518175257720698
 50
357.5087531277329731
 51
357.7060157628416164
  0
ARC
  5
33F9F
  8
0
 10
3153.7937154575188288
 20
99.6293541297515901
 30
0.0
 40
0.1389720521128092
 50
354.4990816654232049
 51
357.1038920653584228
  0
ARC
  5
33FA0
  8
0
 10
3153.8663327869280693
 20
99.6223607015193267
 30
0.0
 40
0.0660187480831748
 50
349.3056254442012118
 51
354.4990816654236028
  0
ARC
  5
33FA1
  8
0
 10
3153.91376617215019
 20
99.6134028936498055
 30
0.0
 40
0.0177469306798077
 50
337.4421171787249136
 51
349.3056254442016098
  0
ARC
  5
33FA2
  8
0
 10
3153.9221973296948818
 20
99.6099006107467062
 30
0.0
 40
0.0086172864876136
 50
312.2059460627900762
 51
337.4421171787233789
  0
ARC
  5
33FA3
  8
0
 10
3153.9235209524008496
 20
99.6084411626827375
 30
0.0
 40
0.0066470160184018
 50
270.6624210061576719
 51
312.2059460627884846
  0
ARC
  5
33FA4
  8
0
 10
3153.8375730565139747
 20
174.977005880160192
 30
0.0
 40
75.3752603787001618
 50
269.9777009535973775
 51
270.0653908956549003
  0
LINE
  5
33FA5
  8
0
 10
3153.9584470157919895
 20
99.6010287255516147
 30
0.0
 11
3153.8082376255051713
 21
99.600083592700841
 31
0.0
  0
ARC
  5
33FA6
  8
0
 10
3153.9408191619008903
 20
99.612130305503257
 30
0.0
 40
0.0114321217176695
 50
204.8148213648254057
 51
259.1058202507679766
  0
ARC
  5
33FA7
  8
0
 10
3153.9582544812719789
 20
99.6316281198341613
 30
0.0
 40
0.0306
 50
270.3605061488138972
 51
0.0
  0
ARC
  5
33FA8
  8
0
 10
3153.7964376255049501
 20
96.507244836955195
 30
0.0
 40
0.0118
 50
270.0
 51
0.0000000000044782
  0
ARC
  5
33FA9
  8
0
 10
3153.7885376255048868
 20
95.8261684590551681
 30
0.0
 40
0.0197
 50
270.0
 51
0.0000000000012213
  0
LINE
  5
33FAA
  8
0
 10
3153.7082906594700944
 20
95.8064684590551678
 30
0.0
 11
3153.7082906594700944
 21
92.4749278983051539
 31
0.0
  0
LINE
  5
33FAB
  8
0
 10
3153.7082906594700944
 20
90.8529251379051743
 30
0.0
 11
3153.7082906594700944
 21
87.0839312834551862
 31
0.0
  0
LINE
  5
33FAC
  8
0
 10
3153.5411695585639791
 20
95.7352716086551823
 30
0.0
 11
3153.5411695585639791
 21
95.7435502664090166
 31
0.0
  0
ARC
  5
33FAD
  8
0
 10
3153.5311695585642155
 20
95.7352716086551823
 30
0.0
 40
0.01
 50
270.0
 51
359.9999999999976126
  0
LINE
  5
33FAE
  8
0
 10
3153.6815192210601708
 20
95.8064684590551678
 30
0.0
 11
3153.6784125543058508
 21
95.7597382563406967
 31
0.0
  0
ARC
  5
33FAF
  8
0
 10
3153.5800026897268253
 20
96.0455034379871364
 30
0.0
 40
0.3085016557744939
 50
277.278480821144683
 51
287.2280234105858767
  0
ARC
  5
33FB0
  8
0
 10
3153.6684345798839786
 20
95.7604016012356567
 30
0.0
 40
0.01
 50
287.0895646992590855
 51
356.1965208444748896
  0
ARC
  5
33FB1
  8
0
 10
3153.6189540109421614
 20
95.7495977393233346
 30
0.0
 40
0.0101109601894827
 50
208.4160248548942036
 51
270.7559037494884819
  0
ARC
  5
33FB2
  8
0
 10
3153.6158929138841813
 20
95.749612578106877
 30
0.0
 40
0.0100039619926507
 50
211.9074037343480086
 51
276.4906018347596728
  0
ARC
  5
33FB3
  8
0
 10
3153.7139247739610255
 20
95.4369666996802835
 30
0.0
 40
0.3162220048683498
 50
99.182945786927533
 51
105.7088827678193041
  0
ARC
  5
33FB4
  8
0
 10
3153.5775213958490895
 20
96.055002932194725
 30
0.0
 40
0.3177105818725961
 50
279.1982502842008103
 51
285.6935782705525071
  0
LINE
  5
33FB5
  8
0
 10
3153.644843413947001
 20
95.8064684590551678
 30
0.0
 11
3153.6395290520040362
 21
95.7572466151557649
 31
0.0
  0
LINE
  5
33FB6
  8
0
 10
3153.5675521527659839
 20
95.7511484418409395
 30
0.0
 11
3153.5704022945228644
 21
95.7452625529530934
 31
0.0
  0
LINE
  5
33FB7
  8
0
 10
3153.5657741636250648
 20
95.749091897699401
 30
0.0
 11
3153.5676174083851038
 21
95.745026908716909
 31
0.0
  0
LINE
  5
33FB8
  8
0
 10
3153.6312948236409284
 20
95.7484669935793846
 30
0.0
 11
3153.5811106003880013
 21
95.7397677437498089
 31
0.0
  0
ARC
  5
33FB9
  8
0
 10
3153.5794026090397892
 20
95.7496208024401056
 30
0.0
 40
0.01
 50
205.8377982667443007
 51
279.8342856826417915
  0
ARC
  5
33FBA
  8
0
 10
3153.629586832293171
 20
95.7583200522696956
 30
0.0
 40
0.01
 50
279.8342856826417915
 51
353.8377853167112903
  0
ARC
  5
33FBB
  8
0
 10
3153.5767871722810014
 20
95.7504440960038465
 30
0.0
 40
0.0106503750167659
 50
210.5731616139730988
 51
273.5459057825347031
  0
ARC
  5
33FBC
  8
0
 10
3153.5582907075990988
 20
96.0428277834245137
 30
0.0
 40
0.3038925111116603
 50
274.3559733284905064
 51
279.4747839653380197
  0
LINE
  5
33FBD
  8
0
 10
3153.5767441757629967
 20
95.8064684590551678
 30
0.0
 11
3153.5690583984787736
 21
95.755119353235699
 31
0.0
  0
LINE
  5
33FBE
  8
0
 10
3153.4790854075399693
 20
95.7929476655086205
 30
0.0
 11
3153.4995896924137924
 21
95.7457854945514129
 31
0.0
  0
ARC
  5
33FBF
  8
0
 10
3153.4541903786462171
 20
96.3422059003177083
 30
0.0
 40
0.6049412746290591
 50
275.262765575715207
 51
280.1631284876056043
  0
ARC
  5
33FC0
  8
0
 10
3153.5591685667459387
 20
95.7565996330352931
 30
0.0
 40
0.01
 50
280.1631284876056043
 51
351.4873376364297997
  0
ARC
  5
33FC1
  8
0
 10
3153.5087604645650572
 20
95.7497725910076838
 30
0.0
 40
0.01
 50
203.4975369470500084
 51
275.262765575715207
  0
ARC
  5
33FC2
  8
0
 10
3153.5313855914200758
 20
95.8357707744885658
 30
0.0
 40
0.0938000219599355
 50
275.9872218464793718
 51
288.4060341821154907
  0
LINE
  5
33FC3
  8
0
 10
3153.4816251236138669
 20
95.8064684590551678
 30
0.0
 11
3153.4715706581409904
 21
95.7529410772868914
 31
0.0
  0
LINE
  5
33FC4
  8
0
 10
3153.3784639855480236
 20
95.8064684590551678
 30
0.0
 11
3153.4019983632861113
 21
95.7464114050246735
 31
0.0
  0
ARC
  5
33FC5
  8
0
 10
3153.3911766417240869
 20
96.2362412221934846
 30
0.0
 40
0.4965979350565883
 50
272.3712168190602938
 51
278.3383735436569282
  0
ARC
  5
33FC6
  8
0
 10
3153.4617425381370595
 20
95.7547871696976216
 30
0.0
 40
0.01
 50
278.3383735436569282
 51
349.3616488402228129
  0
ARC
  5
33FC7
  8
0
 10
3153.411309012259153
 20
95.7500599411285265
 30
0.0
 40
0.01
 50
201.3985739166245139
 51
272.3712168190602938
  0
LINE
  5
33FC8
  8
0
 10
3153.365776216678114
 20
95.8064684590551678
 30
0.0
 11
3153.353502494796885
 21
95.7514821925497444
 31
0.0
  0
LINE
  5
33FC9
  8
0
 10
3153.262862639263858
 20
95.8064684590551678
 30
0.0
 11
3153.2837373636762095
 21
95.7474793670673137
 31
0.0
  0
ARC
  5
33FCA
  8
0
 10
3153.3032658846777849
 20
96.0222121868789884
 30
0.0
 40
0.2815847189083498
 50
267.8684365138472003
 51
278.5712562598343993
  0
ARC
  5
33FCB
  8
0
 10
3153.3437426790001155
 20
95.7536607231594132
 30
0.0
 40
0.01
 50
278.5712562598343993
 51
347.417035839918924
  0
ARC
  5
33FCC
  8
0
 10
3153.2931645029229912
 20
95.7508153894933969
 30
0.0
 40
0.01
 50
199.4875634387611001
 51
267.8684365138472003
  0
LINE
  5
33FCD
  8
0
 10
3153.2369088322529933
 20
95.8064684590551678
 30
0.0
 11
3153.2224989117798941
 21
95.750376628654152
 31
0.0
  0
LINE
  5
33FCE
  8
0
 10
3153.134138423827153
 20
95.8064684590551678
 30
0.0
 11
3153.1526467638550457
 21
95.748448500366095
 31
0.0
  0
ARC
  5
33FCF
  8
0
 10
3153.1816713074490508
 20
95.9662598642390634
 30
0.0
 40
0.2256554545731346
 50
264.8127708877948976
 51
278.3029273582750989
  0
ARC
  5
33FD0
  8
0
 10
3153.2128134124250209
 20
95.7528648212207258
 30
0.0
 40
0.01
 50
278.3029273582750989
 51
345.5923471175826762
  0
ARC
  5
33FD1
  8
0
 10
3153.1621737681380182
 20
95.7514876103328447
 30
0.0
 40
0.01
 50
197.6926588578459132
 51
264.8127708877948976
  0
ARC
  5
33FD2
  8
0
 10
3153.6982906594698761
 20
87.0839312834551862
 30
0.0
 40
0.01
 50
270.0
 51
0.0
  0
ARC
  5
33FD3
  8
0
 10
3153.9256889837038216
 20
87.069979201848767
 30
0.0
 40
0.2172566420499844
 50
181.5249768358123106
 51
201.1582659407114022
  0
ARC
  5
33FD4
  8
0
 10
3153.6985128317010094
 20
87.063931283455176
 30
0.0
 40
0.01
 50
1.524976835811106
 51
90.0
  0
ARC
  5
33FD5
  8
0
 10
3153.8959301802260597
 20
87.0584614529745551
 30
0.0
 40
0.1853466918222624
 50
201.1582659407114022
 51
227.449487469415601
  0
ARC
  5
33FD6
  8
0
 10
3153.9821842869000648
 20
87.1603412401969848
 30
0.0
 40
0.3187730668179491
 50
228.4117411501094068
 51
253.6233588255792881
  0
ARC
  5
33FD7
  8
0
 10
3154.092311633376994
 20
87.4897013462502287
 30
0.0
 40
0.6659440978844073
 50
252.5223472434491896
 51
262.3402421426990827
  0
ARC
  5
33FD8
  8
0
 10
3154.1600504719040146
 20
87.9701153984079269
 30
0.0
 40
1.1511045375916931
 50
262.1859427184119227
 51
268.5215973824329012
  0
LINE
  5
33FD9
  8
0
 10
3154.1498358223639116
 20
86.7994006966462166
 30
0.0
 11
3154.1498358223639116
 21
86.7189312834551771
 31
0.0
  0
ARC
  5
33FDA
  8
0
 10
3154.1298358223630203
 20
86.7994006966462166
 30
0.0
 40
0.02
 50
0.0
 51
88.5215973824329438
  0
ARC
  5
33FDB
  8
0
 10
3154.1298358223630203
 20
86.7189312834551771
 30
0.0
 40
0.02
 50
270.0
 51
0.0
  0
LINE
  5
33FDC
  8
0
 10
3155.4983183275321608
 20
92.3889278983051838
 30
0.0
 11
3154.8600127417621479
 21
92.3889278983051838
 31
0.0
  0
LINE
  5
33FDD
  8
0
 10
3154.6364713950110854
 20
92.3889278983051838
 30
0.0
 11
3153.7942906594698798
 21
92.3889278983051838
 31
0.0
  0
ARC
  5
33FDE
  8
0
 10
3154.6364713950110854
 20
92.3689278983051736
 30
0.0
 40
0.02
 50
0.0
 51
90.0
  0
LINE
  5
33FDF
  8
0
 10
3155.6898161663871178
 20
90.9389251379051728
 30
0.0
 11
3155.0856135360618282
 21
90.9389251379051728
 31
0.0
  0
LINE
  5
33FE0
  8
0
 10
3154.6364713950110854
 20
90.9389251379051728
 30
0.0
 11
3153.7942906594698798
 21
90.9389251379051728
 31
0.0
  0
ARC
  5
33FE1
  8
0
 10
3154.6364713950110854
 20
90.9589251379051547
 30
0.0
 40
0.02
 50
270.0
 51
0.0
  0
ARC
  5
33FE2
  8
0
 10
3153.7942906594698798
 20
92.4749278983051539
 30
0.0
 40
0.086
 50
180.0
 51
270.0
  0
ARC
  5
33FE3
  8
0
 10
3153.7942906594698798
 20
90.8529251379051743
 30
0.0
 40
0.086
 50
90.0
 51
180.0
  0
ARC
  5
33FE4
  8
0
 10
3153.1271495267828868
 20
92.6365186085762957
 30
0.0
 40
0.6031886717660055
 50
325.3171157530803157
 51
344.4610057631276163
  0
ARC
  5
33FE5
  8
0
 10
3158.1816043925218764
 20
89.2917745168632564
 30
0.0
 40
5.4578817128870698
 50
146.6370803207840936
 51
149.3108628732418879
  0
ARC
  5
33FE6
  8
0
 10
3155.4439668648628867
 20
90.8470435628254762
 30
0.0
 40
2.3106483848094541
 50
147.8282940205724003
 51
153.0785616269677121
  0
ARC
  5
33FE7
  8
0
 10
3153.8695101936641549
 20
91.6305264961575006
 30
0.0
 40
0.5522670405827438
 50
151.5959927742985087
 51
176.5327483739623915
  0
ARC
  5
33FE8
  8
0
 10
3153.1271495267828868
 20
90.6913344276340752
 30
0.0
 40
0.6031886717660055
 50
15.5389942368724405
 51
34.6828842469197127
  0
ARC
  5
33FE9
  8
0
 10
3158.1816043925218764
 20
94.0360785193470861
 30
0.0
 40
5.4578817128870698
 50
210.6891371267581121
 51
213.3629196792159064
  0
ARC
  5
33FEA
  8
0
 10
3155.4439668648628867
 20
92.4808094733848378
 30
0.0
 40
2.3106483848094541
 50
206.9214383730322879
 51
212.1717059794275997
  0
ARC
  5
33FEB
  8
0
 10
3153.8695101936641549
 20
91.6973265400528703
 30
0.0
 40
0.5522670405827438
 50
183.4672516260376085
 51
208.404007225701406
  0
LINE
  5
33FEC
  8
0
 10
3154.6564713950110672
 20
92.3689278983051736
 30
0.0
 11
3154.6564713950110672
 21
90.9589251379051547
 31
0.0
  0
LINE
  5
33FED
  8
0
 10
3154.835012741762057
 20
92.3639278983051639
 30
0.0
 11
3154.835012741762057
 21
90.9743863300773512
 31
0.0
  0
ARC
  5
33FEE
  8
0
 10
3154.3064693473638727
 20
91.6639276024551748
 30
0.0
 40
0.8050621094000009
 50
48.9646157324429083
 51
62.4843041864479716
  0
ARC
  5
33FEF
  8
0
 10
3154.3064693473638727
 20
91.6639254337551677
 30
0.0
 40
0.8050621094000009
 50
297.5156958135519858
 51
307.0449701137097804
  0
ARC
  5
33FF0
  8
0
 10
3154.6714713950109399
 20
92.3646212886855551
 30
0.0
 40
0.015
 50
62.4843041864472326
 51
180.0000000000036096
  0
ARC
  5
33FF1
  8
0
 10
3154.6714713950109399
 20
90.9632317475247874
 30
0.0
 40
0.015
 50
179.9999999999967031
 51
297.5156958135526111
  0
ARC
  5
33FF2
  8
0
 10
3118.3822574875580358
 20
95.6628468579807958
 30
0.0
 40
36.7068893942196084
 50
352.746221183689272
 51
353.2540017076514118
  0
ARC
  5
33FF3
  8
0
 10
3154.7854478907161138
 20
91.0293363440195833
 30
0.0
 40
0.01
 50
307.044970113710292
 51
352.746221183545515
  0
LINE
  5
33FF4
  8
0
 10
3154.8308903592651404
 20
91.3162515486611142
 30
0.0
 11
3154.835012741762057
 21
91.3145859832186062
 31
0.0
  0
LINE
  5
33FF5
  8
0
 10
3154.8285664860850375
 20
91.2968086786535054
 30
0.0
 11
3154.835012741762057
 21
91.2942041991243229
 31
0.0
  0
LINE
  5
33FF6
  8
0
 10
3154.8333965614310728
 20
91.3373192350634469
 30
0.0
 11
3154.835012741762057
 21
91.3366662499541349
 31
0.0
  0
ARC
  5
33FF7
  8
0
 10
3154.8600127417621479
 20
92.3639278983051639
 30
0.0
 40
0.025
 50
90.0
 51
179.9999999999974989
  0
LINE
  5
33FF8
  8
0
 10
3154.8597615766889248
 20
90.9493875917870866
 30
0.0
 11
3154.9769997509638415
 21
90.948209686955181
 31
0.0
  0
ARC
  5
33FF9
  8
0
 10
3154.9697077538339727
 20
90.2224291253990032
 30
0.0
 40
0.7258171923803727
 50
84.8998139319087244
 51
89.4243623699138652
  0
ARC
  5
33FFA
  8
0
 10
3154.972153668034025
 20
90.2498340514828072
 30
0.0
 40
0.6983033327831515
 50
80.7162324305510452
 51
84.8998139319087244
  0
ARC
  5
33FFB
  8
0
 10
3155.0856135360618282
 20
90.9439251379051825
 30
0.0
 40
0.005
 50
260.7162324305509742
 51
270.0
  0
ARC
  5
33FFC
  8
0
 10
3154.8600127417621479
 20
90.9743863300773512
 30
0.0
 40
0.025
 50
180.0000000000015916
 51
269.4243623699139221
  0
LINE
  5
33FFD
  8
0
 10
3155.7483190513639784
 20
95.0939235227051824
 30
0.0
 11
3155.7483190513639784
 21
90.9953421691257773
 31
0.0
  0
LINE
  5
33FFE
  8
0
 10
3155.4983183275321608
 20
95.0939235227051824
 30
0.0
 11
3155.4983183275321608
 21
92.0614159541490835
 31
0.0
  0
LINE
  5
33FFF
  8
0
 10
3155.6883190513640329
 20
95.1539235227051847
 30
0.0
 11
3155.5583183275321062
 21
95.1539235227051847
 31
0.0
  0
ARC
  5
34000
  8
0
 10
3155.6883190513640329
 20
95.0939235227051824
 30
0.0
 40
0.06
 50
0.0
 51
90.0
  0
ARC
  5
34001
  8
0
 10
3155.5583183275321062
 20
95.0939235227051824
 30
0.0
 40
0.06
 50
90.0
 51
180.0000000000003979
  0
ARC
  5
34002
  8
0
 10
3154.111246827927971
 20
92.1305703492016761
 30
0.0
 40
1.3887943243580709
 50
351.8520636294414885
 51
357.1458018428086802
  0
ARC
  5
34003
  8
0
 10
3151.9930544271460349
 20
92.4338420623633255
 30
0.0
 40
3.5285870196290809
 50
348.580686803369872
 51
351.8520636294414885
  0
ARC
  5
34004
  8
0
 10
3159.8719097414568751
 20
90.842422201014756
 30
0.0
 40
4.5093840078713354
 50
168.5806868033699004
 51
169.4810419876262984
  0
ARC
  5
34005
  8
0
 10
3155.45153116602296
 20
91.6602946693032834
 30
0.0
 40
0.0142699688810208
 50
157.9181062966935087
 51
199.4405958715360043
  0
ARC
  5
34006
  8
0
 10
3155.482248479619102
 20
91.680697294748029
 30
0.0
 40
0.0508325118990267
 50
209.6567744567865077
 51
247.7287686062520038
  0
ARC
  5
34007
  8
0
 10
3155.6658091746558057
 20
92.0915276183148137
 30
0.0
 40
0.5007832981607117
 50
246.1078026892272135
 51
258.437373215049206
  0
ARC
  5
34008
  8
0
 10
3156.0106216275239603
 20
93.5835663953161259
 30
0.0
 40
2.0320263258467421
 50
257.3446335414924988
 51
260.9164946335582158
  0
ARC
  5
34009
  8
0
 10
3155.6954334573870256
 20
91.8575817379727368
 30
0.0
 40
0.2806148239864299
 50
268.8533447056811951
 51
280.8631173428187253
  0
LINE
  5
3400A
  8
0
 10
3155.7578123877669896
 20
91.7465909011162069
 30
0.0
 11
3155.7578123877669896
 21
91.581424454788106
 31
0.0
  0
ARC
  5
3400B
  8
0
 10
3128.4603394905238929
 20
91.6640076779559934
 30
0.0
 40
27.2975978167394189
 50
0.1733367674014619
 51
1.5210249265001781
  0
ARC
  5
3400C
  8
0
 10
3137.2297118890201091
 20
91.5905709499250946
 30
0.0
 40
18.5281027563550111
 50
358.1655673418226797
 51
359.9717156366812105
  0
ARC
  5
3400D
  8
0
 10
3155.6908436413968957
 20
90.9964011191585058
 30
0.0
 40
0.0574851643985641
 50
268.9758554707390203
 51
1.055521024770395
  0
ARC
  5
3400E
  8
0
 10
3152.5547342018480776
 20
100.4260318205751048
 30
0.0
 40
0.0400799604555914
 50
100.4226476052044035
 51
259.2139383795666845
  0
ARC
  5
3400F
  8
0
 10
3152.5543855643231836
 20
100.5048037967927996
 30
0.0
 40
0.0399540293169917
 50
100.9573465107455945
 51
260.052126419434785
  0
ARC
  5
34010
  8
0
 10
3152.5545461336150765
 20
100.5834100020735065
 30
0.0
 40
0.0401368835891138
 50
100.745595935472295
 51
258.8596627330394995
  0
ARC
  5
34011
  8
0
 10
3152.5544920403931428
 20
100.6622164503578034
 30
0.0
 40
0.0400681699372552
 50
100.2188332502125974
 51
259.3144827217622037
  0
ARC
  5
34012
  8
0
 10
3152.5539589990048626
 20
100.7410047628074068
 30
0.0
 40
0.0399012422487203
 50
100.3722904022631042
 51
260.5148826284211054
  0
ARC
  5
34013
  8
0
 10
3152.5545754888407828
 20
100.8196194227756024
 30
0.0
 40
0.0401308636692236
 50
101.4040745388234939
 51
258.791769781111384
  0
ARC
  5
34014
  8
0
 10
3152.5537065410508148
 20
100.8983220596711021
 30
0.0
 40
0.0399932328300109
 50
100.4413319005816021
 51
259.8235539176836824
  0
ARC
  5
34015
  8
0
 10
3152.5548607657988214
 20
100.9771595995666047
 30
0.0
 40
0.0403901463875265
 50
102.3691084735764036
 51
257.993387203876523
  0
ARC
  5
34016
  8
0
 10
3152.5545376710019809
 20
101.0558592055911049
 30
0.0
 40
0.0401210206815436
 50
100.9283117882076937
 51
258.0186910243228908
  0
ARC
  5
34017
  8
0
 10
3152.5546260903461189
 20
101.1347153678072033
 30
0.0
 40
0.0402058919676696
 50
101.9135888595560004
 51
258.9666921571295006
  0
ARC
  5
34018
  8
0
 10
3152.5545788966278451
 20
101.2133466863141962
 30
0.0
 40
0.0401488085202126
 50
99.8955131611742218
 51
258.1380512277671073
  0
ARC
  5
34019
  8
0
 10
3152.5543409428400992
 20
101.292254725602902
 30
0.0
 40
0.0399163489648021
 50
100.5289516157317991
 51
260.3928695191988254
  0
ARC
  5
3401A
  8
0
 10
3152.5545690448698224
 20
101.3709517378706977
 30
0.0
 40
0.0401634333366509
 50
101.763811179206499
 51
259.2054706968320943
  0
ARC
  5
3401B
  8
0
 10
3152.554622390653094
 20
101.4495745093607013
 30
0.0
 40
0.0401577654403545
 50
99.9639325171052349
 51
258.1567483071602851
  0
ARC
  5
3401C
  8
0
 10
3152.554317662963058
 20
101.5284482115105931
 30
0.0
 40
0.0398789446411637
 50
102.1630201243405054
 51
260.4100002902554252
  0
ARC
  5
3401D
  8
0
 10
3152.5547476467709203
 20
101.6067938189049045
 30
0.0
 40
0.0403406066210238
 50
103.3574879278319969
 51
257.3531278824864899
  0
ARC
  5
3401E
  8
0
 10
3152.5550429104828254
 20
101.6855312401588947
 30
0.0
 40
0.0406418535613968
 50
102.3293545059891017
 51
256.3153023176952843
  0
ARC
  5
3401F
  8
0
 10
3152.5545362496209236
 20
101.7645171807132982
 30
0.0
 40
0.0401223998325982
 50
100.9552749137247929
 51
258.2484886129224719
  0
ARC
  5
34020
  8
0
 10
3152.5545651025131519
 20
101.8432861823613962
 30
0.0
 40
0.0401147361199762
 50
100.4300716047687985
 51
259.0006274813762843
  0
ARC
  5
34021
  8
0
 10
3152.5544220312522157
 20
101.9220922484767016
 30
0.0
 40
0.0399928977033957
 50
101.0106612064572005
 51
259.7461624460198095
  0
ARC
  5
34022
  8
0
 10
3152.5550110294439037
 20
102.0007326757614976
 30
0.0
 40
0.0402339031720258
 50
100.9073926989112948
 51
258.2005335869696978
  0
ARC
  5
34023
  8
0
 10
3152.5544302914740911
 20
102.0796329937698061
 30
0.0
 40
0.0400160509446435
 50
98.9457479070130006
 51
259.8782952087370859
  0
ARC
  5
34024
  8
0
 10
3152.554210820706885
 20
102.1584827306225947
 30
0.0
 40
0.0397760347130351
 50
101.3079672615948965
 51
261.3197645660167154
  0
ARC
  5
34025
  8
0
 10
3152.5546988742239591
 20
102.2368783661688951
 30
0.0
 40
0.0402540947947397
 50
100.326385024318995
 51
258.119091015924198
  0
ARC
  5
34026
  8
0
 10
3152.5543871503600712
 20
102.315838780085997
 30
0.0
 40
0.0399592783159512
 50
100.4788398889108976
 51
260.0506940240683207
  0
ARC
  5
34027
  8
0
 10
3152.5544655191702077
 20
102.394493326924902
 30
0.0
 40
0.0400412955037935
 50
101.0557097093397942
 51
259.4288115895254805
  0
ARC
  5
34028
  8
0
 10
3152.5545250416148519
 20
102.4731567180099034
 30
0.0
 40
0.0401185289355552
 50
101.574145354008607
 51
258.8792196939518249
  0
ARC
  5
34029
  8
0
 10
3152.5546997680971799
 20
102.5518716916437967
 30
0.0
 40
0.0402611011946289
 50
99.3451080081008655
 51
258.2135113350187794
  0
ARC
  5
3402A
  8
0
 10
3152.5542442541282071
 20
102.630931430621601
 30
0.0
 40
0.0398004405729874
 50
100.4502640177709054
 51
261.2098933893091726
  0
ARC
  5
3402B
  8
0
 10
3152.5544907361891092
 20
102.7094504070218051
 30
0.0
 40
0.0400801440830358
 50
100.3629946155263042
 51
259.2650555036263995
  0
ARC
  5
3402C
  8
0
 10
3152.5544675378268948
 20
102.7882418700302054
 30
0.0
 40
0.040015732695317
 50
100.4855341999614069
 51
259.6539067631879902
  0
ARC
  5
3402D
  8
0
 10
3152.5544058942418815
 20
102.8669281601977019
 30
0.0
 40
0.0399959828496797
 50
102.3727369773181977
 51
259.5990244710188222
  0
ARC
  5
3402E
  8
0
 10
3152.5548259669590152
 20
102.9453665629297063
 30
0.0
 40
0.0403847018897047
 50
102.9940661927609966
 51
257.1376279714692146
  0
ARC
  5
3402F
  8
0
 10
3152.5548833363291124
 20
103.0241073655993063
 30
0.0
 40
0.0404362460731608
 50
101.3737103691220938
 51
256.939353113924426
  0
ARC
  5
34030
  8
0
 10
3152.5545622002828168
 20
103.1030957948969018
 30
0.0
 40
0.040083676751031
 50
102.3905863203445961
 51
258.9929082399892195
  0
ARC
  5
34031
  8
0
 10
3152.5547677088161436
 20
103.181642720987
 30
0.0
 40
0.0403691609337859
 50
100.6581094761419024
 51
257.3997118490469802
  0
ARC
  5
34032
  8
0
 10
3152.5544062835861041
 20
103.2606693598081051
 30
0.0
 40
0.0399901050463303
 50
101.386236400076001
 51
259.7663133928189723
  0
ARC
  5
34033
  8
0
 10
3152.5545850285411689
 20
103.3392142397754014
 30
0.0
 40
0.0401617238593203
 50
103.927766211923597
 51
258.4028694997277853
  0
ARC
  5
34034
  8
0
 10
3152.5551719455979764
 20
103.4175981452181929
 30
0.0
 40
0.0407152498619349
 50
100.9365885485099028
 51
255.4135028426478016
  0
ARC
  5
34035
  8
0
 10
3152.5544028064750819
 20
103.4969286666935062
 30
0.0
 40
0.0399646706421249
 50
100.7123088800400978
 51
259.9771921431528767
  0
ARC
  5
34036
  8
0
 10
3152.5544757827237845
 20
103.5755548429901012
 30
0.0
 40
0.0400664812687616
 50
101.699512954300701
 51
259.2090147435657173
  0
ARC
  5
34037
  8
0
 10
3152.5546395332221437
 20
103.6541529890922959
 30
0.0
 40
0.0402271922894084
 50
102.280982363228901
 51
258.1096431766712271
  0
ARC
  5
34038
  8
0
 10
3152.5547666605621089
 20
103.7328506070992944
 30
0.0
 40
0.0403367762835963
 50
101.1542350197730968
 51
257.568053561819795
  0
ARC
  5
34039
  8
0
 10
3152.5545530469939877
 20
103.8118044347376951
 30
0.0
 40
0.0401037183410462
 50
100.2262229014258992
 51
259.0910727318952809
  0
ARC
  5
3403A
  8
0
 10
3152.5548781833808789
 20
103.8906201496972983
 30
0.0
 40
0.040047176798809
 50
102.1437860102037973
 51
259.2861196373355028
  0
ARC
  5
3403B
  8
0
 10
3152.5546889387392184
 20
103.9691723425181067
 30
0.0
 40
0.0402526003174657
 50
99.8205053484518174
 51
258.1944578935514869
  0
ARC
  5
3403C
  8
0
 10
3152.5543034240968154
 20
104.0482005723761034
 30
0.0
 40
0.0398952390293481
 50
99.6882483946926072
 51
260.6522162316632034
  0
ARC
  5
3403D
  8
0
 10
3152.5545896414678282
 20
104.1270529223297956
 30
0.0
 40
0.040141168006104
 50
102.3265435076057059
 51
259.9570449894807211
  0
ARC
  5
3403E
  8
0
 10
3152.5544830073367848
 20
104.2054581678016945
 30
0.0
 40
0.0400928073433524
 50
101.3387219160308064
 51
257.8143011025010196
  0
ARC
  5
3403F
  8
0
 10
3152.554881275732896
 20
104.2843406816822949
 30
0.0
 40
0.0404293799462415
 50
102.7913694258546968
 51
258.1808604554377098
  0
ARC
  5
34040
  8
0
 10
3152.5545480818918804
 20
104.3629451886460942
 30
0.0
 40
0.0401151053527167
 50
100.8695971035489976
 51
257.5944346996819831
  0
ARC
  5
34041
  8
0
 10
3152.5545010591818027
 20
104.4417139877892993
 30
0.0
 40
0.0400846602416209
 50
100.8020764797124968
 51
259.1904814073162129
  0
ARC
  5
34042
  8
0
 10
3152.5544993925400377
 20
104.5204325639678018
 30
0.0
 40
0.0400547021220316
 50
102.606751016477304
 51
259.1921741987384848
  0
ARC
  5
34043
  8
0
 10
3152.5548769955621538
 20
104.5989200263935004
 30
0.0
 40
0.0404401891116371
 50
100.7602291537225057
 51
256.9668330180305134
  0
ARC
  5
34044
  8
0
 10
3152.5544536693860209
 20
104.6780182186310952
 30
0.0
 40
0.0400089318163039
 50
100.1342093641855939
 51
259.7390807025760751
  0
ARC
  5
34045
  8
0
 10
3152.5545363110168182
 20
104.7568839303256993
 30
0.0
 40
0.0401182856785844
 50
101.9334207152651999
 51
259.7737958063984252
  0
ARC
  5
34046
  8
0
 10
3152.5545584351179969
 20
104.8353974655541947
 30
0.0
 40
0.0401336208501206
 50
100.3113609418278998
 51
258.0389221614399844
  0
ARC
  5
34047
  8
0
 10
3152.5544620597288485
 20
104.9142186293558012
 30
0.0
 40
0.0399691189469555
 50
102.4169278977792032
 51
259.7861432121475787
  0
ARC
  5
34048
  8
0
 10
3152.5548284080759913
 20
104.9926244054412052
 30
0.0
 40
0.0403783981618049
 50
102.527371735261795
 51
257.1783326423782228
  0
ARC
  5
34049
  8
0
 10
3152.5549500662900755
 20
105.0714090915526953
 30
0.0
 40
0.0403566801006806
 50
102.5866212150650938
 51
257.2887764798600756
  0
ARC
  5
3404A
  8
0
 10
3152.5547224839610863
 20
105.1501805767411071
 30
0.0
 40
0.0403056022852457
 50
101.3561936715889971
 51
257.728457021559791
  0
ARC
  5
3404B
  8
0
 10
3152.5545610907211085
 20
105.2290759948942025
 30
0.0
 40
0.0401391494395014
 50
100.6086476063405968
 51
258.8310035371068807
  0
ARC
  5
3404C
  8
0
 10
3152.5544582709549104
 20
105.3078784414139051
 30
0.0
 40
0.0400183753111482
 50
101.978126454788196
 51
259.5087132430904262
  0
ARC
  5
3404D
  8
0
 10
3152.5541301165699224
 20
105.3863936378935051
 30
0.0
 40
0.0401682262599019
 50
101.3944356473132018
 51
258.5452180325519862
  0
ARC
  5
3404E
  8
0
 10
3152.5550319295898589
 20
105.4651634299330993
 30
0.0
 40
0.0403724098084681
 50
102.558837982360501
 51
257.3555478473548987
  0
ARC
  5
3404F
  8
0
 10
3152.5551554023982135
 20
105.5443124876511973
 30
0.0
 40
0.0407274424585005
 50
107.4294267447268965
 51
257.374459164357404
  0
ARC
  5
34050
  8
0
 10
3152.5564167411071139
 20
105.6229612034965015
 30
0.0
 40
0.0420062415239411
 50
112.6548482827898994
 51
251.3104868686720863
  0
ARC
  5
34051
  8
0
 10
3152.5582084549891988
 20
105.7016655521027957
 30
0.0
 40
0.0437963643725285
 50
113.5731897853676031
 51
245.7734716488685081
  0
ARC
  5
34052
  8
0
 10
3152.5573206901349295
 20
105.7814194865572972
 30
0.0
 40
0.0429605301433357
 50
120.4838661480662978
 51
247.2297836401475024
  0
ARC
  5
34053
  8
0
 10
3152.5624572674078081
 20
105.8583660712410932
 30
0.0
 40
0.048158044369597
 50
124.9280970809236067
 51
235.9990907395782074
  0
ARC
  5
34054
  8
0
 10
3152.5632398813190775
 20
105.9375795667385063
 30
0.0
 40
0.0488109619863385
 50
127.790571035718699
 51
234.4845191037697134
  0
ARC
  5
34055
  8
0
 10
3152.5655808604969934
 20
106.0158985734706931
 30
0.0
 40
0.0511847052439314
 50
131.1670635163042959
 51
230.9428857994896873
  0
ARC
  5
34056
  8
0
 10
3152.5682006907859432
 20
106.0941087164137002
 30
0.0
 40
0.0537865451202522
 50
134.4542187951338121
 51
227.5363289234070976
  0
ARC
  5
34057
  8
0
 10
3152.5711464559390151
 20
106.1721264609950026
 30
0.0
 40
0.0567418215702403
 50
137.5287042391996977
 51
224.2929470128648006
  0
ARC
  5
34058
  8
0
 10
3152.5744076304181363
 20
106.249971000006596
 30
0.0
 40
0.0599839188306426
 50
140.8781385583139922
 51
221.2260400368344051
  0
ARC
  5
34059
  8
0
 10
3152.5785459710300529
 20
106.3272015017730041
 30
0.0
 40
0.0641782186564422
 50
143.1844980910248069
 51
217.8531830212068883
  0
ARC
  5
3405A
  8
0
 10
3152.5816753846597749
 20
106.4050060962285045
 30
0.0
 40
0.0672258895870356
 50
146.1013795314750894
 51
215.8232523022971066
  0
ARC
  5
3405B
  8
0
 10
3152.5870327829538837
 20
106.4816362748417049
 30
0.0
 40
0.0726072029023068
 50
148.1618705592597109
 51
212.6168351667147931
  0
ARC
  5
3405C
  8
0
 10
3152.589545844721215
 20
106.5589657256009986
 30
0.0
 40
0.0751283562261272
 50
149.8247584213955008
 51
211.2973135311144972
  0
ARC
  5
3405D
  8
0
 10
3152.5935104954428425
 20
106.6356245485026051
 30
0.0
 40
0.0791316651489046
 50
151.7122053337241141
 51
209.4413893465074921
  0
ARC
  5
3405E
  8
0
 10
3152.598922764846975
 20
106.711884860935001
 30
0.0
 40
0.084506881751024
 50
153.7337016628154061
 51
207.3005511158183083
  0
ARC
  5
3405F
  8
0
 10
3152.6036839675948613
 20
106.7877776317896945
 30
0.0
 40
0.0892689182785922
 50
155.3241162724638116
 51
205.5451741317959033
  0
ARC
  5
34060
  8
0
 10
3152.6087146969589412
 20
106.8633737518353968
 30
0.0
 40
0.094289373248313
 50
156.8280503921951095
 51
203.9845523587972878
  0
ARC
  5
34061
  8
0
 10
3152.6135397960770206
 20
106.9386344086568954
 30
0.0
 40
0.0991452650869528
 50
158.2053153941043036
 51
202.6359929792519097
  0
ARC
  5
34062
  8
0
 10
3152.63065724074022
 20
107.0153703164826027
 30
0.0
 40
0.1162470432731705
 50
161.5857766236296982
 51
200.0872269027819073
  0
ARC
  5
34063
  8
0
 10
3152.6260159115199713
 20
107.0879886260216978
 30
0.0
 40
0.1115854963207717
 50
161.0307688244319024
 51
198.7660939693757882
  0
ARC
  5
34064
  8
0
 10
3152.6329866315218169
 20
107.1617147578155027
 30
0.0
 40
0.1185674681947979
 50
162.0886289884369091
 51
198.4144661064347019
  0
ARC
  5
34065
  8
0
 10
3152.6379028198430206
 20
107.2353904891049012
 30
0.0
 40
0.1234774066262414
 50
163.0338581859491001
 51
197.5391566446375862
  0
ARC
  5
34066
  8
0
 10
3152.6442556833981143
 20
107.3083932014739048
 30
0.0
 40
0.1298314950678563
 50
164.021413727932611
 51
196.5446787019926944
  0
ARC
  5
34067
  8
0
 10
3152.651326335162139
 20
107.3808562228808938
 30
0.0
 40
0.1369033627114501
 50
164.9344525963560955
 51
195.559693476137511
  0
ARC
  5
34068
  8
0
 10
3152.6592383660517953
 20
107.4529070509939999
 30
0.0
 40
0.1447776943696176
 50
165.8861090834994059
 51
194.5886926687539074
  0
ARC
  5
34069
  8
0
 10
3152.6650503823138934
 20
107.5243948629661048
 30
0.0
 40
0.1506298315476001
 50
166.5089843860112069
 51
193.8993107337547883
  0
ARC
  5
3406A
  8
0
 10
3152.6951459242059173
 20
107.595519057783207
 30
0.0
 40
0.1801982281709868
 50
168.895972380952287
 51
191.5186831926627065
  0
ARC
  5
3406B
  8
0
 10
3152.6786867014848212
 20
107.6658105789916959
 30
0.0
 40
0.1642666683731561
 50
167.871467944666108
 51
192.5118470869986993
  0
ARC
  5
3406C
  8
0
 10
3152.6918635289512167
 20
107.7356240718980018
 30
0.0
 40
0.1773259637644086
 50
168.879026546305596
 51
191.4825444149425095
  0
ARC
  5
3406D
  8
0
 10
3152.693502812287079
 20
107.8047927271877029
 30
0.0
 40
0.179082151410709
 50
169.085919143120293
 51
191.2593371911864892
  0
ARC
  5
3406E
  8
0
 10
3152.7017241776798073
 20
107.8733396841837049
 30
0.0
 40
0.1872955172365391
 50
169.6656251167921141
 51
190.6581602195020082
  0
ARC
  5
3406F
  8
0
 10
3152.7093054245110579
 20
107.9412412530808041
 30
0.0
 40
0.1948809946088427
 50
170.1704648064068977
 51
190.1377855697751045
  0
ARC
  5
34070
  8
0
 10
3152.7172590365421456
 20
108.0084645297446997
 30
0.0
 40
0.2028357893457972
 50
170.6539796592259961
 51
189.6363918263417929
  0
ARC
  5
34071
  8
0
 10
3152.7253508396470352
 20
108.0749995334131057
 30
0.0
 40
0.2109276678163632
 50
171.120307338647109
 51
189.1647328916839967
  0
ARC
  5
34072
  8
0
 10
3152.7341464475239263
 20
108.1407858659613055
 30
0.0
 40
0.219722176189916
 50
171.5484372738841046
 51
188.6979254821038978
  0
ARC
  5
34073
  8
0
 10
3152.7426347771711335
 20
108.2059303164912052
 30
0.0
 40
0.2282013811188769
 50
171.966512894707904
 51
188.2768812223636132
  0
ARC
  5
34074
  8
0
 10
3152.7502408014670436
 20
108.2702824902765002
 30
0.0
 40
0.2358128180585096
 50
172.3172718391730882
 51
187.9121236117775027
  0
ARC
  5
34075
  8
0
 10
3152.7578431172919409
 20
108.3338767278514041
 30
0.0
 40
0.2434200608072219
 50
172.6776525913286946
 51
187.5703572726235109
  0
ARC
  5
34076
  8
0
 10
3152.7694882826781395
 20
108.396558943647193
 30
0.0
 40
0.2550524620413874
 50
173.0451483024272079
 51
187.1301341737946871
  0
ARC
  5
34077
  8
0
 10
3152.7731168013838214
 20
108.4586894343247963
 30
0.0
 40
0.2586982867222069
 50
173.258759626247496
 51
186.937416341650902
  0
ARC
  5
34078
  8
0
 10
3152.7815414684851021
 20
108.5198817251798005
 30
0.0
 40
0.2671189363018172
 50
173.5596745407723915
 51
186.6265499934725085
  0
ARC
  5
34079
  8
0
 10
3152.7907353848290768
 20
108.5802562303646965
 30
0.0
 40
0.2763059178513386
 50
173.9387190326328039
 51
186.3191896538515948
  0
ARC
  5
3407A
  8
0
 10
3153.6818967596527727
 20
100.4649051629470051
 30
0.0
 40
0.0404136908848253
 50
283.4053227713433785
 51
78.9235428280766627
  0
ARC
  5
3407B
  8
0
 10
3153.6822502883228481
 20
100.544008257924105
 30
0.0
 40
0.0401323931517723
 50
280.6410936769619866
 51
78.4040050724956927
  0
ARC
  5
3407C
  8
0
 10
3153.6821685226218506
 20
100.6226663966727983
 30
0.0
 40
0.0401798639496369
 50
281.7011502908607099
 51
78.944444549979508
  0
ARC
  5
3407D
  8
0
 10
3153.6823670196149578
 20
100.7013989340375986
 30
0.0
 40
0.04000882582419
 50
280.8138738921813911
 51
79.6885478402019629
  0
ARC
  5
3407E
  8
0
 10
3153.6820516689072065
 20
100.7803998696365966
 30
0.0
 40
0.0403372922269551
 50
280.6820709755918983
 51
77.566900142567718
  0
ARC
  5
3407F
  8
0
 10
3153.682534822440175
 20
100.8587648320503973
 30
0.0
 40
0.0398272484851614
 50
281.8836821740655978
 51
80.8769593063698551
  0
ARC
  5
34080
  8
0
 10
3153.6822235566601194
 20
100.9376877073133016
 30
0.0
 40
0.0401499727022915
 50
279.4991657752383958
 51
77.8223411257574895
  0
ARC
  5
34081
  8
0
 10
3153.6815736584039769
 20
101.0166638204147063
 30
0.0
 40
0.0407627439764534
 50
282.9273893364115224
 51
75.9391627480398057
  0
ARC
  5
34082
  8
0
 10
3153.6821210060888916
 20
101.0953708040438954
 30
0.0
 40
0.0402675637392087
 50
283.4352831439229021
 51
77.8000665795681243
  0
ARC
  5
34083
  8
0
 10
3153.6820565208709013
 20
101.1740942957918037
 30
0.0
 40
0.0402882346187295
 50
282.2874184695550071
 51
77.7379194931962871
  0
ARC
  5
34084
  8
0
 10
3153.6823292111957926
 20
101.252666648118506
 30
0.0
 40
0.0400688976716714
 50
281.9314206586249725
 51
76.4334916667370834
  0
ARC
  5
34085
  8
0
 10
3153.6817171782317928
 20
101.3310084597861049
 30
0.0
 40
0.0406431611615066
 50
284.2597503529951268
 51
78.2329808361149617
  0
ARC
  5
34086
  8
0
 10
3153.6822531475581854
 20
101.4101605113294937
 30
0.0
 40
0.0401191679712484
 50
281.1417332604308967
 51
78.0802884289125672
  0
ARC
  5
34087
  8
0
 10
3153.6821236038140341
 20
101.4887646761295059
 30
0.0
 40
0.0402399266613175
 50
282.0719748167799139
 51
78.8465091407091592
  0
ARC
  5
34088
  8
0
 10
3153.6822550253550617
 20
101.5676308742887954
 30
0.0
 40
0.040122833650383
 50
280.9952171227561735
 51
78.2171442605536527
  0
ARC
  5
34089
  8
0
 10
3153.6819412903460034
 20
101.6464569493620047
 30
0.0
 40
0.040453267336601
 50
282.1393853763108837
 51
77.4234129126552801
  0
ARC
  5
3408A
  8
0
 10
3153.6825650337559637
 20
101.7249117592705971
 30
0.0
 40
0.0398223687649493
 50
281.8605836209310951
 51
80.8894547441366569
  0
ARC
  5
3408B
  8
0
 10
3153.682305973739858
 20
101.8037369370272955
 30
0.0
 40
0.0400468764703818
 50
279.4345614980719006
 51
79.5764670587313105
  0
ARC
  5
3408C
  8
0
 10
3153.6822566450518934
 20
101.8825517237200984
 30
0.0
 40
0.0400979169929978
 50
280.4817902959857747
 51
75.5539169307574525
  0
ARC
  5
3408D
  8
0
 10
3153.6815644128050735
 20
101.9608021700280034
 30
0.0
 40
0.0408454754942856
 50
285.1798997312041024
 51
77.889955503835921
  0
ARC
  5
3408E
  8
0
 10
3153.6826247444000728
 20
102.0400833610111988
 30
0.0
 40
0.0400547479545301
 50
280.8045556125914004
 51
79.1556051504092864
  0
ARC
  5
3408F
  8
0
 10
3153.6819176166368379
 20
102.1190097352785955
 30
0.0
 40
0.0404360528528231
 50
281.7625255285884123
 51
77.1239058838911262
  0
ARC
  5
34090
  8
0
 10
3153.6822801160510608
 20
102.1975652148885985
 30
0.0
 40
0.0400804038929153
 50
282.4610845485253208
 51
77.0486036843579285
  0
ARC
  5
34091
  8
0
 10
3153.6816148869161225
 20
102.2761935063111025
 30
0.0
 40
0.0407268490365007
 50
283.7036997798072093
 51
76.9651037566658829
  0
ARC
  5
34092
  8
0
 10
3153.6813957968829527
 20
102.3546858664019936
 30
0.0
 40
0.0399380613650334
 50
283.6201998521084988
 51
80.0402836967014366
  0
ARC
  5
34093
  8
0
 10
3153.6822529889382167
 20
102.433707433942601
 30
0.0
 40
0.0401439473805771
 50
278.6684068470185025
 51
76.4053072036643357
  0
ARC
  5
34094
  8
0
 10
3153.6819482796367993
 20
102.512122039922204
 30
0.0
 40
0.0405817179727974
 50
283.8880170803977876
 51
78.5487683512770332
  0
ARC
  5
34095
  8
0
 10
3153.6822350354468654
 20
102.5912586972769986
 30
0.0
 40
0.0401223241394674
 50
281.1664505238807124
 51
77.997349315997738
  0
ARC
  5
34096
  8
0
 10
3153.6828895234721131
 20
102.6697333775880026
 30
0.0
 40
0.0399759774420181
 50
281.0897382274114875
 51
80.8472309196680641
  0
ARC
  5
34097
  8
0
 10
3153.6824188008040437
 20
102.748554335890006
 30
0.0
 40
0.0399421837356466
 50
279.8452152052727229
 51
80.2346691624854884
  0
ARC
  5
34098
  8
0
 10
3153.6822066276681653
 20
102.8274654991863031
 30
0.0
 40
0.0401601586067585
 50
280.0190604642569951
 51
78.7888817370169221
  0
ARC
  5
34099
  8
0
 10
3153.6817571921419585
 20
102.9066562276546932
 30
0.0
 40
0.0406445917270497
 50
281.7221065928753205
 51
75.7657735713950871
  0
ARC
  5
3409A
  8
0
 10
3153.6824085356620344
 20
102.984918050012098
 30
0.0
 40
0.0399722207020666
 50
283.5166307114308211
 51
79.6345460534989229
  0
ARC
  5
3409B
  8
0
 10
3153.6821824602370725
 20
103.0636979379803932
 30
0.0
 40
0.0401512238980833
 50
280.6468209054002045
 51
78.7336211988008614
  0
ARC
  5
3409C
  8
0
 10
3153.6824548933591359
 20
103.1422790089038983
 30
0.0
 40
0.0399281245398297
 50
280.9317311383177866
 51
80.2415232959739484
  0
ARC
  5
3409D
  8
0
 10
3153.6822708553650045
 20
103.2211311878781004
 30
0.0
 40
0.0401088006906544
 50
279.9809226175505046
 51
75.6605074813249701
  0
ARC
  5
3409E
  8
0
 10
3153.6814362827908553
 20
103.2994598470911001
 30
0.0
 40
0.040911985333036
 50
285.2602550483993014
 51
77.3983181744318927
  0
ARC
  5
3409F
  8
0
 10
3153.6822690180060818
 20
103.3786421144395007
 30
0.0
 40
0.0400814068161084
 50
281.6490713679975784
 51
79.089229622231727
  0
ARC
  5
340A0
  8
0
 10
3153.6805595484120204
 20
103.4572019430024028
 30
0.0
 40
0.0402900699941606
 50
283.3399828157752154
 51
77.6990712821093865
  0
ARC
  5
340A1
  8
0
 10
3153.6822996367009182
 20
103.5360704865272936
 30
0.0
 40
0.0400918533976914
 50
279.8283463724429794
 51
79.2422119606904118
  0
ARC
  5
340A2
  8
0
 10
3153.6818538526122211
 20
103.6148835876315957
 30
0.0
 40
0.0402153106443736
 50
281.371487051033796
 51
78.2844262957813726
  0
ARC
  5
340A3
  8
0
 10
3153.6827201607388815
 20
103.693266800037506
 30
0.0
 40
0.039682824685631
 50
280.5997654994511095
 51
82.1426433935026807
  0
ARC
  5
340A4
  8
0
 10
3153.6826007678369024
 20
103.771963828578194
 30
0.0
 40
0.0397750792242819
 50
278.0126611307401276
 51
81.8262256425416297
  0
ARC
  5
340A5
  8
0
 10
3153.6823722528429244
 20
103.8508845262107059
 30
0.0
 40
0.0399849142902822
 50
278.4614988123561261
 51
80.1684708617153632
  0
ARC
  5
340A6
  8
0
 10
3153.6823090652878818
 20
103.9298643420155059
 30
0.0
 40
0.0401774244361814
 50
279.8754093029526189
 51
78.6707599176884429
  0
ARC
  5
340A7
  8
0
 10
3153.6822976793400812
 20
104.0085692743782033
 30
0.0
 40
0.040097146005158
 50
281.3688183641810951
 51
77.194983996708217
  0
ARC
  5
340A8
  8
0
 10
3153.6818979201661932
 20
104.0870567149229942
 30
0.0
 40
0.0404674918949969
 50
283.2666986382524215
 51
77.9842952250502321
  0
ARC
  5
340A9
  8
0
 10
3153.6821892752550411
 20
104.165982576120598
 30
0.0
 40
0.0401768144134246
 50
281.6793373234102091
 51
76.5766322716165035
  0
ARC
  5
340AA
  8
0
 10
3153.6818225434581109
 20
104.2444257084773938
 30
0.0
 40
0.0405398761995336
 50
283.8341247998769745
 51
75.3144902158658596
  0
ARC
  5
340AB
  8
0
 10
3153.6809775394158351
 20
104.3234889605492981
 30
0.0
 40
0.0413708829206064
 50
285.59561723697351
 51
74.7331719896013595
  0
ARC
  5
340AC
  8
0
 10
3153.6824222139821359
 20
104.4022535954448045
 30
0.0
 40
0.0399861680719809
 50
283.6684868609265209
 51
79.5684007738090742
  0
ARC
  5
340AD
  8
0
 10
3153.6822831757881431
 20
104.4810084837411068
 30
0.0
 40
0.0401141447370023
 50
280.5999206210411785
 51
77.341326790451177
  0
ARC
  5
340AE
  8
0
 10
3153.682246909756941
 20
104.5594355081587992
 30
0.0
 40
0.0402673290115269
 50
282.6626061373315224
 51
79.527091677057868
  0
ARC
  5
340AF
  8
0
 10
3153.6822316362950005
 20
104.638487435497197
 30
0.0
 40
0.0401313754355773
 50
280.5309688868422882
 51
77.6947930001222602
  0
ARC
  5
340B0
  8
0
 10
3153.6820137116537808
 20
104.7170370064107061
 30
0.0
 40
0.0403059997096868
 50
282.5682611819062799
 51
74.4892516218113627
  0
ARC
  5
340B1
  8
0
 10
3153.6815961647639597
 20
104.7951417348695031
 30
0.0
 40
0.0408316578258765
 50
285.9144942280660189
 51
78.9584525841760012
  0
ARC
  5
340B2
  8
0
 10
3153.6821492079379823
 20
104.8747828032273048
 30
0.0
 40
0.0402271092299681
 50
280.4076803007798731
 51
79.5923196992199991
  0
ARC
  5
340B3
  8
0
 10
3153.6817468920648935
 20
104.9536514377203957
 30
0.0
 40
0.0400446554150107
 50
281.0415474158240272
 51
76.931411097137314
  0
ARC
  5
340B4
  8
0
 10
3153.6822559761790217
 20
105.0318666363584015
 30
0.0
 40
0.0401282016558284
 50
282.2958782363456862
 51
80.0080406029124447
  0
ARC
  5
340B5
  8
0
 10
3153.6822795007410605
 20
105.1108980116492972
 30
0.0
 40
0.0401165348594334
 50
279.9607805634657893
 51
76.5722692030825556
  0
ARC
  5
340B6
  8
0
 10
3153.6818402332560254
 20
105.1892836279704966
 30
0.0
 40
0.0405564012201516
 50
283.9178898948675851
 51
75.418811875250455
  0
ARC
  5
340B7
  8
0
 10
3153.6818127288320284
 20
105.2679190325902994
 30
0.0
 40
0.0406940681319472
 50
284.5707813904609793
 51
76.7157658528249868
  0
ARC
  5
340B8
  8
0
 10
3153.681963086793985
 20
105.3469004530938946
 30
0.0
 40
0.0404368100174411
 50
283.151429270107883
 51
77.4846446556237822
  0
ARC
  5
340B9
  8
0
 10
3153.6809687004160878
 20
105.4257431483994054
 30
0.0
 40
0.0405578794113214
 50
283.9203080728865984
 51
76.1504983962243926
  0
ARC
  5
340BA
  8
0
 10
3153.6823285302630211
 20
105.5043202617178935
 30
0.0
 40
0.0400775379231732
 50
282.023412647785392
 51
80.7381859832624258
  0
ARC
  5
340BB
  8
0
 10
3153.6827494115250374
 20
105.5831095261152939
 30
0.0
 40
0.0396948023892926
 50
278.736759311302194
 51
86.0441162169105382
  0
ARC
  5
340BC
  8
0
 10
3153.6826888616769793
 20
105.662301046986201
 30
0.0
 40
0.0396901124133371
 50
274.0439738792308049
 51
77.5374081561081994
  0
ARC
  5
340BD
  8
0
 10
3153.6813450466638642
 20
105.740905100767506
 30
0.0
 40
0.0410626833798071
 50
283.9641443122379201
 51
72.990499604520096
  0
ARC
  5
340BE
  8
0
 10
3153.6809832906701558
 20
105.8197354127086953
 30
0.0
 40
0.0414537221229756
 50
287.3673838139931718
 51
68.1297600462305439
  0
ARC
  5
340BF
  8
0
 10
3153.679026186901865
 20
105.8979102090972049
 30
0.0
 40
0.0433493696648259
 50
293.6634467883712887
 51
62.6602299653385302
  0
ARC
  5
340C0
  8
0
 10
3153.6820812267419569
 20
100.3863750287355003
 30
0.0
 40
0.0402787691100632
 50
356.9364225798265124
 51
76.8185824626110048
  0
ARC
  5
340C1
  8
0
 10
3152.5585829616470619
 20
100.3373995389549975
 30
0.0
 40
0.0505509487346219
 50
102.9743268334372033
 51
112.142354114231793
  0
LINE
  5
340C2
  8
0
 10
3152.5472335439640119
 20
100.3866599605552068
 30
0.0
 11
3153.6912661999640477
 21
100.4255925695552065
 31
0.0
  0
LINE
  5
340C3
  8
0
 10
3153.6896609869140775
 20
100.5045660150050963
 30
0.0
 11
3152.5474834198639655
 21
100.4654504632550953
 31
0.0
  0
LINE
  5
340C4
  8
0
 10
3152.5467911752962209
 20
100.5440294225233941
 30
0.0
 11
3153.6903172784641356
 21
100.5833215209551952
 31
0.0
  0
LINE
  5
340C5
  8
0
 10
3153.689873442112912
 20
100.6621005910050997
 30
0.0
 11
3152.547062671113963
 21
100.6228430746551936
 31
0.0
  0
LINE
  5
340C6
  8
0
 10
3152.5473836169639981
 20
100.701649032805193
 30
0.0
 11
3153.6895285541640988
 21
100.7407615885051939
 31
0.0
  0
LINE
  5
340C7
  8
0
 10
3152.5467750418638389
 20
100.7802539652549996
 30
0.0
 11
3153.6907362684128202
 21
100.8197911742052071
 31
0.0
  0
LINE
  5
340C8
  8
0
 10
3153.6888496369638233
 20
100.8980882708550979
 30
0.0
 11
3152.5466405315128213
 21
100.8589579874550992
 31
0.0
  0
LINE
  5
340C9
  8
0
 10
3152.5464586224638879
 20
100.9376530442551001
 30
0.0
 11
3153.6906929388637764
 21
100.9769342342051033
 31
0.0
  0
LINE
  5
340CA
  8
0
 10
3153.6914770497628524
 20
101.0562052434550964
 30
0.0
 11
3152.5462088444642177
 21
101.0166122063552052
 31
0.0
  0
LINE
  5
340CB
  8
0
 10
3152.5469315022628507
 20
101.0952526377551948
 30
0.0
 11
3153.6906304950639424
 21
101.1347289707551056
 31
0.0
  0
LINE
  5
340CC
  8
0
 10
3153.6906130856627897
 20
101.2134634086551017
 30
0.0
 11
3152.5463261366630832
 21
101.1740552269551046
 31
0.0
  0
LINE
  5
340CD
  8
0
 10
3152.5476792453641792
 20
101.2528981924551061
 30
0.0
 11
3153.6917283297138965
 21
101.2916175548051996
 31
0.0
  0
LINE
  5
340CE
  8
0
 10
3153.6900056420640794
 20
101.3707975024551047
 30
0.0
 11
3152.5470469349138511
 21
101.3314989909550974
 31
0.0
  0
LINE
  5
340CF
  8
0
 10
3152.5463806146640309
 20
101.4102715927550946
 30
0.0
 11
3153.6905393930637729
 21
101.4494146292552017
 31
0.0
  0
LINE
  5
340D0
  8
0
 10
3153.689907535113889
 20
101.5282445711550992
 30
0.0
 11
3152.547673964364094
 21
101.4891265699551042
 31
0.0
  0
LINE
  5
340D1
  8
0
 10
3152.5459154122640939
 20
101.5674319569551045
 30
0.0
 11
3153.6904482340642062
 21
101.6069082610550964
 31
0.0
  0
LINE
  5
340D2
  8
0
 10
3153.6907497640640941
 20
101.6859395737552063
 30
0.0
 11
3152.5454279152140771
 21
101.6460431137551979
 31
0.0
  0
LINE
  5
340D3
  8
0
 10
3152.54636461766313
 20
101.7252357423551956
 30
0.0
 11
3153.6888704995631088
 21
101.7642317561550982
 31
0.0
  0
LINE
  5
340D4
  8
0
 10
3153.6895513791641861
 20
101.8431229296551948
 30
0.0
 11
3152.5469112812629646
 21
101.8039083831051954
 31
0.0
  0
LINE
  5
340D5
  8
0
 10
3152.5473029173640498
 20
101.8827380862552019
 30
0.0
 11
3153.6922598258629478
 21
101.9213818579052031
 31
0.0
  0
LINE
  5
340D6
  8
0
 10
3153.690133384064211
 20
102.0007386896551935
 30
0.0
 11
3152.5467837218698151
 21
101.9613489434024984
 31
0.0
  0
LINE
  5
340D7
  8
0
 10
3152.5473978841641838
 20
102.0402397255550966
 30
0.0
 11
3152.5473978841641838
 21
102.0402397255551961
 31
0.0
  0
LINE
  5
340D8
  8
0
 10
3152.5473978841641838
 20
102.0402397255551961
 30
0.0
 11
3153.6901607396139298
 21
102.0794228019051957
 31
0.0
  0
LINE
  5
340D9
  8
0
 10
3153.6909285237629774
 20
102.1584289935551055
 30
0.0
 11
3152.5482078285640455
 21
102.1191622903552059
 31
0.0
  0
LINE
  5
340DA
  8
0
 10
3153.6912631133641298
 20
102.2366259949051965
 30
0.0
 11
3152.5464114363130648
 21
102.1974866091551064
 31
0.0
  0
LINE
  5
340DB
  8
0
 10
3152.5474831151641411
 20
102.2764804490551995
 30
0.0
 11
3153.6908006019639288
 21
102.3158709416050982
 31
0.0
  0
LINE
  5
340DC
  8
0
 10
3153.6883033135641199
 20
102.3940220451550971
 30
0.0
 11
3152.5471196611629239
 21
102.355131623255204
 31
0.0
  0
LINE
  5
340DD
  8
0
 10
3152.5467870658580978
 20
102.4337915037320954
 30
0.0
 11
3153.6916889073140737
 21
102.4727266594050974
 31
0.0
  0
LINE
  5
340DE
  8
0
 10
3153.6900051215638996
 20
102.5518959400552035
 30
0.0
 11
3152.5464758257139692
 21
102.5124594722050944
 31
0.0
  0
LINE
  5
340DF
  8
0
 10
3152.54816214206312
 20
102.5915984548553013
 30
0.0
 11
3153.6905787513142059
 21
102.6305038664051068
 31
0.0
  0
LINE
  5
340E0
  8
0
 10
3153.6892483983638158
 20
102.7092003699052043
 30
0.0
 11
3152.5470251731640019
 21
102.670071690455103
 31
0.0
  0
LINE
  5
340E1
  8
0
 10
3152.5472809654638695
 20
102.7488767580551041
 30
0.0
 11
3153.6891935226640271
 21
102.787917785755198
 31
0.0
  0
LINE
  5
340E2
  8
0
 10
3153.6900147545447908
 20
102.8668592993836057
 30
0.0
 11
3152.5471851838128714
 21
102.8275893754552044
 31
0.0
  0
LINE
  5
340E3
  8
0
 10
3152.5458359320641648
 20
102.9059952101550977
 30
0.0
 11
3153.6917511466640462
 21
102.9460529751051041
 31
0.0
  0
LINE
  5
340E4
  8
0
 10
3153.6896005804628658
 20
103.0242379294551966
 30
0.0
 11
3152.545745460964099
 21
102.9847171481551982
 31
0.0
  0
LINE
  5
340E5
  8
0
 10
3152.5469090040642186
 20
103.0637495151551946
 30
0.0
 11
3153.6900268323629462
 21
103.1030754265551934
 31
0.0
  0
LINE
  5
340E6
  8
0
 10
3153.6892225232641067
 20
103.181629413155207
 30
0.0
 11
3152.545961251064
 21
103.1422458244551024
 31
0.0
  0
LINE
  5
340E7
  8
0
 10
3152.5473015071638656
 20
103.2213154444551009
 30
0.0
 11
3153.692204476563802
 21
103.2599904089551046
 31
0.0
  0
LINE
  5
340E8
  8
0
 10
3153.6903621278638639
 20
103.3393862773551035
 30
0.0
 11
3152.5465113629138614
 21
103.2998724047051979
 31
0.0
  0
LINE
  5
340E9
  8
0
 10
3152.5449181644639793
 20
103.3781952069550982
 30
0.0
 11
3153.6898556277637908
 21
103.4179989756551947
 31
0.0
  0
LINE
  5
340EA
  8
0
 10
3153.6891431956628367
 20
103.496567038455197
 30
0.0
 11
3152.5474473476638195
 21
103.4575739148551037
 31
0.0
  0
LINE
  5
340EB
  8
0
 10
3152.5469742651639535
 20
103.5361968685051011
 30
0.0
 11
3153.6897830848638478
 21
103.575457727005201
 31
0.0
  0
LINE
  5
340EC
  8
0
 10
3153.6900197102931998
 20
103.6542611190239001
 30
0.0
 11
3152.5463511428629317
 21
103.6147889244551976
 31
0.0
  0
LINE
  5
340ED
  8
0
 10
3152.5460829651128734
 20
103.6934596315551005
 30
0.0
 11
3153.6881450927139667
 21
103.7325770619051042
 31
0.0
  0
LINE
  5
340EE
  8
0
 10
3153.6882558245138171
 20
103.8113348491552017
 30
0.0
 11
3152.5469634808641786
 21
103.7724254211551056
 31
0.0
  0
LINE
  5
340EF
  8
0
 10
3152.547433226764042
 20
103.8512710837551936
 30
0.0
 11
3153.6891997461630126
 21
103.8902822254548965
 31
0.0
  0
LINE
  5
340F0
  8
0
 10
3153.6902017821648769
 20
103.9692588905554942
 30
0.0
 11
3152.5464536296649385
 21
103.9297711811550045
 31
0.0
  0
LINE
  5
340F1
  8
0
 10
3152.5478233686139902
 20
104.0088351182551065
 30
0.0
 11
3153.6911845648642156
 21
104.0476692025550989
 31
0.0
  0
LINE
  5
340F2
  8
0
 10
3153.6903224342631802
 20
104.1266375873551056
 30
0.0
 11
3152.547589565862836
 21
104.0875268257551056
 31
0.0
  0
LINE
  5
340F3
  8
0
 10
3152.5460201844630319
 20
104.1662687071051039
 30
0.0
 11
3153.6915161067631743
 21
104.2050618114051019
 31
0.0
  0
LINE
  5
340F4
  8
0
 10
3153.6920999417638996
 20
104.2836412238551986
 30
0.0
 11
3152.5466004076638455
 21
104.2447684441051052
 31
0.0
  0
LINE
  5
340F5
  8
0
 10
3152.5459301460641655
 20
104.3237667142052061
 30
0.0
 11
3153.6918710954641938
 21
104.3633998662050999
 31
0.0
  0
LINE
  5
340F6
  8
0
 10
3153.6896621722639793
 20
104.4415788626551063
 30
0.0
 11
3152.5469834016130335
 21
104.4023405854552067
 31
0.0
  0
LINE
  5
340F7
  8
0
 10
3152.5469885158640864
 20
104.4810883662550935
 30
0.0
 11
3153.6910738899628086
 21
104.5201475684552008
 31
0.0
  0
LINE
  5
340F8
  8
0
 10
3153.6895663256641456
 20
104.5990320223552033
 30
0.0
 11
3152.5457571241640835
 21
104.5595215893551
 31
0.0
  0
LINE
  5
340F9
  8
0
 10
3152.5473268352138803
 20
104.6386491589551042
 30
0.0
 11
3153.6907844020638549
 21
104.6776968411550968
 31
0.0
  0
LINE
  5
340FA
  8
0
 10
3153.6927923075631952
 20
104.7558750738549946
 30
0.0
 11
3152.5474139174639276
 21
104.7174029430551059
 31
0.0
  0
LINE
  5
340FB
  8
0
 10
3152.5462408558641982
 20
104.7961352012550975
 30
0.0
 11
3153.6894162749631505
 21
104.8352175400051038
 31
0.0
  0
LINE
  5
340FC
  8
0
 10
3153.68941627496406
 20
104.9143480664495058
 30
0.0
 11
3152.5473746252628189
 21
104.8748829109551934
 31
0.0
  0
LINE
  5
340FD
  8
0
 10
3152.5458677449641982
 20
104.9532528223551964
 30
0.0
 11
3153.690801681963876
 21
104.9926589396551009
 31
0.0
  0
LINE
  5
340FE
  8
0
 10
3153.6892186193640555
 20
105.0713861779551053
 30
0.0
 11
3152.546070091564161
 21
105.0320414947552052
 31
0.0
  0
LINE
  5
340FF
  8
0
 10
3152.5461557260127847
 20
105.1107959067052064
 30
0.0
 11
3153.6915953100638035
 21
105.1499179048551014
 31
0.0
  0
LINE
  5
34100
  8
0
 10
3153.6920503728638323
 20
105.2285337837550969
 30
0.0
 11
3152.5467859964091986
 21
105.1896970763441033
 31
0.0
  0
LINE
  5
34101
  8
0
 10
3152.5471714852628793
 20
105.2685290689050959
 30
0.0
 11
3153.6911634908638007
 21
105.3075242144551993
 31
0.0
  0
LINE
  5
34102
  8
0
 10
3153.6907257942630167
 20
105.3863764022550953
 30
0.0
 11
3152.5461529272638472
 21
105.3470254927551935
 31
0.0
  0
LINE
  5
34103
  8
0
 10
3152.5461943958639495
 20
105.4257701631050992
 30
0.0
 11
3153.6906771371641298
 21
105.4651219223550953
 31
0.0
  0
LINE
  5
34104
  8
0
 10
3153.6887788526628356
 20
105.5438753168552068
 30
0.0
 11
3152.5462532690639819
 21
105.5045698582550955
 31
0.0
  0
LINE
  5
34105
  8
0
 10
3152.542956277164194
 20
105.5831699954551937
 30
0.0
 11
3153.6854878906619888
 21
105.6227097542549984
 31
0.0
  0
ARC
  5
34106
  8
0
 10
3153.6770216930899551
 20
105.9761651342189026
 30
0.0
 40
0.0453880999300951
 50
298.8684657773802087
 51
59.6377680967090171
  0
ARC
  5
34107
  8
0
 10
3153.6761191510991011
 20
106.054992577552099
 30
0.0
 40
0.0462799740472654
 50
301.0125576507862206
 51
56.2965212208612087
  0
ARC
  5
34108
  8
0
 10
3153.6742770368650781
 20
106.1331376557344015
 30
0.0
 40
0.0482610424374856
 50
304.7702307559807764
 51
53.6920859279561498
  0
ARC
  5
34109
  8
0
 10
3153.6751397485591042
 20
106.2113934990930062
 30
0.0
 40
0.048141957564824
 50
305.146497653145218
 51
50.7495087739779223
  0
ARC
  5
3410A
  8
0
 10
3153.6676565015700362
 20
106.2881588527133943
 30
0.0
 40
0.0547607686949758
 50
313.8593885794629159
 51
45.2447961136258527
  0
ARC
  5
3410B
  8
0
 10
3153.6665524963068492
 20
106.3663509344900007
 30
0.0
 40
0.0558373993986655
 50
315.2573177248746106
 51
41.7324535178117486
  0
ARC
  5
3410C
  8
0
 10
3153.6623088895880755
 20
106.4428979186687059
 30
0.0
 40
0.0604869525573462
 50
319.3809174099574193
 51
40.6190825900406978
  0
ARC
  5
3410D
  8
0
 10
3153.6619366343161346
 20
106.5212486357321069
 30
0.0
 40
0.0605073358495557
 50
319.9026374864172908
 51
37.8427427742066982
  0
ARC
  5
3410E
  8
0
 10
3153.6551037651679508
 20
106.5978714285384967
 30
0.0
 40
0.0674034673140372
 50
324.1228378236583012
 51
33.8806340159128467
  0
ARC
  5
3410F
  8
0
 10
3153.6517812705292272
 20
106.6737417940047976
 30
0.0
 40
0.070574480957908
 50
327.1376361130152759
 51
32.1014021108771814
  0
ARC
  5
34110
  8
0
 10
3153.6482650720649872
 20
106.7498627781029938
 30
0.0
 40
0.0741496558245169
 50
328.6147936256970752
 51
30.22877806631341
  0
ARC
  5
34111
  8
0
 10
3153.6438532279557876
 20
106.8256811126207992
 30
0.0
 40
0.0785533131815124
 50
330.6625381640661203
 51
28.2065815512968605
  0
ARC
  5
34112
  8
0
 10
3153.6405436230302257
 20
106.9011280629352996
 30
0.0
 40
0.0820340645892643
 50
332.1534225753816258
 51
26.6068041884754116
  0
ARC
  5
34113
  8
0
 10
3153.6334152961899235
 20
106.9758578760668968
 30
0.0
 40
0.0889912751820527
 50
334.729562153230404
 51
24.519404577239829
  0
ARC
  5
34114
  8
0
 10
3153.6292800302680917
 20
107.0506438670695957
 30
0.0
 40
0.0931407887307728
 50
336.019717689907111
 51
23.1454648398076799
  0
ARC
  5
34115
  8
0
 10
3153.6117937389699364
 20
107.1272798921921066
 30
0.0
 40
0.1106249035256686
 50
338.7884543307732201
 51
19.1567711420935787
  0
ARC
  5
34116
  8
0
 10
3153.6153854793269602
 20
107.1992124033300939
 30
0.0
 40
0.1070130856320597
 50
340.5517918222407729
 51
19.4482081777623002
  0
ARC
  5
34117
  8
0
 10
3153.6092983887087939
 20
107.2715630565695051
 30
0.0
 40
0.1131200810026517
 50
341.0579222954618217
 51
18.659732285271879
  0
ARC
  5
34118
  8
0
 10
3153.599685006809068
 20
107.3454042938387971
 30
0.0
 40
0.1227058087804532
 50
342.1322152713665901
 51
16.9543598151685089
  0
ARC
  5
34119
  8
0
 10
3153.6014888452791638
 20
107.4170019338610018
 30
0.0
 40
0.1209913358014609
 50
342.7815056988977744
 51
17.0185827306331312
  0
ARC
  5
3411A
  8
0
 10
3153.5995866334178572
 20
107.4887129121557052
 30
0.0
 40
0.1230702160503996
 50
342.8457286143639067
 51
16.5852192473076414
  0
ARC
  5
3411B
  8
0
 10
3153.5859521304701047
 20
107.5599049462077943
 30
0.0
 40
0.1364368374579375
 50
344.6735592366583205
 51
14.8341431728401592
  0
ARC
  5
3411C
  8
0
 10
3153.5801684840048438
 20
107.630627060561693
 30
0.0
 40
0.1422495052812273
 50
345.4272356321188227
 51
14.0993310375895398
  0
ARC
  5
3411D
  8
0
 10
3153.5736667532860338
 20
107.7007297164163049
 30
0.0
 40
0.1487518869665732
 50
346.2127512310203201
 51
13.3501980308343509
  0
ARC
  5
3411E
  8
0
 10
3153.5668247901239738
 20
107.7702214914839942
 30
0.0
 40
0.155595175599732
 50
346.9458273285426912
 51
12.68540187019161
  0
ARC
  5
3411F
  8
0
 10
3153.5608276541870509
 20
107.8392205951493992
 30
0.0
 40
0.1615927856988908
 50
347.5524051041692246
 51
12.2759237291071397
  0
ARC
  5
34120
  8
0
 10
3153.5567758477750431
 20
107.9080682432794021
 30
0.0
 40
0.1655816327615498
 50
347.977547950753376
 51
11.3785246068131993
  0
ARC
  5
34121
  8
0
 10
3153.5449225745410331
 20
107.9748891198590997
 30
0.0
 40
0.1774972387573592
 50
348.9061926045458222
 51
10.7427903142344299
  0
ARC
  5
34122
  8
0
 10
3153.5367981803001385
 20
108.041778137273397
 30
0.0
 40
0.185614824143758
 50
349.5069554365115891
 51
10.1507223085642302
  0
ARC
  5
34123
  8
0
 10
3153.5293035484501161
 20
108.1079275344449968
 30
0.0
 40
0.193120795694054
 50
350.0295527190882012
 51
9.6668969389586774
  0
ARC
  5
34124
  8
0
 10
3153.5212796757928118
 20
108.1734245061010995
 30
0.0
 40
0.2011393707854334
 50
350.5373754406538751
 51
9.1678439879531268
  0
ARC
  5
34125
  8
0
 10
3153.5132674096280425
 20
108.2381572088983006
 30
0.0
 40
0.2091520588236679
 50
351.0091113953449735
 51
8.7135949483553539
  0
ARC
  5
34126
  8
0
 10
3153.5056583259301988
 20
108.302134400202803
 30
0.0
 40
0.2167658402431666
 50
351.4327541446247096
 51
8.3047882023305597
  0
ARC
  5
34127
  8
0
 10
3153.4959613615201306
 20
108.365338981077997
 30
0.0
 40
0.2264472121616444
 50
351.902946390604086
 51
7.8526182693039797
  0
ARC
  5
34128
  8
0
 10
3153.4894235964748077
 20
108.4277622414506936
 30
0.0
 40
0.2329985874089051
 50
352.233931081803405
 51
7.5330329815914912
  0
ARC
  5
34129
  8
0
 10
3153.4814782647049469
 20
108.4893772134497993
 30
0.0
 40
0.2409445792107181
 50
352.5911814062704934
 51
7.1877745166320777
  0
ARC
  5
3412A
  8
0
 10
3153.4748502494171589
 20
108.5501653499876937
 30
0.0
 40
0.2475824787902233
 50
352.8908534079907895
 51
6.899012320334359
  0
ARC
  5
3412B
  8
0
 10
3153.4653706623330436
 20
108.6101160367786065
 30
0.0
 40
0.257050951984863
 50
353.2504382401579051
 51
6.5379813698973646
  0
ARC
  5
3412C
  8
0
 10
3153.4580802240898265
 20
108.6691480359205002
 30
0.0
 40
0.2643506025828274
 50
353.5352573209025877
 51
6.2719724491674889
  0
ARC
  5
3412D
  8
0
 10
3153.4484052989791962
 20
108.7273405928507941
 30
0.0
 40
0.2740156356854194
 50
353.8590461496024773
 51
5.9578294657494384
  0
ARC
  5
3412E
  8
0
 10
3152.6841103568731342
 20
105.6118180183353985
 30
0.0
 40
0.3226179662884435
 50
96.4951819515836604
 51
117.5515650048476033
  0
ARC
  5
3412F
  8
0
 10
3153.0817706595930758
 20
102.9265517978329996
 30
0.0
 40
3.037005871621711
 50
92.5796265303045942
 51
98.2188673357075288
  0
ARC
  5
34130
  8
0
 10
3153.2207010669640113
 20
101.4280861777819069
 30
0.0
 40
4.5407665060182421
 50
86.5200735220534654
 51
93.4799264779465346
  0
ARC
  5
34131
  8
0
 10
3153.3841322112848502
 20
104.150754870283393
 30
0.0
 40
1.8131992467231819
 50
80.0017925823552645
 51
86.4526711770357537
  0
ARC
  5
34132
  8
0
 10
3153.3751773493149813
 20
98.0888799426646472
 30
0.0
 40
7.6187353279042691
 50
87.6223007492531138
 51
96.2917065503364142
  0
ARC
  5
34133
  8
0
 10
3153.2999423426608701
 20
100.2652261658705015
 30
0.0
 40
5.5289599174661896
 50
85.9196536889914881
 51
97.8929229714519238
  0
ARC
  5
34134
  8
0
 10
3152.8216917928439216
 20
104.9415250402772983
 30
0.0
 40
0.9224278109864311
 50
91.9458089719548184
 51
108.073092938169907
  0
ARC
  5
34135
  8
0
 10
3153.2975382663357777
 20
98.8206999408758975
 30
0.0
 40
7.0609586921478114
 50
90.0891151971649435
 51
94.1189254017876635
  0
ARC
  5
34136
  8
0
 10
3153.3591706269721726
 20
103.5566310802698951
 30
0.0
 40
2.3261526805104751
 50
81.6636598918764776
 51
91.7888716724278169
  0
ARC
  5
34137
  8
0
 10
3152.6634963330748178
 20
105.7768603680247992
 30
0.0
 40
0.2380353047837707
 50
98.5048570600292805
 51
123.1503377743648997
  0
ARC
  5
34138
  8
0
 10
3153.0543230266471255
 20
103.6376172389843049
 30
0.0
 40
2.4125745771262701
 50
92.6736931686733811
 51
100.1710539412212029
  0
ARC
  5
34139
  8
0
 10
3153.2491084310840961
 20
100.7702134856995997
 30
0.0
 40
5.2862930136532711
 50
88.788328254631935
 51
93.3328570757164044
  0
ARC
  5
3413A
  8
0
 10
3153.3875317366000672
 20
104.8239135722023008
 30
0.0
 40
1.2316989974914601
 50
75.3058358076813334
 51
91.2392765988333565
  0
ARC
  5
3413B
  8
0
 10
3152.6314969771569849
 20
105.9371435662624066
 30
0.0
 40
0.1538767032177321
 50
102.8667936115603965
 51
130.3404948597203088
  0
ARC
  5
3413C
  8
0
 10
3152.9342793803471068
 20
104.7716786466028935
 30
0.0
 40
1.3579704045120451
 50
94.695257146133585
 51
104.3710319073315986
  0
ARC
  5
3413D
  8
0
 10
3153.2296986605169877
 20
101.736965558728798
 30
0.0
 40
4.4069216180637278
 50
87.6556631084303888
 51
95.2935678016794583
  0
ARC
  5
3413E
  8
0
 10
3153.3500067377758569
 20
104.3639309691652954
 30
0.0
 40
1.777279414550603
 50
81.1855585348097719
 51
88.0667455510637041
  0
ARC
  5
3413F
  8
0
 10
3153.5938955900201108
 20
105.9041790485690058
 30
0.0
 40
0.2179068132735977
 50
60.3180803378676629
 51
82.4973845182784089
  0
ARC
  5
34140
  8
0
 10
3152.6534940511401146
 20
105.9907944624462033
 30
0.0
 40
0.1876186404191963
 50
103.6990871053251055
 51
130.9487439881928026
  0
ARC
  5
34141
  8
0
 10
3152.9536899006911881
 20
104.8629297375047003
 30
0.0
 40
1.3547145635507449
 50
95.1767515402606534
 51
104.7375459405623985
  0
ARC
  5
34142
  8
0
 10
3153.216102976582988
 20
102.3408121403031004
 30
0.0
 40
3.8903684305263728
 50
87.2915229304789335
 51
95.6741953265883751
  0
ARC
  5
34143
  8
0
 10
3153.3054478291210216
 20
104.2702124518732063
 30
0.0
 40
1.9589024877694841
 50
81.1439203119303869
 51
87.2351515389252938
  0
ARC
  5
34144
  8
0
 10
3153.5681652939870219
 20
105.9423867254805032
 30
0.0
 40
0.266226121050791
 50
59.6077642574281725
 51
81.6064472834064674
  0
ARC
  5
34145
  8
0
 10
3152.665022062179105
 20
106.0650842725782041
 30
0.0
 40
0.198873423365523
 50
103.7603772932579034
 51
133.0385842282913984
  0
ARC
  5
34146
  8
0
 10
3153.0065563450821173
 20
104.7877079520556975
 30
0.0
 40
1.521081501223986
 50
94.194719264591896
 51
104.8110985159352992
  0
ARC
  5
34147
  8
0
 10
3153.2017449130439672
 20
102.8432701280136001
 30
0.0
 40
3.4749835879697231
 50
85.9695955587151133
 51
95.0593422460175645
  0
ARC
  5
34148
  8
0
 10
3153.3696155365450977
 20
105.1009077439010042
 30
0.0
 40
1.211162217723726
 50
78.6910514486218915
 51
86.3847383428480242
  0
ARC
  5
34149
  8
0
 10
3153.558443556732982
 20
106.0268241656429069
 30
0.0
 40
0.2662185167125735
 50
56.4431131457817301
 51
79.463757630935973
  0
ARC
  5
3414A
  8
0
 10
3152.6675622020347873
 20
106.1525262019751068
 30
0.0
 40
0.1944674896071834
 50
105.8020345906105035
 51
135.9161836818001916
  0
ARC
  5
3414B
  8
0
 10
3152.9886394388831832
 20
105.0723400860132983
 30
0.0
 40
1.3213483306869831
 50
95.3262282625659765
 51
106.4434935213003968
  0
ARC
  5
3414C
  8
0
 10
3153.2176555621781517
 20
102.6158478958681997
 30
0.0
 40
3.7884928876542041
 50
88.4699850881462453
 51
95.3262282625659765
  0
ARC
  5
3414D
  8
0
 10
3153.2693369159960639
 20
104.5507437880173001
 30
0.0
 40
1.852906910285163
 50
81.3526965930766011
 51
88.4699850881462453
  0
ARC
  5
3414E
  8
0
 10
3153.4409615443469193
 20
105.6792564830434031
 30
0.0
 40
0.7114184452134618
 50
73.6097851747405656
 51
81.3526965930766011
  0
ARC
  5
3414F
  8
0
 10
3153.595618060076049
 20
106.1988521553057012
 30
0.0
 40
0.169306480357228
 50
49.2151897451301465
 51
74.2031526234432306
  0
ARC
  5
34150
  8
0
 10
3152.7039120075151004
 20
106.1896170949598002
 30
0.0
 40
0.2494590859012183
 50
103.382052050712403
 51
135.1141031926711946
  0
ARC
  5
34151
  8
0
 10
3153.0158928460518837
 20
105.0836349267657965
 30
0.0
 40
1.398426168057435
 50
95.625313135312382
 51
105.3301380628405042
  0
ARC
  5
34152
  8
0
 10
3153.1915433739841319
 20
103.5435908365736992
 30
0.0
 40
2.9483678472313399
 50
87.7800818004006658
 51
96.0887096520796149
  0
ARC
  5
34153
  8
0
 10
3153.1893110321871063
 20
104.1004407390124982
 30
0.0
 40
2.3921407272027699
 50
80.8831516668807637
 51
87.2100140647027047
  0
ARC
  5
34154
  8
0
 10
3153.5048393418192063
 20
106.0666473118879054
 30
0.0
 40
0.4007777765084318
 50
66.4528140915868306
 51
80.8831516668807637
  0
ARC
  5
34155
  8
0
 10
3153.615540490703097
 20
106.3181043452028973
 30
0.0
 40
0.1260378220331683
 50
42.663616077847287
 51
66.9188127648638584
  0
ARC
  5
34156
  8
0
 10
3152.7268810106988894
 20
106.2481136349238966
 30
0.0
 40
0.2796227372144719
 50
102.6210699027119944
 51
135.9590375578129056
  0
ARC
  5
34157
  8
0
 10
3153.0399310806660651
 20
105.1240352644393994
 30
0.0
 40
1.4461814051327031
 50
95.7022252848543928
 51
104.9938040739377954
  0
ARC
  5
34158
  8
0
 10
3153.1850724175210416
 20
103.8484862506052053
 30
0.0
 40
2.72989694049445
 50
87.1175590618179143
 51
96.0734394537367109
  0
ARC
  5
34159
  8
0
 10
3153.2705293557551158
 20
105.138178863093799
 30
0.0
 40
1.437684745998457
 50
76.6155109636404887
 51
87.9343389724188143
  0
ARC
  5
3415A
  8
0
 10
3153.5618573195179124
 20
106.3289128875417049
 30
0.0
 40
0.2119975780492684
 50
46.3377198057392121
 51
78.7182636564105707
  0
ARC
  5
3415B
  8
0
 10
3152.6997257692760286
 20
106.3789255034475048
 30
0.0
 40
0.2242576462249731
 50
105.9504095849955974
 51
141.0385506611960977
  0
ARC
  5
3415C
  8
0
 10
3152.9911992926950006
 20
105.5292988782191941
 30
0.0
 40
1.122247020517664
 50
97.2932021097996937
 51
108.3389157125211
  0
ARC
  5
3415D
  8
0
 10
3153.1793665540590155
 20
104.1908692491504951
 30
0.0
 40
2.4737919633570131
 50
87.8415026501955936
 51
97.6808149394775569
  0
ARC
  5
3415E
  8
0
 10
3153.2398562793291603
 20
105.1271549011638058
 30
0.0
 40
1.5360987926571199
 50
77.0046340866533541
 51
88.7808428743659164
  0
ARC
  5
3415F
  8
0
 10
3153.5031243728972186
 20
106.2803485849795067
 30
0.0
 40
0.3532497878098389
 50
60.4451328736772027
 51
76.5511423746235522
  0
ARC
  5
34160
  8
0
 10
3153.612226298826954
 20
106.4831085094057954
 30
0.0
 40
0.1231628744341704
 50
37.6669216411497771
 51
58.0687890044446391
  0
ARC
  5
34161
  8
0
 10
3152.6680548367658048
 20
106.5017906844335016
 30
0.0
 40
0.1720264594872526
 50
114.8655813021449035
 51
146.5038838009307085
  0
ARC
  5
34162
  8
0
 10
3152.8774209426601374
 20
106.0649925492068064
 30
0.0
 40
0.6563986471679709
 50
101.9802549537668028
 51
115.4144196178485942
  0
ARC
  5
34163
  8
0
 10
3153.1736036657189288
 20
104.5941942650389933
 30
0.0
 40
2.1566979594179201
 50
86.7745152843888548
 51
101.566645651091207
  0
ARC
  5
34164
  8
0
 10
3153.2433848842788393
 20
105.3453432350778058
 30
0.0
 40
1.403080349004681
 50
76.0014830633088252
 51
87.8937636786866676
  0
ARC
  5
34165
  8
0
 10
3153.5303249058661095
 20
106.4613509202791022
 30
0.0
 40
0.2509486423508549
 50
43.9276696985392121
 51
77.933364954477895
  0
ARC
  5
34166
  8
0
 10
3152.6773521106538283
 20
106.6610026064706034
 30
0.0
 40
0.1776916454991244
 50
117.5312498466598043
 51
150.2103554829182031
  0
ARC
  5
34167
  8
0
 10
3152.8817773502869386
 20
106.2782621987548026
 30
0.0
 40
0.6115975949338432
 50
104.2796267862834014
 51
117.9397918994629038
  0
ARC
  5
34168
  8
0
 10
3153.1035532905348191
 20
105.406906126825902
 30
0.0
 40
1.5107338314186409
 50
96.7884942162053505
 51
104.2796267862834014
  0
ARC
  5
34169
  8
0
 10
3153.1645640468109377
 20
104.8943791682992952
 30
0.0
 40
2.0268793492699069
 50
89.1519731092216432
 51
96.7884942162053505
  0
ARC
  5
3416A
  8
0
 10
3153.1665692579740607
 20
105.0298486307932961
 30
0.0
 40
1.891395047078724
 50
79.8999535027644328
 51
89.1519731092216432
  0
ARC
  5
3416B
  8
0
 10
3153.3962287108429337
 20
106.3191433785955979
 30
0.0
 40
0.5818056415769373
 50
64.5464903862860382
 51
79.8999535027644328
  0
ARC
  5
3416C
  8
0
 10
3153.5703820584049026
 20
106.6850272005354014
 30
0.0
 40
0.176589206046125
 50
45.4480214547020225
 51
64.5464903862860382
  0
ARC
  5
3416D
  8
0
 10
3153.6220585274691075
 20
106.7370431791756999
 30
0.0
 40
0.103268475252789
 50
29.0539272363857108
 51
45.6329260250275794
  0
ARC
  5
3416E
  8
0
 10
3152.6802634764871982
 20
106.8239960239503006
 30
0.0
 40
0.1757453250410452
 50
120.8955379400537993
 51
154.2036212144948877
  0
ARC
  5
3416F
  8
0
 10
3152.8853798947761788
 20
106.4883793837908996
 30
0.0
 40
0.5690735467432715
 50
104.198827085050894
 51
121.2661370139576036
  0
ARC
  5
34170
  8
0
 10
3153.1470087776961009
 20
105.4543430946626046
 30
0.0
 40
1.6356947164245279
 50
92.3360640466099341
 51
104.198827085050894
  0
ARC
  5
34171
  8
0
 10
3153.1528690872391962
 20
105.3106891026911001
 30
0.0
 40
1.7794681932459211
 50
78.4402931843178237
 51
92.3360640466099341
  0
ARC
  5
34172
  8
0
 10
3153.4170090822349266
 20
106.6020888627737975
 30
0.0
 40
0.4613319038970588
 50
56.3951736067896903
 51
78.4402931843178237
  0
ARC
  5
34173
  8
0
 10
3153.6068111255358417
 20
106.8880821969975017
 30
0.0
 40
0.1180873284192907
 50
24.9358878769393506
 51
56.2956813866994068
  0
ARC
  5
34174
  8
0
 10
3152.699639001506057
 20
106.7244164422136947
 30
0.0
 40
0.2036686119376668
 50
113.9721202911195945
 51
150.3905724102012869
  0
ARC
  5
34175
  8
0
 10
3152.993873987454208
 20
106.079299854419105
 30
0.0
 40
0.9127098470437097
 50
97.8804843053155054
 51
114.3958260157273941
  0
ARC
  5
34176
  8
0
 10
3153.1653191458090078
 20
105.0530230604209976
 30
0.0
 40
1.9530181166907841
 50
85.113312952351265
 51
98.7346984475100982
  0
ARC
  5
34177
  8
0
 10
3153.2565529902799426
 20
105.9331451792837981
 30
0.0
 40
1.068442087560469
 50
70.9831079895413239
 51
85.9675270945357113
  0
ARC
  5
34178
  8
0
 10
3153.5222597843307994
 20
106.7040753167539009
 30
0.0
 40
0.2530076160889618
 50
51.8595482152767531
 51
70.9831079895413239
  0
ARC
  5
34179
  8
0
 10
3153.5967827372451211
 20
106.7979317289879049
 30
0.0
 40
0.1331664692968935
 50
29.1110733769669991
 51
52.1380705981513088
  0
ARC
  5
3417A
  8
0
 10
3152.701279111815893
 20
106.8897712391793959
 30
0.0
 40
0.1991663812721002
 50
116.4801312214168973
 51
154.5221002164763036
  0
ARC
  5
3417B
  8
0
 10
3152.9972497397411644
 20
106.3060956446423972
 30
0.0
 40
0.8535903503742582
 50
99.3467461119498694
 51
116.7933598662306025
  0
ARC
  5
3417C
  8
0
 10
3153.1667425288587765
 20
105.2763336820206064
 30
0.0
 40
1.897207859438617
 50
85.5477059292611557
 51
99.3467461119498694
  0
ARC
  5
3417D
  8
0
 10
3153.2288589691720517
 20
106.0740894776688066
 30
0.0
 40
1.0970374015689159
 50
70.980410549675824
 51
85.5477059292611557
  0
ARC
  5
3417E
  8
0
 10
3153.4905467338840026
 20
106.833242657499099
 30
0.0
 40
0.294046718779308
 50
50.5984954540985896
 51
70.980410549675824
  0
ARC
  5
3417F
  8
0
 10
3153.5907184788511586
 20
106.9546540928954954
 30
0.0
 40
0.1366463734153864
 50
25.1787273879021001
 51
50.7403843117365483
  0
ARC
  5
34180
  8
0
 10
3152.6883175253287845
 20
106.9748489800110036
 30
0.0
 40
0.1848655578591874
 50
132.0878096011728928
 51
155.302471466840899
  0
ARC
  5
34181
  8
0
 10
3152.7908044661680833
 20
106.8562009902633037
 30
0.0
 40
0.3416278235390401
 50
112.926788993596503
 51
131.5060688680601118
  0
ARC
  5
34182
  8
0
 10
3153.0406519987827778
 20
106.2654996843190958
 30
0.0
 40
0.9829949745516287
 50
97.8897966579625063
 51
112.926788993596503
  0
ARC
  5
34183
  8
0
 10
3153.1560475720098111
 20
105.5828596260885064
 30
0.0
 40
1.6751398974209279
 50
81.9690241462381266
 51
98.5943565128451525
  0
ARC
  5
34184
  8
0
 10
3153.2876453485118873
 20
106.4448675296605984
 30
0.0
 40
0.8032613886541007
 50
66.111724298982395
 51
82.6735840011259739
  0
ARC
  5
34185
  8
0
 10
3153.5139528923641592
 20
106.9558417898226992
 30
0.0
 40
0.2444145411613082
 50
43.0351487163584707
 51
66.111724298982395
  0
ARC
  5
34186
  8
0
 10
3153.610771557750013
 20
107.0462949869440052
 30
0.0
 40
0.1119168769714311
 50
21.4679615143459799
 51
43.013735201531162
  0
ARC
  5
34187
  8
0
 10
3152.6800832357489526
 20
107.0648752616998962
 30
0.0
 40
0.1702837115674292
 50
130.84346330114181
 51
159.5895019202492051
  0
ARC
  5
34188
  8
0
 10
3152.8171950706541793
 20
106.9066619313583004
 30
0.0
 40
0.3796424566887699
 50
111.3694189988040932
 51
130.881844843799513
  0
ARC
  5
34189
  8
0
 10
3153.0752011748600125
 20
106.2472721910029065
 30
0.0
 40
1.0877116478654201
 50
100.0158308880758966
 51
111.3694189988040932
  0
ARC
  5
3418A
  8
0
 10
3153.1481253632609878
 20
105.8343657329536995
 30
0.0
 40
1.5070082974498009
 50
88.3291110481192874
 51
100.0158308880758966
  0
ARC
  5
3418B
  8
0
 10
3153.1458792365010595
 20
105.7573665411032948
 30
0.0
 40
1.5840402429727101
 50
78.1707825668980973
 51
88.3291110481192874
  0
ARC
  5
3418C
  8
0
 10
3153.3556725417970483
 20
106.7590384415842948
 30
0.0
 40
0.5606342496541109
 50
57.9074057462519605
 51
78.1707825668980973
  0
ARC
  5
3418D
  8
0
 10
3153.5697815320950212
 20
107.1004554414445948
 30
0.0
 40
0.1576352080668479
 50
36.9562248440230903
 51
57.9074057462519605
  0
ARC
  5
3418E
  8
0
 10
3153.1039060566808985
 20
106.7884738193827019
 30
0.0
 40
0.7181388981826491
 50
31.4889158350619915
 51
34.49944769693316
  0
ARC
  5
3418F
  8
0
 10
3152.685572935340133
 20
107.1403742074418943
 30
0.0
 40
0.1752170460082395
 50
131.3726935498287105
 51
160.7368318187754994
  0
ARC
  5
34190
  8
0
 10
3152.832908948073964
 20
106.9737872854186946
 30
0.0
 40
0.3976108647529488
 50
110.5579134519604025
 51
131.4387571353267958
  0
ARC
  5
34191
  8
0
 10
3153.0632904363601483
 20
106.4043464373485932
 30
0.0
 40
1.011810373703065
 50
98.4312503247863049
 51
111.449759834068999
  0
ARC
  5
34192
  8
0
 10
3153.1538797077291747
 20
105.8671189782475039
 30
0.0
 40
1.5565519341013001
 50
83.3839862934745923
 51
98.8302881050736914
  0
ARC
  5
34193
  8
0
 10
3153.2382215762318083
 20
106.4976984159347069
 30
0.0
 40
0.920521611131328
 50
68.1723745861787336
 51
84.076648233616865
  0
ARC
  5
34194
  8
0
 10
3153.4536615741699279
 20
107.0414498383082957
 30
0.0
 40
0.3356567044342481
 50
48.1762386678555998
 51
67.8001142156862358
  0
ARC
  5
34195
  8
0
 10
3153.5640509544091401
 20
107.1723664733893031
 30
0.0
 40
0.1645626161263658
 50
22.3120931534616602
 51
46.4216948679672612
  0
ARC
  5
34196
  8
0
 10
3152.7084557488237806
 20
107.2053858932860066
 30
0.0
 40
0.1998798571030873
 50
125.1744723911789947
 51
160.708218215183706
  0
ARC
  5
34197
  8
0
 10
3152.9264735492361069
 20
106.900845201616093
 30
0.0
 40
0.5744117256126429
 50
105.2995764141116979
 51
125.4509622111390001
  0
ARC
  5
34198
  8
0
 10
3153.1226919769519554
 20
106.2541858450922945
 30
0.0
 40
1.250067297488668
 50
94.433771965280215
 51
106.1536339205730002
  0
ARC
  5
34199
  8
0
 10
3153.1509294926481743
 20
106.0763664784673068
 30
0.0
 40
1.42961005330199
 50
78.8377254108648202
 51
95.011159335313522
  0
ARC
  5
3419A
  8
0
 10
3153.2813707929631164
 20
106.7558296108347946
 30
0.0
 40
0.7377571150336499
 50
63.739498706714059
 51
78.5610552744141586
  0
ARC
  5
3419B
  8
0
 10
3153.4900831043978542
 20
107.1788608343680949
 30
0.0
 40
0.2660408390493659
 50
42.7016290427218621
 51
63.739498706714059
  0
ARC
  5
3419C
  8
0
 10
3153.5770809109340007
 20
107.2592453458909034
 30
0.0
 40
0.1475913638724798
 50
19.1886087401554803
 51
42.6729099061662467
  0
ARC
  5
3419D
  8
0
 10
3152.6972247568842249
 20
107.2895479541107022
 30
0.0
 40
0.1859753901985226
 50
134.1813495912651888
 51
162.9319896230136919
  0
ARC
  5
3419E
  8
0
 10
3152.8217460238111016
 20
107.1622702384213994
 30
0.0
 40
0.3640343185592233
 50
116.4474644237690057
 51
134.2749966435389126
  0
ARC
  5
3419F
  8
0
 10
3153.028796422870073
 20
106.7460360579027991
 30
0.0
 40
0.828922219867308
 50
100.0598324407424968
 51
116.4474644237690057
  0
ARC
  5
341A0
  8
0
 10
3153.1487320350711343
 20
106.1775937179148031
 30
0.0
 40
1.409700532423579
 50
79.3595801588782876
 51
100.823887713060202
  0
ARC
  5
341A1
  8
0
 10
3153.2940494061149366
 20
106.9026615279338017
 30
0.0
 40
0.6703275360274481
 50
62.0533513838056976
 51
80.1236354312029562
  0
ARC
  5
341A2
  8
0
 10
3153.4761748490450373
 20
107.2459604591307993
 30
0.0
 40
0.2817096863043234
 50
40.8002114074038786
 51
62.0533513838056976
  0
ARC
  5
341A3
  8
0
 10
3153.5755195710071348
 20
107.3333678606008021
 30
0.0
 40
0.1493976724421953
 50
18.6675397044757005
 51
40.3198210091737366
  0
ARC
  5
341A4
  8
0
 10
3152.6958535065200522
 20
107.3670357886336006
 30
0.0
 40
0.1835009099093515
 50
136.459011061299492
 51
164.3812421226969889
  0
ARC
  5
341A5
  8
0
 10
3152.822307238562189
 20
107.2477107639806064
 30
0.0
 40
0.357365265744339
 50
118.0342565555497032
 51
136.5574641395820095
  0
ARC
  5
341A6
  8
0
 10
3153.0274658479211212
 20
106.8624194474010949
 30
0.0
 40
0.7938735172420064
 50
98.2611686251160705
 51
118.0342565555497032
  0
ARC
  5
341A7
  8
0
 10
3153.1498565837141541
 20
106.2758628940421062
 30
0.0
 40
1.392416845949757
 50
84.0564985146339723
 51
99.7772970720656645
  0
ARC
  5
341A8
  8
0
 10
3153.2078879796840738
 20
106.7247698042097994
 30
0.0
 40
0.939981180609147
 50
68.4542629083869087
 51
84.7414054785317887
  0
ARC
  5
341A9
  8
0
 10
3153.4189946875821988
 20
107.2548655101303012
 30
0.0
 40
0.3694022575240327
 50
45.4438058610343774
 51
68.7150229735640323
  0
ARC
  5
341AA
  8
0
 10
3153.5577075244577827
 20
107.4021068016140958
 30
0.0
 40
0.1672211070417023
 50
17.5081709848543703
 51
43.9140519681453583
  0
ARC
  5
341AB
  8
0
 10
3152.7075475134488443
 20
107.4376660015279015
 30
0.0
 40
0.1953681086511192
 50
134.2046805356953882
 51
165.0060347296146119
  0
ARC
  5
341AC
  8
0
 10
3152.8709729106881241
 20
107.2706132666114058
 30
0.0
 40
0.4290650636905277
 50
111.5892292376046981
 51
134.2953481295652125
  0
ARC
  5
341AD
  8
0
 10
3153.1216918401592011
 20
106.637021577042205
 30
0.0
 40
1.1104595241068049
 50
99.3091937487743337
 51
111.5892292376046981
  0
ARC
  5
341AE
  8
0
 10
3153.147873294252804
 20
106.399224877561295
 30
0.0
 40
1.3494186617091191
 50
83.3722103718391452
 51
98.7729265791352731
  0
ARC
  5
341AF
  8
0
 10
3153.1723617982997894
 20
106.6953274532024949
 30
0.0
 40
1.052514632567122
 50
68.7743509909145843
 51
82.8359432022010793
  0
ARC
  5
341B0
  8
0
 10
3153.4287964744999044
 20
107.3555787027331974
 30
0.0
 40
0.3442135273411153
 50
44.5925108253078477
 51
68.7743509909145843
  0
ARC
  5
341B1
  8
0
 10
3153.5482683982859271
 20
107.4729032764829952
 30
0.0
 40
0.1767668573993308
 50
16.7484393503175184
 51
44.6986759412592605
  0
ARC
  5
341B2
  8
0
 10
3152.7209719181591936
 20
107.5066379997035995
 30
0.0
 40
0.2091934319467916
 50
133.9871329600580907
 51
165.3528771707846943
  0
ARC
  5
341B3
  8
0
 10
3152.8924384177898901
 20
107.3302786617266946
 30
0.0
 40
0.4551670358696473
 50
107.6935572658614007
 51
134.0989668254586888
  0
ARC
  5
341B4
  8
0
 10
3153.1273385195190713
 20
106.7059729807210999
 30
0.0
 40
1.1218493067759869
 50
92.0612351146961316
 51
109.4326231848753963
  0
ARC
  5
341B5
  8
0
 10
3153.1490869647900581
 20
106.6239383051879059
 30
0.0
 40
1.2047595821464949
 50
76.1051943058749458
 51
92.9545877725660858
  0
ARC
  5
341B6
  8
0
 10
3153.3070577467960902
 20
107.2335964070750975
 30
0.0
 40
0.5750479691384486
 50
54.6116355476463085
 51
76.7971829232273393
  0
ARC
  5
341B7
  8
0
 10
3153.5339439037011289
 20
107.543779912522794
 30
0.0
 40
0.1908535709105282
 50
15.5163399951118901
 51
56.2136899986629572
  0
ARC
  5
341B8
  8
0
 10
3152.7088764203308529
 20
107.5863882851002984
 30
0.0
 40
0.1955321994067485
 50
145.6990923353681922
 51
167.0450620251201883
  0
ARC
  5
341B9
  8
0
 10
3152.8423105399238011
 20
107.4790465481893023
 30
0.0
 40
0.3664999055104837
 50
116.7034109002480022
 51
143.5914889425675085
  0
ARC
  5
341BA
  8
0
 10
3153.1195104576690937
 20
106.8889063345883983
 30
0.0
 40
1.018415790431962
 50
90.0660846591373456
 51
115.715580093845503
  0
ARC
  5
341BB
  8
0
 10
3153.1442008029080171
 20
106.7566755061157977
 30
0.0
 40
1.1509366098522229
 50
71.2611779681593305
 51
91.2877155682187151
  0
ARC
  5
341BC
  8
0
 10
3153.3832303028079878
 20
107.4612852947594064
 30
0.0
 40
0.4068868426492513
 50
46.9409107536180983
 51
71.2611779681593305
  0
ARC
  5
341BD
  8
0
 10
3153.5227047929679429
 20
107.609796470256498
 30
0.0
 40
0.2031512780400561
 50
15.8495457099899006
 51
47.0849443098943468
  0
ARC
  5
341BE
  8
0
 10
3152.711185770639986
 20
107.6590001018820004
 30
0.0
 40
0.197471308381037
 50
149.7143702263994101
 51
167.9207271373713866
  0
ARC
  5
341BF
  8
0
 10
3152.7793334250859516
 20
107.6195199194223022
 30
0.0
 40
0.2762287417539422
 50
124.3274837421035954
 51
149.7715371277095073
  0
ARC
  5
341C0
  8
0
 10
3153.0240231644461346
 20
107.2611875237349039
 30
0.0
 40
0.710135614650718
 50
102.5491571172783978
 51
124.3274837421035954
  0
ARC
  5
341C1
  8
0
 10
3153.1450629481269061
 20
106.7771519998648984
 30
0.0
 40
1.2089763487556331
 50
82.2033794994242442
 51
103.1642351862528955
  0
ARC
  5
341C2
  8
0
 10
3153.2051070196171167
 20
107.1498693768862012
 30
0.0
 40
0.8316069407870701
 50
64.24468679137847
 51
82.8184575684218629
  0
ARC
  5
341C3
  8
0
 10
3153.4143762609778605
 20
107.5836266196759965
 30
0.0
 40
0.3500065244120156
 50
42.0019749571101286
 51
64.24468679137847
  0
ARC
  5
341C4
  8
0
 10
3153.5287138968101317
 20
107.6865838259844992
 30
0.0
 40
0.1961452840094744
 50
24.8478581818274513
 51
42.0019749571101286
  0
ARC
  5
341C5
  8
0
 10
3153.5478184911808057
 20
107.6952481346969961
 30
0.0
 40
0.1751685106644534
 50
13.1425056338306003
 51
24.9020632114002396
  0
ARC
  5
341C6
  8
0
 10
3152.7432029578490074
 20
107.719884291555104
 30
0.0
 40
0.2308037959724095
 50
134.3039240512096058
 51
167.503169807805989
  0
ARC
  5
341C7
  8
0
 10
3152.9370760876640816
 20
107.5163927834240951
 30
0.0
 40
0.5118561234259925
 50
110.0146438051563962
 51
133.9247631705752042
  0
ARC
  5
341C8
  8
0
 10
3153.1119129160751982
 20
107.0778578857208032
 30
0.0
 40
0.9838477455583191
 50
96.1727012658680422
 51
110.8407272103797965
  0
ARC
  5
341C9
  8
0
 10
3153.1425975919701159
 20
106.8978170190442967
 30
0.0
 40
1.166197463561863
 50
78.4440080439789114
 51
96.7204037894478716
  0
ARC
  5
341CA
  8
0
 10
3153.2657811052831676
 20
107.419828881041596
 30
0.0
 40
0.6302963208628917
 50
59.6659344924270982
 51
79.9089993618300127
  0
ARC
  5
341CB
  8
0
 10
3153.4403784449327759
 20
107.6948186889992058
 30
0.0
 40
0.3050039335295591
 50
37.4152070626353535
 51
61.8856061638981174
  0
ARC
  5
341CC
  8
0
 10
3153.5234331193978505
 20
107.7580629709562032
 30
0.0
 40
0.2006112274964525
 50
13.3517439998889706
 51
37.481161410639757
  0
ARC
  5
341CD
  8
0
 10
3152.7267149391700514
 20
107.7980619175541932
 30
0.0
 40
0.2129681756548678
 50
152.7985988750612023
 51
168.9996161766055991
  0
ARC
  5
341CE
  8
0
 10
3152.7774610734049929
 20
107.7710788520598015
 30
0.0
 40
0.2704377299187909
 50
133.260803645278088
 51
152.6287220905381901
  0
ARC
  5
341CF
  8
0
 10
3152.9269153244367772
 20
107.6122643186594985
 30
0.0
 40
0.4885171401590145
 50
112.9405325704366021
 51
133.260803645278088
  0
ARC
  5
341D0
  8
0
 10
3153.1179012420570871
 20
107.1610281296994032
 30
0.0
 40
0.9785066491858877
 50
101.3007477556288052
 51
112.9405325704366021
  0
ARC
  5
341D1
  8
0
 10
3153.1518759630989734
 20
106.8861797256819983
 30
0.0
 40
1.25485213471104
 50
79.6372740194250923
 51
100.3627259805748935
  0
ARC
  5
341D2
  8
0
 10
3153.2624220602428977
 20
107.5442044075207946
 30
0.0
 40
0.5877545084069506
 50
60.3298797595487173
 51
78.6992522443711522
  0
ARC
  5
341D3
  8
0
 10
3153.3895166684378637
 20
107.7166101543442949
 30
0.0
 40
0.3758786497041779
 50
39.6241706007968304
 51
64.1571415305018036
  0
ARC
  5
341D4
  8
0
 10
3153.5227970506512065
 20
107.8304929512929959
 30
0.0
 40
0.2006099766033657
 50
12.4021701734793197
 51
38.8478235227729627
  0
ARC
  5
341D5
  8
0
 10
3152.7467125404277795
 20
107.8628385910676002
 30
0.0
 40
0.2334488185499502
 50
145.9916769186191061
 51
169.1108995509200099
  0
ARC
  5
341D6
  8
0
 10
3152.8185699923042193
 20
107.8149410076484003
 30
0.0
 40
0.3198056341179221
 50
127.2202269101902061
 51
146.0787165316006053
  0
ARC
  5
341D7
  8
0
 10
3152.9946608923478379
 20
107.5831197978103972
 30
0.0
 40
0.6109225838291537
 50
109.9110311146707062
 51
127.2202269101902061
  0
ARC
  5
341D8
  8
0
 10
3153.1191980211151531
 20
107.2392966191113999
 30
0.0
 40
0.9766053352028066
 50
96.6692864553460254
 51
109.9110311146707062
  0
ARC
  5
341D9
  8
0
 10
3153.1390222875279505
 20
107.0697564098508963
 30
0.0
 40
1.147300631256625
 50
78.4934569526482875
 51
96.6692864553460254
  0
ARC
  5
341DA
  8
0
 10
3153.2299139772458147
 20
107.5162423455761029
 30
0.0
 40
0.6916571411679973
 50
57.4353779311610495
 51
78.4934569526482875
  0
ARC
  5
341DB
  8
0
 10
3153.4468796642900088
 20
107.8559641035743937
 30
0.0
 40
0.2885628814573156
 50
36.835572251358542
 51
57.4353779311610495
  0
ARC
  5
341DC
  8
0
 10
3153.4626001911738058
 20
107.8677397896750989
 30
0.0
 40
0.2689210447648747
 50
24.5328740408593013
 51
36.835572251358542
  0
ARC
  5
341DD
  8
0
 10
3153.5241313920600987
 20
107.9020846195608954
 30
0.0
 40
0.1987658064629403
 50
11.2129477472586299
 51
22.8908503998178894
  0
ARC
  5
341DE
  8
0
 10
3152.7242217064717806
 20
107.9403393140579936
 30
0.0
 40
0.2097388342669975
 50
157.021930547290907
 51
170.6233340396900076
  0
ARC
  5
341DF
  8
0
 10
3152.7803354753000349
 20
107.9164253765430033
 30
0.0
 40
0.2707357353432171
 50
142.7431163308569069
 51
156.998472107919099
  0
ARC
  5
341E0
  8
0
 10
3152.855164751853863
 20
107.8595096824921029
 30
0.0
 40
0.3647507174405454
 50
122.348737046523695
 51
142.7431163308569069
  0
ARC
  5
341E1
  8
0
 10
3153.0551926080388512
 20
107.5436919993803002
 30
0.0
 40
0.7385848413731054
 50
105.4564542565611021
 51
122.348737046523695
  0
ARC
  5
341E2
  8
0
 10
3153.1343232519297999
 20
107.2575116886675062
 30
0.0
 40
1.0355037344099971
 50
92.0397412764942402
 51
105.4564542565611021
  0
ARC
  5
341E3
  8
0
 10
3153.1358841527289769
 20
107.2136849327300041
 30
0.0
 40
1.079358277473528
 50
73.5596031016071805
 51
92.0397412764942402
  0
ARC
  5
341E4
  8
0
 10
3153.2857700746208138
 20
107.721631100516106
 30
0.0
 40
0.5497592792208283
 50
53.1884499202263115
 51
73.5596031016071805
  0
ARC
  5
341E5
  8
0
 10
3153.4281809020499168
 20
107.9119155990791938
 30
0.0
 40
0.3120850606732004
 50
33.9237487538686722
 51
53.1884499202263115
  0
ARC
  5
341E6
  8
0
 10
3153.5125678455378875
 20
107.9685196544014048
 30
0.0
 40
0.2104723075530987
 50
10.8045577400809005
 51
33.9581747342565876
  0
ARC
  5
341E7
  8
0
 10
3152.7428830036701584
 20
108.0046446217909022
 30
0.0
 40
0.2287402889319764
 50
157.6963518379938876
 51
170.7521793280872089
  0
ARC
  5
341E8
  8
0
 10
3152.7916916111148566
 20
107.9849498828971974
 30
0.0
 40
0.28137192012941
 50
132.0072411658827889
 51
157.7579120829223882
  0
ARC
  5
341E9
  8
0
 10
3153.0299469673900603
 20
107.7039575935945948
 30
0.0
 40
0.6497057241426739
 50
101.9199505962670997
 51
131.0363546346835051
  0
ARC
  5
341EA
  8
0
 10
3153.1398051760897943
 20
107.3085403543163068
 30
0.0
 40
1.0596018655379671
 50
79.1053817659528562
 51
103.3161403933167009
  0
ARC
  5
341EB
  8
0
 10
3153.2511418076578593
 20
107.7559401837004032
 30
0.0
 40
0.5997345166150615
 50
51.1358997660970331
 51
81.4724580942306744
  0
ARC
  5
341EC
  8
0
 10
3153.4280973561931205
 20
107.9857472445500974
 30
0.0
 40
0.3098295247818776
 50
34.3172646423102634
 51
49.9496547349043709
  0
ARC
  5
341ED
  8
0
 10
3153.4955098696318601
 20
108.0322210587255967
 30
0.0
 40
0.2279511540717255
 50
10.6863364569604204
 51
34.2221133127889985
  0
ARC
  5
341EE
  8
0
 10
3152.6656662284722188
 20
106.5885185696484996
 30
0.0
 40
0.1651547802600933
 50
116.8779512089602974
 51
149.1837630345252137
  0
ARC
  5
341EF
  8
0
 10
3152.9251599028079909
 20
106.0607009413470934
 30
0.0
 40
0.7533020179716547
 50
99.0738616972716954
 51
116.3332901633505969
  0
ARC
  5
341F0
  8
0
 10
3153.1720121488010591
 20
104.7048285292863028
 30
0.0
 40
2.1313475049996158
 50
86.473392936212818
 51
99.8785254035182675
  0
ARC
  5
341F1
  8
0
 10
3153.2655982849910288
 20
105.6691345655845993
 30
0.0
 40
1.1636104034740371
 50
74.4407914851798012
 51
88.1523351510389972
  0
ARC
  5
341F2
  8
0
 10
3153.4755054918518908
 20
106.4230094511441962
 30
0.0
 40
0.3810579269144339
 50
57.7445087264374024
 51
74.4407914851799148
  0
ARC
  5
341F3
  8
0
 10
3153.6265546818572147
 20
106.662260666775893
 30
0.0
 40
0.0981144843389479
 50
29.9518168198440407
 51
57.774561676360193
  0
ARC
  5
341F4
  8
0
 10
3152.7634028852830852
 20
108.068243651170107
 30
0.0
 40
0.2495677713607169
 50
147.2479721933655981
 51
170.9363701014063111
  0
ARC
  5
341F5
  8
0
 10
3152.8482006813510452
 20
108.0142236666267053
 30
0.0
 40
0.3501097246400112
 50
131.9772529703543
 51
147.3206474245120035
  0
ARC
  5
341F6
  8
0
 10
3152.9710887309079226
 20
107.8776336470658066
 30
0.0
 40
0.5338440604827382
 50
109.4699641244127974
 51
131.9772529703543
  0
ARC
  5
341F7
  8
0
 10
3153.1268848687977879
 20
107.4957207831592996
 30
0.0
 40
0.9460494421445249
 50
93.0572811281353154
 51
110.6565276964728071
  0
ARC
  5
341F8
  8
0
 10
3153.1404842131050827
 20
107.4500094157446028
 30
0.0
 40
0.9924836049306849
 50
73.8992318037639535
 51
93.7005192070954536
  0
ARC
  5
341F9
  8
0
 10
3153.2230068187641336
 20
107.7589079635068003
 30
0.0
 40
0.6728459294518929
 50
58.1929632685823677
 51
73.3559063106629736
  0
ARC
  5
341FA
  8
0
 10
3153.3876437763178728
 20
108.0243673913364972
 30
0.0
 40
0.3604775001627156
 50
36.6888014967903331
 51
58.1929632685823677
  0
ARC
  5
341FB
  8
0
 10
3153.4877315340690984
 20
108.0989400804529055
 30
0.0
 40
0.2356630570339981
 50
22.1575275288556703
 51
36.6888014967906599
  0
ARC
  5
341FC
  8
0
 10
3153.4908588359571695
 20
108.1000599738460011
 30
0.0
 40
0.2323443759864164
 50
9.9875299177855723
 51
22.1926149928837511
  0
ARC
  5
341FD
  8
0
 10
3152.7513304284098012
 20
108.1394888694762955
 30
0.0
 40
0.2369134299538625
 50
159.6551742150948883
 51
171.8489702384513009
  0
ARC
  5
341FE
  8
0
 10
3152.7937809194118017
 20
108.1236128092473052
 30
0.0
 40
0.2822353887563852
 50
144.6793501275795109
 51
159.6294056035964957
  0
ARC
  5
341FF
  8
0
 10
3152.8748860591022094
 20
108.0661432731307059
 30
0.0
 40
0.3816375580769109
 50
125.9502985595776039
 51
144.6793501275795109
  0
ARC
  5
34200
  8
0
 10
3153.0299962614481046
 20
107.8522624814330015
 30
0.0
 40
0.6458423421539469
 50
111.6155764989750026
 51
125.9502985595776039
  0
ARC
  5
34201
  8
0
 10
3153.1044887978569022
 20
107.6642651501337014
 30
0.0
 40
0.8480603793222208
 50
99.5789578414503325
 51
111.6155764989748036
  0
ARC
  5
34202
  8
0
 10
3153.1404707975798374
 20
107.4510506172049986
 30
0.0
 40
1.0642897514160059
 50
85.1235901231902545
 51
99.5789578414503325
  0
ARC
  5
34203
  8
0
 10
3153.1563353616152199
 20
107.6370023270408041
 30
0.0
 40
0.8776625219373649
 50
69.1150389405505763
 51
85.1235901231902545
  0
ARC
  5
34204
  8
0
 10
3153.2785435635710201
 20
107.9572862018112005
 30
0.0
 40
0.5348555717990385
 50
49.1369785061467468
 51
69.1150389405505763
  0
ARC
  5
34205
  8
0
 10
3153.4386518788442118
 20
108.1423615232700968
 30
0.0
 40
0.2901362484246412
 50
30.6791541140439783
 51
49.1369785061467468
  0
ARC
  5
34206
  8
0
 10
3153.4529786418120239
 20
108.1508610839924955
 30
0.0
 40
0.273477957107442
 50
19.3932199016756215
 51
30.6791541140439783
  0
ARC
  5
34207
  8
0
 10
3153.5271800708760566
 20
108.177243575141901
 30
0.0
 40
0.1947264352423653
 50
8.3350670746555409
 51
19.3205280157784607
  0
ARC
  5
34208
  8
0
 10
3152.7531605872782166
 20
108.206272311337699
 30
0.0
 40
0.2385829655059167
 50
158.9864944633214066
 51
172.4011027484305032
  0
ARC
  5
34209
  8
0
 10
3152.8161346122310533
 20
108.1818565841925022
 30
0.0
 40
0.3061242202923953
 50
145.782260187934213
 51
158.9471425747213971
  0
ARC
  5
3420A
  8
0
 10
3152.8580421033088896
 20
108.1533573106350019
 30
0.0
 40
0.3568040624565363
 50
130.8569454343409859
 51
145.782260187934213
  0
ARC
  5
3420B
  8
0
 10
3153.0021992173301442
 20
107.9866848735592981
 30
0.0
 40
0.5771696105884697
 50
110.514565620788602
 51
130.8569454343409859
  0
ARC
  5
3420C
  8
0
 10
3153.1382108236261956
 20
107.6231870401853996
 30
0.0
 40
0.9652802029647984
 50
96.1920043763365271
 51
110.514565620788602
  0
ARC
  5
3420D
  8
0
 10
3153.1379320204250689
 20
107.6257568072369963
 30
0.0
 40
0.9626953559820745
 50
74.9034925281620616
 51
96.1920043763365271
  0
ARC
  5
3420E
  8
0
 10
3153.219490710835089
 20
107.9281000267455966
 30
0.0
 40
0.649544845262175
 50
54.2948248251909789
 51
74.9034925281620616
  0
ARC
  5
3420F
  8
0
 10
3153.4099746878127917
 20
108.1931360110762057
 30
0.0
 40
0.3231582363525449
 50
30.47557617444361
 51
54.2948248251909789
  0
ARC
  5
34210
  8
0
 10
3153.4619848709398866
 20
108.2237424943857036
 30
0.0
 40
0.2628107760123276
 50
19.7965180509850995
 51
30.47557617444361
  0
ARC
  5
34211
  8
0
 10
3153.5002928135800175
 20
108.2376398337848968
 30
0.0
 40
0.2220600431181732
 50
8.338383788466027
 51
19.7702354171607411
  0
ARC
  5
34212
  8
0
 10
3152.7733910475258199
 20
108.2678712943374961
 30
0.0
 40
0.2590785637608646
 50
161.8947923091664052
 51
172.4732606664811954
  0
ARC
  5
34213
  8
0
 10
3152.8006735450449014
 20
108.2588013380989054
 30
0.0
 40
0.2878288768137054
 50
145.8346125884528988
 51
161.8664271698135053
  0
ARC
  5
34214
  8
0
 10
3152.8956668040400473
 20
108.194327841223398
 30
0.0
 40
0.4026354578706185
 50
126.4727825757256028
 51
145.8346125884532114
  0
ARC
  5
34215
  8
0
 10
3153.0384707297848763
 20
108.0011475588891017
 30
0.0
 40
0.6428678093365138
 50
108.3402969890336038
 51
126.4727825757256028
  0
ARC
  5
34216
  8
0
 10
3153.1375562781090593
 20
107.7022458801729954
 30
0.0
 40
0.9577648709708689
 50
95.5653816010338204
 51
108.3402969890336038
  0
ARC
  5
34217
  8
0
 10
3153.1373443873471842
 20
107.7044204373281957
 30
0.0
 40
0.9555800147933375
 50
77.058630815278363
 51
95.5653816010338204
  0
ARC
  5
34218
  8
0
 10
3153.1942822838050233
 20
107.952202095228003
 30
0.0
 40
0.7013406117799751
 50
56.6919718961786216
 51
77.058630815278363
  0
ARC
  5
34219
  8
0
 10
3153.3888822337839883
 20
108.2483617663073971
 30
0.0
 40
0.3469683621528205
 50
34.8310086190732022
 51
56.6919718961786216
  0
ARC
  5
3421A
  8
0
 10
3153.4223522438969667
 20
108.2716509034890038
 30
0.0
 40
0.3061930572778558
 50
21.9837642507772095
 51
34.8310086190732022
  0
ARC
  5
3421B
  8
0
 10
3153.5054882547888155
 20
108.305323116626198
 30
0.0
 40
0.2164969068615486
 50
7.463214211831021
 51
21.9566505195525288
  0
ARC
  5
3421C
  8
0
 10
3152.7530771374417782
 20
108.3366704694567062
 30
0.0
 40
0.2383467015715126
 50
165.8018527355553999
 51
173.1977464910877131
  0
ARC
  5
3421D
  8
0
 10
3152.8171231584638008
 20
108.3202031897290993
 30
0.0
 40
0.3044754629893227
 50
153.9013295663644101
 51
165.75380994646099
  0
ARC
  5
3421E
  8
0
 10
3152.8437070774048152
 20
108.3071806271514959
 30
0.0
 40
0.334077690648204
 50
131.2094641457528894
 51
153.9013295663640122
  0
ARC
  5
3421F
  8
0
 10
3153.0480029891559752
 20
108.0738930505087012
 30
0.0
 40
0.6441743094197597
 50
118.6699060065722051
 51
131.2094641457528894
  0
ARC
  5
34220
  8
0
 10
3153.1033085814910919
 20
107.9322466978085941
 30
0.0
 40
0.7952255807511693
 50
99.442519163529056
 51
117.2697247456718941
  0
ARC
  5
34221
  8
0
 10
3153.1364396711392146
 20
107.7698921377590011
 30
0.0
 40
0.9608347959954469
 50
81.8411551235456614
 51
99.8030886491941231
  0
ARC
  5
34222
  8
0
 10
3153.1733543972782172
 20
107.9758762859831052
 30
0.0
 40
0.7517321953536094
 50
61.7815222042088124
 51
82.3981860644267954
  0
ARC
  5
34223
  8
0
 10
3153.3132959146810208
 20
108.2394877240261053
 30
0.0
 40
0.453283435149859
 50
41.7571132549419275
 51
61.6127638290963517
  0
ARC
  5
34224
  8
0
 10
3153.4188336273409732
 20
108.3377643682721043
 30
0.0
 40
0.3091200698263743
 50
23.063171000949211
 51
41.196141139864892
  0
ARC
  5
34225
  8
0
 10
3153.4767233578681953
 20
108.3635788639852962
 30
0.0
 40
0.245746886416386
 50
7.6463300114771471
 51
22.81295984131145
  0
ARC
  5
34226
  8
0
 10
3152.8020960160120012
 20
108.3919521297197974
 30
0.0
 40
0.2879787669753328
 50
156.8531381043675879
 51
172.920891251040814
  0
ARC
  5
34227
  8
0
 10
3152.8449819726401984
 20
108.3735703129349019
 30
0.0
 40
0.3346381153682045
 50
135.7170238080151137
 51
156.8455916619707011
  0
ARC
  5
34228
  8
0
 10
3152.9950813021760041
 20
108.2271815554106951
 30
0.0
 40
0.5443032699754913
 50
118.5509403568945999
 51
135.7170238080151137
  0
ARC
  5
34229
  8
0
 10
3153.0949296490521192
 20
108.0436730408777066
 30
0.0
 40
0.7532172888444988
 50
96.9926457300628471
 51
118.5509403568945999
  0
ARC
  5
3422A
  8
0
 10
3153.1352344951192208
 20
107.8793077015215971
 30
0.0
 40
0.9214837899223756
 50
75.1118868108258226
 51
98.2359806449654229
  0
ARC
  5
3422B
  8
0
 10
3153.234293469648037
 20
108.202613325889601
 30
0.0
 40
0.5837177095215598
 50
51.9372865900380916
 51
76.3552217256973478
  0
ARC
  5
3422C
  8
0
 10
3153.3562864900632121
 20
108.3584054835917954
 30
0.0
 40
0.3858452924657187
 50
33.3091687320695229
 51
51.9372865900380916
  0
ARC
  5
3422D
  8
0
 10
3153.4586774923168377
 20
108.4256872582507043
 30
0.0
 40
0.2633269079523902
 50
18.9668395801702303
 51
33.3091687320691818
  0
ARC
  5
3422E
  8
0
 10
3153.4660777529388724
 20
108.4253134938377059
 30
0.0
 40
0.2564647498021439
 50
7.3916224928781267
 51
19.5831641636224099
  0
ARC
  5
3422F
  8
0
 10
3152.7984215193100681
 20
108.4566284660317024
 30
0.0
 40
0.2840714880112121
 50
164.1692817856333022
 51
173.4450633773298875
  0
ARC
  5
34230
  8
0
 10
3152.8231170313379153
 20
108.4495428657091054
 30
0.0
 40
0.3097632799781128
 50
151.9479332047237108
 51
164.1544811888996946
  0
ARC
  5
34231
  8
0
 10
3152.8778828885929215
 20
108.420359474146295
 30
0.0
 40
0.3718194598788481
 50
132.133524415348603
 51
151.9479332047237108
  0
ARC
  5
34232
  8
0
 10
3153.0238319968311771
 20
108.2590242655815018
 30
0.0
 40
0.5893744913496672
 50
115.351100675996193
 51
132.133524415348603
  0
ARC
  5
34233
  8
0
 10
3153.1114793490619377
 20
108.0740320679014985
 30
0.0
 40
0.7940795756919852
 50
94.8404530955034346
 51
115.351100675996193
  0
ARC
  5
34234
  8
0
 10
3153.1356727357610907
 20
107.9710895060354972
 30
0.0
 40
0.8988287588925892
 50
75.9882714889705966
 51
95.8234906343199242
  0
ARC
  5
34235
  8
0
 10
3153.2127678830088371
 20
108.2358611694469062
 30
0.0
 40
0.6233604936649427
 50
58.5606179520045487
 51
76.9713090278066261
  0
ARC
  5
34236
  8
0
 10
3153.3200431357918205
 20
108.3956320389251005
 30
0.0
 40
0.4311686272691624
 50
35.0069593293891401
 51
59.6490850115297633
  0
ARC
  5
34237
  8
0
 10
3153.4261959267819293
 20
108.4754694360250937
 30
0.0
 40
0.2984538227586008
 50
18.3363166353537501
 51
34.1437856116599932
  0
ARC
  5
34238
  8
0
 10
3153.4532803154829708
 20
108.4864986052438951
 30
0.0
 40
0.2692819474861735
 50
7.044752058502513
 51
17.9217075995154502
  0
ARC
  5
34239
  8
0
 10
3152.8504180089380498
 20
108.5062512831775052
 30
0.0
 40
0.3371399314546776
 50
135.5235615669427887
 51
172.5707646095800101
  0
ARC
  5
3423A
  8
0
 10
3153.0270532233539598
 20
108.3330852579600929
 30
0.0
 40
0.5844988808012359
 50
113.1580794442907063
 51
135.5424601231343047
  0
ARC
  5
3423B
  8
0
 10
3153.1240574305079463
 20
108.1062993724923018
 30
0.0
 40
0.8311598912046203
 50
93.3428422248439631
 51
113.1580794442907063
  0
ARC
  5
3423C
  8
0
 10
3153.128968234173044
 20
108.0222245117595037
 30
0.0
 40
0.9153780495783204
 50
71.4551810879658973
 51
93.3428422248439631
  0
ARC
  5
3423D
  8
0
 10
3153.2480918103701697
 20
108.3773239960373047
 30
0.0
 40
0.5408302286792254
 50
44.7843037197295075
 51
71.4551810879658973
  0
ARC
  5
3423E
  8
0
 10
3153.4034257205239555
 20
108.5314927438006976
 30
0.0
 40
0.3219772496483785
 50
21.7228065767282885
 51
44.7843037197295075
  0
ARC
  5
3423F
  8
0
 10
3153.4379486672678468
 20
108.5452761522723932
 30
0.0
 40
0.2848044723431686
 50
6.9837454306972209
 51
21.7173608410093593
  0
ARC
  5
34240
  8
0
 10
3152.8131476374651356
 20
108.639390658162597
 30
0.0
 40
0.298679773605213
 50
174.3553419030276928
 51
185.7566629174905017
  0
ARC
  5
34241
  8
0
 10
3152.8059951160489618
 20
108.6982821430055992
 30
0.0
 40
0.2915765227333016
 50
174.3556808775101956
 51
185.8095049572567063
  0
ARC
  5
34242
  8
0
 10
3152.8637001403558315
 20
108.5646356134744934
 30
0.0
 40
0.350599597853331
 50
136.5441488567342105
 51
172.6592143434428976
  0
ARC
  5
34243
  8
0
 10
3153.0168397483498666
 20
108.4207601347977032
 30
0.0
 40
0.5607219405476972
 50
113.1553032269444969
 51
136.6349742824282032
  0
ARC
  5
34244
  8
0
 10
3153.1326890970249224
 20
108.1498799427227056
 30
0.0
 40
0.8553355010754549
 50
95.2684231361350555
 51
113.1553032269444969
  0
ARC
  5
34245
  8
0
 10
3153.1330727079857752
 20
108.1457198158225026
 30
0.0
 40
0.8595132771819592
 50
69.1558595885829988
 51
95.2684231361350555
  0
ARC
  5
34246
  8
0
 10
3153.2499746208459328
 20
108.4527535235285995
 30
0.0
 40
0.5309775030291687
 50
43.0438622206523718
 51
69.1558595885829988
  0
ARC
  5
34247
  8
0
 10
3153.4042118844968172
 20
108.5968030073132979
 30
0.0
 40
0.3199339357805798
 50
20.9967659762920285
 51
43.0438622206523718
  0
ARC
  5
34248
  8
0
 10
3153.4219187916469309
 20
108.603605240595698
 30
0.0
 40
0.3009654118195315
 50
6.8275298169956526
 51
20.995640012061731
  0
ARC
  5
34249
  8
0
 10
3152.8327369809389893
 20
108.6371252285688058
 30
0.0
 40
0.3183971221492611
 50
151.8758005347438882
 51
174.29637842646531
  0
ARC
  5
3424A
  8
0
 10
3152.9220724662682187
 20
108.5893227634804958
 30
0.0
 40
0.4197179143584148
 50
132.4195414216036966
 51
151.8693886730069096
  0
ARC
  5
3424B
  8
0
 10
3153.0318843027121147
 20
108.4691457976446998
 30
0.0
 40
0.5825096295680906
 50
111.0250480598203069
 51
132.4195414216036966
  0
ARC
  5
3424C
  8
0
 10
3153.1416038186612241
 20
108.1836897499301955
 30
0.0
 40
0.8883257955188348
 50
94.2866132702566233
 51
111.0250480598203069
  0
ARC
  5
3424D
  8
0
 10
3153.1368050928358571
 20
108.2477108164278974
 30
0.0
 40
0.824125135669853
 50
71.1666396871071925
 51
94.2866132702566233
  0
ARC
  5
3424E
  8
0
 10
3153.2048509101450691
 20
108.4472132549314978
 30
0.0
 40
0.6133374315169265
 50
51.0703386370831112
 51
71.1666396871071925
  0
ARC
  5
3424F
  8
0
 10
3153.3503120182258499
 20
108.6272943426622959
 30
0.0
 40
0.3818463255915995
 50
27.8113521499165692
 51
51.0703386370831112
  0
ARC
  5
34250
  8
0
 10
3153.4266830447190841
 20
108.6675795569889971
 30
0.0
 40
0.2955014810385163
 50
16.9534553558227614
 51
27.8113521499165692
  0
ARC
  5
34251
  8
0
 10
3153.4137403419608745
 20
108.6636566261255012
 30
0.0
 40
0.3090256259677316
 50
6.3859045590501973
 51
16.9494549591560499
  0
ARC
  5
34252
  8
0
 10
3152.8446127422412246
 20
108.6949777477127981
 30
0.0
 40
0.3303323055384207
 50
156.6999756693950872
 51
174.4441005236724891
  0
ARC
  5
34253
  8
0
 10
3152.8978331596431417
 20
108.6720864507647946
 30
0.0
 40
0.3882669557765365
 50
133.2121173462022909
 51
156.7039146288591098
  0
ARC
  5
34254
  8
0
 10
3153.0551565246009886
 20
108.5046250692806069
 30
0.0
 40
0.6180363084993381
 50
112.1197135202554023
 51
133.2121173462020067
  0
ARC
  5
34255
  8
0
 10
3153.1262793353598681
 20
108.3296434465476068
 30
0.0
 40
0.8069199300879589
 50
92.1295210896882821
 51
112.1197135202554023
  0
ARC
  5
34256
  8
0
 10
3153.1283147250278489
 20
108.274905536646898
 30
0.0
 40
0.8616956691646409
 50
70.0669772811631617
 51
92.1295210896882821
  0
ARC
  5
34257
  8
0
 10
3153.2366042188050415
 20
108.5735141137623003
 30
0.0
 40
0.5440579875375233
 50
48.4342691081867969
 51
70.0669772811631617
  0
ARC
  5
34258
  8
0
 10
3153.3229591789267943
 20
108.6708952982665011
 30
0.0
 40
0.4139031788175715
 50
28.4577108215292682
 51
48.4342691081867969
  0
ARC
  5
34259
  8
0
 10
3153.4385449133360453
 20
108.7335428135514945
 30
0.0
 40
0.2824316109012978
 50
15.4869148853572103
 51
28.4577108215289201
  0
ARC
  5
3425A
  8
0
 10
3153.3832284634991083
 20
108.718450945502596
 30
0.0
 40
0.3397694816444847
 50
6.3079956406163218
 51
15.4487030446285107
  0
LINE
  5
3425B
  8
0
 10
3153.722416680814149
 20
108.7288674278527054
 30
0.0
 11
3153.722416680814149
 21
110.2601995750744948
 31
0.0
  0
LINE
  5
3425C
  8
0
 10
3152.5144365007408851
 20
108.7015136208461001
 30
0.0
 11
3152.5144365007408851
 21
110.2558447995571953
 31
0.0
  0
ARC
  5
3425D
  8
0
 10
3152.8784805385230356
 20
108.7456021052626056
 30
0.0
 40
0.3649955598774115
 50
139.593374338044697
 51
175.8619315348356054
  0
ARC
  5
3425E
  8
0
 10
3153.0226605066741286
 20
108.622866582103299
 30
0.0
 40
0.5543414651971141
 50
116.3328149458640013
 51
139.5933743380444128
  0
ARC
  5
3425F
  8
0
 10
3153.120052204330932
 20
108.4260932619691005
 30
0.0
 40
0.7738975680254087
 50
97.8210730912226438
 51
116.3328149458640013
  0
ARC
  5
34260
  8
0
 10
3153.131997657023021
 20
108.3391272251334954
 30
0.0
 40
0.8616801711020027
 50
78.7032405667478656
 51
97.8210730912226438
  0
ARC
  5
34261
  8
0
 10
3153.165785165645957
 20
108.5082669735144947
 30
0.0
 40
0.6891987221826056
 50
57.9766733251243522
 51
78.7032405667478656
  0
ARC
  5
34262
  8
0
 10
3153.2879553256971121
 20
108.7036030909850979
 30
0.0
 40
0.458803959231163
 50
35.71955167041164
 51
57.9766733251243522
  0
ARC
  5
34263
  8
0
 10
3153.3877598899712211
 20
108.775371601247997
 30
0.0
 40
0.3358744261022986
 50
17.5391813660895686
 51
35.7195516704119669
  0
ARC
  5
34264
  8
0
 10
3153.4015876347589256
 20
108.7805071492925038
 30
0.0
 40
0.3211427089964431
 50
2.5325355895793491
 51
17.408993584629961
  0
ARC
  5
34265
  8
0
 10
3152.8959820208920064
 20
108.7997477354162044
 30
0.0
 40
0.3827819655967415
 50
135.5922373570737136
 51
175.3935501412024962
  0
ARC
  5
34266
  8
0
 10
3153.0585267305550587
 20
108.6405290489255009
 30
0.0
 40
0.6103152000200581
 50
111.0901153830522929
 51
135.5922373570737136
  0
ARC
  5
34267
  8
0
 10
3153.131120963210833
 20
108.4523000177346006
 30
0.0
 40
0.812057835072628
 50
95.3197388527889018
 51
111.0901153830522929
  0
ARC
  5
34268
  8
0
 10
3153.1322585238690408
 20
108.4400832472998957
 30
0.0
 40
0.8243274530009008
 50
76.7775317991274733
 51
95.3197388527889018
  0
ARC
  5
34269
  8
0
 10
3153.1672226366749783
 20
108.5888909980852048
 30
0.0
 40
0.6714672689171535
 50
53.3087991335164588
 51
76.7775317991274733
  0
ARC
  5
3426A
  8
0
 10
3153.3284273669119102
 20
108.8052330663241065
 30
0.0
 40
0.40166946399554
 50
27.2937907038049801
 51
53.3087991335164588
  0
ARC
  5
3426B
  8
0
 10
3153.3825482964289222
 20
108.8331595337258051
 30
0.0
 40
0.3407682111895922
 50
13.0166665321181192
 51
27.2937907038046106
  0
ARC
  5
3426C
  8
0
 10
3153.3833226043470859
 20
108.8348555603816976
 30
0.0
 40
0.339635011900659
 50
3.234162054033058
 51
12.76732224854495
  0
ARC
  5
3426D
  8
0
 10
3152.9055400551428647
 20
108.8558844948997972
 30
0.0
 40
0.3922819680243593
 50
135.0959322595159904
 51
175.5578204054293963
  0
ARC
  5
3426E
  8
0
 10
3153.0694736387868033
 20
108.6924989532382
 30
0.0
 40
0.6237318655629047
 50
107.1603960854857007
 51
135.0959322595157062
  0
ARC
  5
3426F
  8
0
 10
3153.131631377803842
 20
108.5156154957100938
 30
0.0
 40
0.8111123866283074
 50
86.5750351813040027
 51
107.6691118256839985
  0
ARC
  5
34270
  8
0
 10
3153.1420693901591221
 20
108.5789636832409997
 30
0.0
 40
0.7472832200488286
 50
68.504596149997397
 51
87.0837509215055832
  0
ARC
  5
34271
  8
0
 10
3153.2172545506509778
 20
108.7511216845998945
 30
0.0
 40
0.5595916918180763
 50
43.9170883554820293
 51
69.2082827168692774
  0
ARC
  5
34272
  8
0
 10
3153.3733842817669029
 20
108.8955426784375931
 30
0.0
 40
0.3469778893565467
 50
24.4314298586431917
 51
44.6207749223458592
  0
ARC
  5
34273
  8
0
 10
3153.388893408110107
 20
108.8939567362709937
 30
0.0
 40
0.3336060227151569
 50
1.276185178739673
 51
25.7812388457082307
  0
ARC
  5
34274
  8
0
 10
3152.9025799946748521
 20
108.9150635939994061
 30
0.0
 40
0.3887250593525985
 50
141.4629210587245041
 51
176.8654889303674906
  0
ARC
  5
34275
  8
0
 10
3153.0239095858851215
 20
108.8184254149281998
 30
0.0
 40
0.5438373005116213
 50
120.2421358227717008
 51
141.4629210587245041
  0
ARC
  5
34276
  8
0
 10
3153.1107503354987784
 20
108.6694701452863967
 30
0.0
 40
0.7162582625420711
 50
100.2034977259498021
 51
120.2421358227717008
  0
ARC
  5
34277
  8
0
 10
3153.1315481395658935
 20
108.5539212835490019
 30
0.0
 40
0.8336639187210924
 50
80.9849588899257071
 51
100.2034977259498021
  0
ARC
  5
34278
  8
0
 10
3153.1535383782311328
 20
108.6925266796196041
 30
0.0
 40
0.6933249490212927
 50
58.2577122378772287
 51
80.9849588899257071
  0
ARC
  5
34279
  8
0
 10
3153.2676686559939299
 20
108.8770146450763008
 30
0.0
 40
0.4763882538759715
 50
34.0524778299283284
 51
58.2577122378772287
  0
ARC
  5
3427A
  8
0
 10
3153.3703451071928612
 20
108.9464076987251957
 30
0.0
 40
0.3524614628836243
 50
16.038714437476461
 51
34.0524778299283284
  0
ARC
  5
3427B
  8
0
 10
3153.3789378007581945
 20
108.9488778985986954
 30
0.0
 40
0.343520754292665
 50
0.8946208256035909
 51
16.0387144374760595
  0
ARC
  5
3427C
  8
0
 10
3152.9106691656161274
 20
108.968536227981005
 30
0.0
 40
0.3971839588295317
 50
144.4457586356583931
 51
176.0336971848479095
  0
ARC
  5
3427D
  8
0
 10
3153.0084614460988632
 20
108.8986418957786952
 30
0.0
 40
0.5173860711077741
 50
123.264250328962703
 51
144.4457586356583931
  0
ARC
  5
3427E
  8
0
 10
3153.1081336631791601
 20
108.746698930029396
 30
0.0
 40
0.6991034772591723
 50
98.5859708488310247
 51
123.264250328962703
  0
ARC
  5
3427F
  8
0
 10
3153.1268331896249038
 20
108.6228489782898947
 30
0.0
 40
0.8243571511979425
 50
72.0998654482461632
 51
98.5859708488310247
  0
ARC
  5
34280
  8
0
 10
3153.2055583801297871
 20
108.8665849022679026
 30
0.0
 40
0.5682227016262237
 50
45.5092254628487183
 51
72.0998654482461632
  0
ARC
  5
34281
  8
0
 10
3153.3111683688639459
 20
108.9740890268605966
 30
0.0
 40
0.4175223150146409
 50
21.5079779033071894
 51
45.5092254628487183
  0
ARC
  5
34282
  8
0
 10
3153.3646215178878265
 20
109.0003265394817049
 30
0.0
 40
0.3582041502485068
 50
2.7382215078789041
 51
20.7381121572353102
  0
ARC
  5
34283
  8
0
 10
3152.9054737861588364
 20
109.026910796718596
 30
0.0
 40
0.3913275987918186
 50
148.2772869019431994
 51
177.7928707546857936
  0
ARC
  5
34284
  8
0
 10
3153.0047301547651841
 20
108.9655544449368989
 30
0.0
 40
0.5080170525259911
 50
120.2966734752639013
 51
148.2772869019431994
  0
ARC
  5
34285
  8
0
 10
3153.1302282527331045
 20
108.7507615624839019
 30
0.0
 40
0.7567855291179987
 50
98.0445408882376768
 51
120.2966734752639013
  0
ARC
  5
34286
  8
0
 10
3153.1311518054149019
 20
108.7442270067759011
 30
0.0
 40
0.7633850266641221
 50
73.9062670233554115
 51
98.0445408882376768
  0
ARC
  5
34287
  8
0
 10
3153.1879325990598772
 20
108.9057842177527959
 30
0.0
 40
0.5924997094916929
 50
43.6173924299247489
 51
74.8511173547724979
  0
ARC
  5
34288
  8
0
 10
3153.30720182471714
 20
109.0291682064672045
 30
0.0
 40
0.4210971338662718
 50
23.1975118487751288
 51
42.658269343732691
  0
ARC
  5
34289
  8
0
 10
3153.362390005062025
 20
109.0552339635674031
 30
0.0
 40
0.360110270144862
 50
1.2345732279733479
 51
22.8443463225244905
  0
ARC
  5
3428A
  8
0
 10
3152.9381688716648569
 20
109.0747130068992021
 30
0.0
 40
0.4243021605792194
 50
163.9703673488351114
 51
177.0303456616256028
  0
ARC
  5
3428B
  8
0
 10
3152.9022817882027994
 20
109.085023551901898
 30
0.0
 40
0.3869633055127528
 50
146.4207969832380059
 51
163.9703673488353957
  0
ARC
  5
3428C
  8
0
 10
3153.0265502703441598
 20
109.0025247716773009
 30
0.0
 40
0.5361233014641169
 50
129.5655550428155038
 51
146.4207969832380059
  0
ARC
  5
3428D
  8
0
 10
3153.0958342023900514
 20
108.9036147220509037
 30
0.0
 40
0.6565738885587135
 50
105.3062722558643003
 51
128.7285614799747862
  0
ARC
  5
3428E
  8
0
 10
3153.1306809127818269
 20
108.7884316148651038
 30
0.0
 40
0.7768766785473395
 50
82.4358489374799461
 51
105.5426290746030986
  0
ARC
  5
3428F
  8
0
 10
3153.1474244520509274
 20
108.8804629981578955
 30
0.0
 40
0.6834567919375941
 50
57.6334821518867102
 51
82.8116870009792905
  0
ARC
  5
34290
  8
0
 10
3153.2420974893771017
 20
109.0345720290417972
 30
0.0
 40
0.5026147638910445
 50
34.6845200544635119
 51
57.3445052522810528
  0
ARC
  5
34291
  8
0
 10
3153.3305220359638952
 20
109.0990546452211021
 30
0.0
 40
0.393218449745891
 50
14.5307817494338298
 51
34.2903320591076621
  0
ARC
  5
34292
  8
0
 10
3153.3388507732111066
 20
109.1047606730126063
 30
0.0
 40
0.3837398448103265
 50
1.7251697512474631
 51
14.0180737764012999
  0
ARC
  5
34293
  8
0
 10
3152.9303282527671399
 20
109.1282131182667996
 30
0.0
 40
0.4162772103400815
 50
145.9723813612845049
 51
177.5341393032203996
  0
ARC
  5
34294
  8
0
 10
3153.0228498784208568
 20
109.0657415831558978
 30
0.0
 40
0.5279147663537818
 50
122.591148364922006
 51
145.9723813612845049
  0
ARC
  5
34295
  8
0
 10
3153.1153686923971691
 20
108.9210246932485973
 30
0.0
 40
0.6996782932267803
 50
100.9436644739835032
 51
122.591148364922006
  0
ARC
  5
34296
  8
0
 10
3153.1295505568659792
 20
108.8476803811463043
 30
0.0
 40
0.7743811271595337
 50
77.704706858431436
 51
100.9436644739835032
  0
ARC
  5
34297
  8
0
 10
3153.157342327736842
 20
108.9751952793507996
 30
0.0
 40
0.6438727680698958
 50
48.0797759747963411
 51
77.704706858431436
  0
ARC
  5
34298
  8
0
 10
3153.3143500460178075
 20
109.1500590299563953
 30
0.0
 40
0.4088647791085448
 50
21.2260301635043085
 51
48.0797759747960711
  0
ARC
  5
34299
  8
0
 10
3153.3035774559630227
 20
109.1458749862335935
 30
0.0
 40
0.4204213754225218
 50
10.0973109751930608
 51
21.2260301635046886
  0
ARC
  5
3429A
  8
0
 10
3153.3125315453980875
 20
109.1552368388317973
 30
0.0
 40
0.4100359605070824
 50
1.554092155884254
 51
9.0287044775814582
  0
ARC
  5
3429B
  8
0
 10
3152.9448119362959915
 20
109.1772993109859016
 30
0.0
 40
0.4308295903489121
 50
139.5606658784961098
 51
177.3689749816466872
  0
ARC
  5
3429C
  8
0
 10
3153.0738535368541307
 20
109.0673234572045942
 30
0.0
 40
0.6003772918660307
 50
107.6803691766769049
 51
139.5606658784961098
  0
ARC
  5
3429D
  8
0
 10
3153.1298810188882271
 20
108.9256632805191032
 30
0.0
 40
0.7524334489559146
 50
82.0912481046258478
 51
108.4691218566867974
  0
ARC
  5
3429E
  8
0
 10
3153.1525298855540314
 20
109.0234164468981959
 30
0.0
 40
0.6525555086160946
 50
55.8429835543460698
 51
82.8800007846414246
  0
ARC
  5
3429F
  8
0
 10
3153.2495070946602027
 20
109.159679867448304
 30
0.0
 40
0.4853625885260195
 50
26.8557487793103711
 51
56.2847215443334079
  0
ARC
  5
342A0
  8
0
 10
3153.3167327566370659
 20
109.2010807439117031
 30
0.0
 40
0.4067377771528741
 50
14.9144717803082898
 51
25.9306735438574307
  0
ARC
  5
342A1
  8
0
 10
3153.3351270414591454
 20
109.2063097202418049
 30
0.0
 40
0.3876174888439341
 50
2.3566973826592621
 51
14.8673845766355104
  0
ARC
  5
342A2
  8
0
 10
3152.9333559631268145
 20
109.2314746147909972
 30
0.0
 40
0.4190258763907693
 50
159.9654966500484079
 51
178.7087040360491983
  0
ARC
  5
342A3
  8
0
 10
3152.9995262509069107
 20
109.2000241234692055
 30
0.0
 40
0.4920145456223243
 50
129.1007925040476891
 51
159.1644829428418859
  0
ARC
  5
342A4
  8
0
 10
3153.09809482587616
 20
109.0815937840663992
 30
0.0
 40
0.64608933434074
 50
106.8586356510639064
 51
129.2604633185434864
  0
ARC
  5
342A5
  8
0
 10
3153.129506905730068
 20
108.9877739320485972
 30
0.0
 40
0.7449924335218147
 50
85.1789217043938578
 51
107.0780748855434013
  0
ARC
  5
342A6
  8
0
 10
3153.1355442415019752
 20
109.0305447282622993
 30
0.0
 40
0.7018697321762123
 50
65.136241335675507
 51
85.3765825627551749
  0
ARC
  5
342A7
  8
0
 10
3153.2173278609129738
 20
109.1865241272814018
 30
0.0
 40
0.5260317633541839
 50
34.0688427904778024
 51
66.0751474812161348
  0
ARC
  5
342A8
  8
0
 10
3153.3156346008668152
 20
109.2530048584952027
 30
0.0
 40
0.4073561435201576
 50
13.5160467971267604
 51
34.0688427904778024
  0
ARC
  5
342A9
  8
0
 10
3153.3261066541308537
 20
109.2562034303822998
 30
0.0
 40
0.3964271097211442
 50
1.392559110050051
 51
13.4202979765721793
  0
ARC
  5
342AA
  8
0
 10
3152.9344544908522039
 20
109.2812315175250006
 30
0.0
 40
0.4200482575219182
 50
157.1702151641918022
 51
179.3121744856208011
  0
ARC
  5
342AB
  8
0
 10
3152.9913235510271079
 20
109.2572911713474042
 30
0.0
 40
0.4817510141891811
 50
138.0859471092236959
 51
157.1702151641918022
  0
ARC
  5
342AC
  8
0
 10
3153.0804756507168349
 20
109.170930326658393
 30
0.0
 40
0.6058020061107802
 50
111.2885476240144982
 51
137.6404520994854863
  0
ARC
  5
342AD
  8
0
 10
3153.1288403231569646
 20
109.0539365713669042
 30
0.0
 40
0.7323766466133057
 50
86.7087999976495922
 51
111.4910231540538064
  0
ARC
  5
342AE
  8
0
 10
3153.13463199428179
 20
109.0914132857570991
 30
0.0
 40
0.6946387284204123
 50
63.0493208445658695
 51
87.008259830183718
  0
ARC
  5
342AF
  8
0
 10
3153.1966326493629822
 20
109.2137447497957936
 30
0.0
 40
0.5574927127793035
 50
43.13337829832534
 51
63.031204087793391
  0
ARC
  5
342B0
  8
0
 10
3153.2702908397250212
 20
109.2827533957875943
 30
0.0
 40
0.4565584657225178
 50
21.7626893210947685
 51
43.1333782983250416
  0
ARC
  5
342B1
  8
0
 10
3153.335435137587865
 20
109.3087600607123022
 30
0.0
 40
0.3864148547188213
 50
11.5987752104791504
 51
21.7626893210951593
  0
ARC
  5
342B2
  8
0
 10
3153.2985739343380374
 20
109.3011943635084009
 30
0.0
 40
0.4240444717679396
 50
1.767377500647711
 51
11.5987752104791504
  0
ARC
  5
342B3
  8
0
 10
3152.9520469767630857
 20
109.3252781840977974
 30
0.0
 40
0.4380433769569826
 50
164.4671148739458033
 51
177.4525298380750087
  0
ARC
  5
342B4
  8
0
 10
3152.9763625167302052
 20
109.317236920650501
 30
0.0
 40
0.4636258673722696
 50
147.2467169577523123
 51
164.314357675546205
  0
ARC
  5
342B5
  8
0
 10
3153.0448888159821763
 20
109.2679842875609069
 30
0.0
 40
0.5479210734533388
 50
124.5292971867191056
 51
146.7920885205284094
  0
ARC
  5
342B6
  8
0
 10
3153.1100716886758164
 20
109.1723832779724006
 30
0.0
 40
0.6636283000542277
 50
103.9552043446895055
 51
124.4870558257910034
  0
ARC
  5
342B7
  8
0
 10
3153.1288329829849317
 20
109.1071225652708989
 30
0.0
 40
0.731491515941475
 50
83.3048572947557773
 51
104.1485998680012983
  0
ARC
  5
342B8
  8
0
 10
3153.1389846447668788
 20
109.1667312022548941
 30
0.0
 40
0.6711131431571314
 50
58.9064880004172196
 51
83.5723245280784539
  0
ARC
  5
342B9
  8
0
 10
3153.2046837321049679
 20
109.2790175096732952
 30
0.0
 40
0.5410328716454417
 50
38.3974764858119997
 51
58.7233933658508391
  0
ARC
  5
342BA
  8
0
 10
3153.2752256722192215
 20
109.3370115626622976
 30
0.0
 40
0.4497297873285027
 50
18.7886224731263489
 51
38.1889709345080632
  0
ARC
  5
342BB
  8
0
 10
3153.3581780631980109
 20
109.3621461425897934
 30
0.0
 40
0.363114128935051
 50
8.3374568317478435
 51
19.2496703427116884
  0
ARC
  5
342BC
  8
0
 10
3153.1964987500500683
 20
109.3384517247688024
 30
0.0
 40
0.5265204499131317
 50
2.7413018520589998
 51
8.3374568317474402
  0
ARC
  5
342BD
  8
0
 10
3152.9486839173218868
 20
109.3749525995394976
 30
0.0
 40
0.4342612365957437
 50
162.0485011333360887
 51
179.5428933855654066
  0
ARC
  5
342BE
  8
0
 10
3152.9865153937989817
 20
109.3626958033990064
 30
0.0
 40
0.4740286813733327
 50
140.195868993451711
 51
162.0485011333360887
  0
ARC
  5
342BF
  8
0
 10
3153.0708096005678271
 20
109.2924542209866985
 30
0.0
 40
0.5837528500621288
 50
118.3611821436767997
 51
140.195868993451711
  0
ARC
  5
342C0
  8
0
 10
3153.1231664291690322
 20
109.1954652924270022
 30
0.0
 40
0.6939712231417668
 50
97.2762449418268176
 51
118.3611821436767997
  0
ARC
  5
342C1
  8
0
 10
3153.1267076603808164
 20
109.1677304263925947
 30
0.0
 40
0.721931250188205
 50
69.5121448730696585
 51
97.2762449418268176
  0
ARC
  5
342C2
  8
0
 10
3153.1746391610690807
 20
109.2960119354954003
 30
0.0
 40
0.5849875598044566
 50
45.772711111585842
 51
69.5121448730696585
  0
ARC
  5
342C3
  8
0
 10
3153.2462314111180604
 20
109.3695617412350032
 30
0.0
 40
0.4823472938689622
 50
23.3828676339316317
 51
45.7727111115861192
  0
ARC
  5
342C4
  8
0
 10
3153.3228896695341064
 20
109.4027075209105959
 30
0.0
 40
0.3988300423955557
 50
9.3036408322599549
 51
23.3828676339316317
  0
ARC
  5
342C5
  8
0
 10
3153.2528786719071832
 20
109.3912382122119027
 30
0.0
 40
0.469774279868827
 50
1.8172571720492641
 51
9.3036408322595534
  0
ARC
  5
342C6
  8
0
 10
3152.9639682762999655
 20
109.4189512444435053
 30
0.0
 40
0.4495850804373578
 50
152.3288598049799134
 51
179.117693552930092
  0
ARC
  5
342C7
  8
0
 10
3153.0396425451940559
 20
109.3792699757050997
 30
0.0
 40
0.5350321287260029
 50
122.7597735722650043
 51
152.3288598049799134
  0
ARC
  5
342C8
  8
0
 10
3153.1267458710221945
 20
109.2439034459247011
 30
0.0
 40
0.6960013393070154
 50
99.2580836147007233
 51
122.7597735722650043
  0
ARC
  5
342C9
  8
0
 10
3153.1278398300378285
 20
109.2371922539008011
 30
0.0
 40
0.702801107296485
 50
73.0421212650918221
 51
99.2580836147007233
  0
ARC
  5
342CA
  8
0
 10
3153.1479043580670805
 20
109.3029933426799971
 30
0.0
 40
0.6340088942955572
 50
51.5580950282303618
 51
73.0421212650918221
  0
ARC
  5
342CB
  8
0
 10
3153.2337460519897832
 20
109.4111360320797957
 30
0.0
 40
0.4959377615917102
 50
29.12931263637455
 51
51.5580950282303618
  0
ARC
  5
342CC
  8
0
 10
3153.2796542925411813
 20
109.4367190025812988
 30
0.0
 40
0.4433825056204803
 50
14.4141868740843204
 51
29.1293126363741983
  0
ARC
  5
342CD
  8
0
 10
3153.2973301967358566
 20
109.4412620689228959
 30
0.0
 40
0.4251321072436802
 50
0.8394063962558324
 51
14.4141868740843204
  0
ARC
  5
342CE
  8
0
 10
3152.9816233422579899
 20
109.460831178546897
 30
0.0
 40
0.4673286454377445
 50
147.5311343788708029
 51
178.5884978920817048
  0
ARC
  5
342CF
  8
0
 10
3153.0530174213540704
 20
109.4154026558730948
 30
0.0
 40
0.5519505409630479
 50
124.5121696883960993
 51
147.5311343788708029
  0
ARC
  5
342D0
  8
0
 10
3153.1180190522491102
 20
109.3208677180653012
 30
0.0
 40
0.6666765906877938
 50
100.7627811379120999
 51
124.5121696883960993
  0
ARC
  5
342D1
  8
0
 10
3153.1273522270948888
 20
109.2717682419467025
 30
0.0
 40
0.7166552532129918
 50
79.0316445987540988
 51
100.7627811379120999
  0
ARC
  5
342D2
  8
0
 10
3153.1405551727989405
 20
109.3398923657936024
 30
0.0
 40
0.6472635100068782
 50
55.7706137597955092
 51
79.0316445987540988
  0
ARC
  5
342D3
  8
0
 10
3153.2097848841490304
 20
109.4416484912594001
 30
0.0
 40
0.5241901091300758
 50
29.0741941007531715
 51
55.7706137597955092
  0
ARC
  5
342D4
  8
0
 10
3153.2945493639372216
 20
109.4887778029603993
 30
0.0
 40
0.4272045996185437
 50
11.2533150613712305
 51
29.0741941007531715
  0
ARC
  5
342D5
  8
0
 10
3153.2499770289441585
 20
109.4799091333205041
 30
0.0
 40
0.4726506813845976
 50
1.71220297303817
 51
11.2533150613712305
  0
ARC
  5
342D6
  8
0
 10
3152.9852805914620149
 20
109.5045890309546053
 30
0.0
 40
0.4709463954062254
 50
152.4491068961447127
 51
178.8057162732795859
  0
ARC
  5
342D7
  8
0
 10
3153.0439938238610011
 20
109.4739585411791012
 30
0.0
 40
0.5371692808957805
 50
123.5139718021490012
 51
152.4491068961447127
  0
ARC
  5
342D8
  8
0
 10
3153.1282321967701137
 20
109.3467556490832067
 30
0.0
 40
0.6897362472680088
 50
99.5495122649070936
 51
123.5139718021490012
  0
ARC
  5
342D9
  8
0
 10
3153.1275715723409121
 20
109.3506825358017949
 30
0.0
 40
0.6857541794713404
 50
75.0165441170785812
 51
99.5495122649070936
  0
ARC
  5
342DA
  8
0
 10
3153.1371487841270209
 20
109.3864665039701976
 30
0.0
 40
0.6487107540968806
 50
53.6348072890862326
 51
75.0165441170785812
  0
ARC
  5
342DB
  8
0
 10
3153.2196775078150495
 20
109.4985482328589939
 30
0.0
 40
0.5095227367094032
 50
30.1827288955578013
 51
53.6348072890862326
  0
ARC
  5
342DC
  8
0
 10
3153.2550311209352003
 20
109.5191102627165947
 30
0.0
 40
0.4686243867120639
 50
15.8432899781242291
 51
30.1827288955574389
  0
ARC
  5
342DD
  8
0
 10
3153.2625283762558865
 20
109.5225848116486986
 30
0.0
 40
0.4604651834932334
 50
2.8683155232055708
 51
15.6820589154721706
  0
ARC
  5
342DE
  8
0
 10
3152.9980258124242027
 20
109.5448420467465951
 30
0.0
 40
0.4838309816151173
 50
160.8074875289946135
 51
178.1889927795450035
  0
ARC
  5
342DF
  8
0
 10
3153.0078944372030492
 20
109.541406873979497
 30
0.0
 40
0.4942803915014613
 50
142.1466465645654864
 51
160.8074875289946135
  0
ARC
  5
342E0
  8
0
 10
3153.0769384379009352
 20
109.4877478056062046
 30
0.0
 40
0.5817239141376378
 50
125.6014226891417991
 51
142.1466465645654864
  0
ARC
  5
342E1
  8
0
 10
3153.1089316844718269
 20
109.4430624558851974
 30
0.0
 40
0.6366816097392161
 50
104.2724016070951052
 51
125.6014226891417991
  0
ARC
  5
342E2
  8
0
 10
3153.1278864147720924
 20
109.3685501490522967
 30
0.0
 40
0.7135670158336928
 50
82.6298920360126345
 51
104.2724016070951052
  0
ARC
  5
342E3
  8
0
 10
3153.1363222944810332
 20
109.4337692096394932
 30
0.0
 40
0.6478046411020055
 50
58.6025432562802067
 51
82.6298920360126345
  0
ARC
  5
342E4
  8
0
 10
3153.185540850508005
 20
109.5144101972977069
 30
0.0
 40
0.5533301199449462
 50
34.5026671609412574
 51
58.6025432562802067
  0
ARC
  5
342E5
  8
0
 10
3153.2636564380059099
 20
109.5681029073076047
 30
0.0
 40
0.4585411326187616
 50
14.9957067749870596
 51
34.5026671609412574
  0
ARC
  5
342E6
  8
0
 10
3153.2525073820061152
 20
109.5651164221268061
 30
0.0
 40
0.4700832530226248
 50
1.5587666745508011
 51
14.9957067749874593
  0
ARC
  5
342E7
  8
0
 10
3152.9845508654980222
 20
109.586565037456495
 30
0.0
 40
0.4706648815315389
 50
161.9458790892786055
 51
177.2285352989194109
  0
ARC
  5
342E8
  8
0
 10
3153.0594852907420318
 20
109.5605239231890948
 30
0.0
 40
0.5499825316319378
 50
144.7133708828638134
 51
161.7858997372570968
  0
ARC
  5
342E9
  8
0
 10
3153.0856489474640512
 20
109.5276552651804991
 30
0.0
 40
0.5904425951406626
 50
115.2582477022638017
 51
143.5764011877836026
  0
ARC
  5
342EA
  8
0
 10
3153.1260553854122008
 20
109.4467427482044002
 30
0.0
 40
0.6808637429000333
 50
85.2783580950577971
 51
115.4280696569447997
  0
ARC
  5
342EB
  8
0
 10
3153.1273485534247811
 20
109.4623994350377956
 30
0.0
 40
0.6651537420689614
 50
55.9023354580763083
 51
85.2783580950577971
  0
ARC
  5
342EC
  8
0
 10
3153.2097610656492179
 20
109.5841328950702973
 30
0.0
 40
0.5181474243050034
 50
29.1004071673340583
 51
55.9023354580765286
  0
ARC
  5
342ED
  8
0
 10
3153.2397667296240797
 20
109.6008341126844954
 30
0.0
 40
0.4838069155664836
 50
14.3064229260326101
 51
29.1004071673340583
  0
ARC
  5
342EE
  8
0
 10
3153.264781813738864
 20
109.6080619766364066
 30
0.0
 40
0.4577822764610928
 50
1.4540601311865351
 51
14.2035048374579809
  0
ARC
  5
342EF
  8
0
 10
3153.0037926262871224
 20
109.627713897067494
 30
0.0
 40
0.4894101914355976
 50
150.9921158613962007
 51
179.1483389198691896
  0
ARC
  5
342F0
  8
0
 10
3153.0644907617570425
 20
109.5940574516993991
 30
0.0
 40
0.5588149460596296
 50
126.079801559750095
 51
150.9921158613962007
  0
ARC
  5
342F1
  8
0
 10
3153.1182034662879232
 20
109.5203443772604004
 30
0.0
 40
0.6500217000378588
 50
103.0825381150507951
 51
126.0798015597503934
  0
ARC
  5
342F2
  8
0
 10
3153.1259942735728146
 20
109.4868190964282064
 30
0.0
 40
0.6844403161203322
 50
79.0689225818264987
 51
103.0825381150507951
  0
ARC
  5
342F3
  8
0
 10
3153.1336317559939744
 20
109.5263644518706059
 30
0.0
 40
0.6441641907504823
 50
56.0394593631527869
 51
79.0689225818264987
  0
ARC
  5
342F4
  8
0
 10
3153.1927030341848877
 20
109.6140714572315034
 30
0.0
 40
0.5384195232892938
 50
28.9474701185054606
 51
56.0394593631527869
  0
ARC
  5
342F5
  8
0
 10
3153.2563047891549104
 20
109.6492502964249951
 30
0.0
 40
0.4657371047668589
 50
13.2309737438291393
 51
28.9474701185051018
  0
ARC
  5
342F6
  8
0
 10
3153.2403543154250656
 20
109.6455000483453972
 30
0.0
 40
0.4821225242875589
 50
0.9051350350599973
 51
13.2309737438295407
  0
ARC
  5
342F7
  8
0
 10
3153.0109059604869799
 20
109.6660087783649971
 30
0.0
 40
0.4965288938081051
 50
152.3047941283413991
 51
179.1134823079461
  0
ARC
  5
342F8
  8
0
 10
3153.0625911578599698
 20
109.638878959566398
 30
0.0
 40
0.5549017187828312
 50
130.2723320243580929
 51
152.3047941283413991
  0
ARC
  5
342F9
  8
0
 10
3153.1110428968781889
 20
109.5816906689925929
 30
0.0
 40
0.629855515169
 50
105.3270888915591001
 51
130.2723320243580929
  0
ARC
  5
342FA
  8
0
 10
3153.126608625550034
 20
109.5248974590276987
 30
0.0
 40
0.6887432100397174
 50
81.1688122472586855
 51
105.3270888915591001
  0
ARC
  5
342FB
  8
0
 10
3153.1348674496739477
 20
109.5780548124586034
 30
0.0
 40
0.6349481136117143
 50
56.4408598571018203
 51
81.1688122472586855
  0
ARC
  5
342FC
  8
0
 10
3153.1797887212778733
 20
109.6457714811219972
 30
0.0
 40
0.5536863891816712
 50
29.5635858487343306
 51
56.4408598571016071
  0
ARC
  5
342FD
  8
0
 10
3153.2611271587520605
 20
109.6919097924211002
 30
0.0
 40
0.4601733677338772
 50
13.4840224843770304
 51
29.5635858487339718
  0
ARC
  5
342FE
  8
0
 10
3153.2145043185319082
 20
109.6807303884971958
 30
0.0
 40
0.5081177970480603
 50
1.629322413202859
 51
13.4840224843770304
  0
ARC
  5
342FF
  8
0
 10
3153.0310403864318687
 20
109.6997541291717937
 30
0.0
 40
0.5170546373731709
 50
162.3097490353632963
 51
177.6074024977367003
  0
ARC
  5
34300
  8
0
 10
3153.0383888934738934
 20
109.6963232100197985
 30
0.0
 40
0.5250992350919015
 50
137.9267150974343963
 51
162.1967411286292986
  0
ARC
  5
34301
  8
0
 10
3153.1050513880850303
 20
109.6361454595533047
 30
0.0
 40
0.6149059711363963
 50
111.942706387323696
 51
137.9267150974343963
  0
ARC
  5
34302
  8
0
 10
3153.1257737944119981
 20
109.5847076742379045
 30
0.0
 40
0.6703610329625597
 50
85.2423810753788445
 51
111.942706387323696
  0
ARC
  5
34303
  8
0
 10
3153.127259107719965
 20
109.6025541016352065
 30
0.0
 40
0.6524529027847246
 50
58.2249365340277194
 51
85.2423810753788445
  0
ARC
  5
34304
  8
0
 10
3153.1816036485251971
 20
109.6902881097564944
 30
0.0
 40
0.5492512298508609
 50
35.7145513116145921
 51
58.2249365340274991
  0
ARC
  5
34305
  8
0
 10
3153.2086110497211848
 20
109.7097052987948018
 30
0.0
 40
0.5159882331495879
 50
16.2304982773513906
 51
35.7145513116145921
  0
ARC
  5
34306
  8
0
 10
3153.2472707221959354
 20
109.7222206699595972
 30
0.0
 40
0.4753728088882412
 50
1.7701390581997061
 51
16.0845256902765108
  0
ARC
  5
34307
  8
0
 10
3153.0283462199099631
 20
109.7385540048375958
 30
0.0
 40
0.5140131465217683
 50
156.7978723432804884
 51
178.8505885945662044
  0
ARC
  5
34308
  8
0
 10
3153.0536159162411423
 20
109.7277222883789989
 30
0.0
 40
0.5415064845165317
 50
133.9043120765834942
 51
156.7978723432804884
  0
ARC
  5
34309
  8
0
 10
3153.1115745352958584
 20
109.6675034433880001
 30
0.0
 40
0.6250858528723137
 50
112.341384166733107
 51
133.9043120765834942
  0
ARC
  5
3430A
  8
0
 10
3153.1239046703599342
 20
109.6375012112293064
 30
0.0
 40
0.6575229637978747
 50
95.0189995814123449
 51
112.341384166733107
  0
ARC
  5
3430B
  8
0
 10
3153.1245815150668932
 20
109.6297942766044002
 30
0.0
 40
0.6652595625382159
 50
68.0499836808654237
 51
95.0189995814123449
  0
ARC
  5
3430C
  8
0
 10
3153.1534317656160056
 20
109.7013808918291033
 30
0.0
 40
0.5880780852518022
 50
39.692070563400641
 51
68.0499836808654237
  0
ARC
  5
3430D
  8
0
 10
3153.2137937252409756
 20
109.7514802461545003
 30
0.0
 40
0.5096337644022063
 50
19.2147290334754004
 51
39.6920705634009607
  0
ARC
  5
3430E
  8
0
 10
3153.2299898936571481
 20
109.7571250176075068
 30
0.0
 40
0.4924821080355251
 50
0.8587979579678776
 51
19.2147290334750096
  0
ARC
  5
3430F
  8
0
 10
3153.0524249046188743
 20
109.7705202733458947
 30
0.0
 40
0.5383746774602973
 50
166.0798284635123139
 51
177.8294550127851892
  0
ARC
  5
34310
  8
0
 10
3153.0208279408630005
 20
109.7773610231021024
 30
0.0
 40
0.5060608937966169
 50
156.0791859085817066
 51
165.970976688079503
  0
ARC
  5
34311
  8
0
 10
3153.0705592670637998
 20
109.7553015154775977
 30
0.0
 40
0.5604651829873202
 50
134.7505922483757956
 51
156.0791859085817066
  0
ARC
  5
34312
  8
0
 10
3153.1028392351709044
 20
109.722739288391594
 30
0.0
 40
0.6063159733158788
 50
110.3682347130290964
 51
134.7505922483755967
  0
ARC
  5
34313
  8
0
 10
3153.1277706871492228
 20
109.655586703639699
 30
0.0
 40
0.6779472998190086
 50
87.1881434886323774
 51
110.3682347130288974
  0
ARC
  5
34314
  8
0
 10
3153.1300435444768482
 20
109.7018623821267056
 30
0.0
 40
0.6316158385872422
 50
51.4486902381920288
 51
87.1881434886323774
  0
ARC
  5
34315
  8
0
 10
3153.1893832047280739
 20
109.7763255862928986
 30
0.0
 40
0.5364004824029811
 50
25.1651687170833718
 51
51.4486902381920288
  0
ARC
  5
34316
  8
0
 10
3153.2207556562498212
 20
109.7910650529759948
 30
0.0
 40
0.501738073475989
 50
1.004125312959085
 51
25.1651687170833718
  0
ARC
  5
34317
  8
0
 10
3153.0468129639029939
 20
109.8063921359767932
 30
0.0
 40
0.5325446643931921
 50
140.8676305277460017
 51
178.5599232877688962
  0
ARC
  5
34318
  8
0
 10
3153.1079113353489447
 20
109.7566814951964034
 30
0.0
 40
0.6113111471129322
 50
107.8055069667898067
 51
140.8676305277456891
  0
ARC
  5
34319
  8
0
 10
3153.1233633098358951
 20
109.7085701176504955
 30
0.0
 40
0.6618430000862227
 50
63.8738230152695579
 51
107.8055069667898067
  0
ARC
  5
3431A
  8
0
 10
3153.167283417220915
 20
109.798118632421307
 30
0.0
 40
0.562103778460915
 50
28.9012842902912901
 51
63.8738230152695579
  0
ARC
  5
3431B
  8
0
 10
3153.2089923153771451
 20
109.8221915009452943
 30
0.0
 40
0.5139559213324481
 50
2.6060731425111201
 51
28.7990919615467185
  0
ARC
  5
3431C
  8
0
 10
3153.0506269149627769
 20
109.8390812775500933
 30
0.0
 40
0.5365194866280129
 50
145.0611243765677898
 51
177.9931597000334023
  0
ARC
  5
3431D
  8
0
 10
3153.1013841330050127
 20
109.8027440401376964
 30
0.0
 40
0.5989392487535117
 50
116.031563383389198
 51
144.9923271748895957
  0
ARC
  5
3431E
  8
0
 10
3153.124628554577157
 20
109.7551524721005052
 30
0.0
 40
0.6519039585370966
 50
82.2552490994459617
 51
116.031563383389198
  0
ARC
  5
3431F
  8
0
 10
3153.1278993918608649
 20
109.7792026193918957
 30
0.0
 40
0.627632412206625
 50
46.9407356232746977
 51
82.2552490994459617
  0
ARC
  5
34320
  8
0
 10
3153.2008795773708698
 20
109.8573021699611019
 30
0.0
 40
0.520741592786653
 50
22.271611706705599
 51
46.9407356232746977
  0
ARC
  5
34321
  8
0
 10
3153.1858644343260494
 20
109.8511527001582948
 30
0.0
 40
0.5369672052421066
 50
2.2526524209263208
 51
22.2716117067052117
  0
ARC
  5
34322
  8
0
 10
3153.0532154772381546
 20
109.8711710721706964
 30
0.0
 40
0.5389088215716069
 50
155.0128411452616888
 51
178.7422293814551892
  0
ARC
  5
34323
  8
0
 10
3153.0790267357851917
 20
109.8591421266027055
 30
0.0
 40
0.5673854189680247
 50
128.6035245163546108
 51
155.0128411452616888
  0
ARC
  5
34324
  8
0
 10
3153.122774424857198
 20
109.804347256519506
 30
0.0
 40
0.6375020224696967
 50
105.3214818132690027
 51
128.603524516354895
  0
ARC
  5
34325
  8
0
 10
3153.1239938158691984
 20
109.7998964707104932
 30
0.0
 40
0.6421168256895208
 50
72.6091820534284409
 51
105.3214818132690027
  0
ARC
  5
34326
  8
0
 10
3153.1338167361282103
 20
109.8312590597953005
 30
0.0
 40
0.6092519240998006
 50
37.3228145350071827
 51
72.6091820534284409
  0
ARC
  5
34327
  8
0
 10
3153.2224814610872272
 20
109.8988592907852961
 30
0.0
 40
0.4977565220327549
 50
13.7371488726307405
 51
37.322814535006863
  0
ARC
  5
34328
  8
0
 10
3153.1139425325131924
 20
109.8723257848954944
 30
0.0
 40
0.6094915924039752
 50
3.3110785506843161
 51
13.7371488726307405
  0
ARC
  5
34329
  8
0
 10
3153.0598451663258857
 20
109.9015056750041026
 30
0.0
 40
0.5455004186437643
 50
152.6072772996510878
 51
178.9491119603387119
  0
ARC
  5
3432A
  8
0
 10
3153.0893547844798377
 20
109.8862140966901961
 30
0.0
 40
0.5787366929679977
 50
119.1314309773483018
 51
152.6072772996515141
  0
ARC
  5
3432B
  8
0
 10
3153.1272990385768935
 20
109.8181296459953984
 30
0.0
 40
0.6566806397846181
 50
86.0247257232876734
 51
119.1314309773483018
  0
ARC
  5
3432C
  8
0
 10
3153.129974374423
 20
109.8566274705008965
 30
0.0
 40
0.6180899684565301
 50
55.9709709535389877
 51
86.0247257232876734
  0
ARC
  5
3432D
  8
0
 10
3153.1535259521301668
 20
109.8915059891286035
 30
0.0
 40
0.5760044855184417
 50
28.8776913657944903
 51
55.9709709535387674
  0
ARC
  5
3432E
  8
0
 10
3153.2696307055011857
 20
109.942923541103994
 30
0.0
 40
0.4496411305601625
 50
8.2117926972731521
 51
30.2856163217567307
  0
ARC
  5
3432F
  8
0
 10
3153.1814831339929697
 20
109.9157605044596977
 30
0.0
 40
0.540960325163497
 50
0.5700967448181542
 51
9.7530775309338154
  0
ARC
  5
34330
  8
0
 10
3153.0648606734412169
 20
109.9308070222493967
 30
0.0
 40
0.5504299744556841
 50
147.3632699210185137
 51
179.7369328139720892
  0
ARC
  5
34331
  8
0
 10
3153.1016280473268125
 20
109.9072600818788032
 30
0.0
 40
0.594091149236863
 50
119.0794603049604063
 51
147.3632699210185137
  0
ARC
  5
34332
  8
0
 10
3153.1236826778867908
 20
109.8676022826816023
 30
0.0
 40
0.6394689826616889
 50
94.0421592523434668
 51
119.0794603049604063
  0
ARC
  5
34333
  8
0
 10
3153.1234252273079619
 20
109.8712454719168932
 30
0.0
 40
0.6358167082189456
 50
59.6531873860252375
 51
94.0421592523434668
  0
ARC
  5
34334
  8
0
 10
3153.1564175474941294
 20
109.9275993121993054
 30
0.0
 40
0.5705154945564987
 50
28.6236620855732902
 51
59.6531873860252375
  0
ARC
  5
34335
  8
0
 10
3153.1889261584569795
 20
109.9453410025300997
 30
0.0
 40
0.5334806817103438
 50
13.9895584732912592
 51
28.6236620855732902
  0
ARC
  5
34336
  8
0
 10
3153.1854892497608489
 20
109.9444847501935953
 30
0.0
 40
0.537022645776929
 50
1.0789462367536291
 51
13.9895584732908702
  0
ARC
  5
34337
  8
0
 10
3153.0695904129529481
 20
109.9580926185638958
 30
0.0
 40
0.5553481219877705
 50
157.8690820305066893
 51
178.4846841127233859
  0
ARC
  5
34338
  8
0
 10
3153.086954696662815
 20
109.9504249141673
 30
0.0
 40
0.5743219842897713
 50
135.1006643712165101
 51
157.8130908981337086
  0
ARC
  5
34339
  8
0
 10
3153.1128763440460716
 20
109.9245941918952951
 30
0.0
 40
0.6109164922950703
 50
110.8710236165899943
 51
135.1006643712165101
  0
ARC
  5
3433A
  8
0
 10
3153.123727967432842
 20
109.8961334182753973
 30
0.0
 40
0.6413758646651893
 50
77.2082967761836443
 51
110.8710236165899943
  0
ARC
  5
3433B
  8
0
 10
3153.1308831194319282
 20
109.927648059900207
 30
0.0
 40
0.6090591687192357
 50
44.3366443057409967
 51
77.2082967761836443
  0
ARC
  5
3433C
  8
0
 10
3153.1740768212921466
 20
109.9698529942895959
 30
0.0
 40
0.5486691665073574
 50
19.3329244520018406
 51
44.3366443057409967
  0
ARC
  5
3433D
  8
0
 10
3153.1768027992688985
 20
109.9708093771160975
 30
0.0
 40
0.5457802871318386
 50
1.4148933177388381
 51
19.3329244520022208
  0
ARC
  5
3433E
  8
0
 10
3153.0777406488168708
 20
109.9843263655278065
 30
0.0
 40
0.5634357802247763
 50
145.7585931023417913
 51
178.7614747656589884
  0
ARC
  5
3433F
  8
0
 10
3153.104152896794858
 20
109.9663487030504001
 30
0.0
 40
0.5953857910449242
 50
121.8228288920877986
 51
145.7585931023417913
  0
ARC
  5
34340
  8
0
 10
3153.1221299570120209
 20
109.9373804513496964
 30
0.0
 40
0.6294788152679462
 50
95.8897853465497434
 51
121.8228288920877986
  0
ARC
  5
34341
  8
0
 10
3153.1223089290419921
 20
109.9356455499136018
 30
0.0
 40
0.6312229236304303
 50
57.698389853552051
 51
95.8897853465497434
  0
ARC
  5
34342
  8
0
 10
3153.155320756187848
 20
109.9878618478327041
 30
0.0
 40
0.5694465325095786
 50
24.8077746679340514
 51
57.698389853552051
  0
ARC
  5
34343
  8
0
 10
3153.1786122231110312
 20
109.9986278519865976
 30
0.0
 40
0.5437872402963909
 50
7.938735413875702
 51
24.8077746679344209
  0
ARC
  5
34344
  8
0
 10
3153.1631881123748826
 20
109.9964769503437054
 30
0.0
 40
0.5593606012021006
 50
1.2449189913688681
 51
7.938735413875702
  0
ARC
  5
34345
  8
0
 10
3153.0840890308581947
 20
110.0098210814323068
 30
0.0
 40
0.5696982094068711
 50
132.7759310896884983
 51
179.2744325751978067
  0
ARC
  5
34346
  8
0
 10
3153.1235925940991365
 20
109.9671251501086999
 30
0.0
 40
0.6278658469754514
 50
95.8953943992072766
 51
132.7759310896884983
  0
ARC
  5
34347
  8
0
 10
3153.1230178827631789
 20
109.9726908922531976
 30
0.0
 40
0.6222705115306963
 50
51.1202401668023825
 51
95.8953943992072766
  0
ARC
  5
34348
  8
0
 10
3153.1607120770249821
 20
110.0194396014955061
 30
0.0
 40
0.5622180836289827
 50
22.4084195054693787
 51
51.1202401668023825
  0
ARC
  5
34349
  8
0
 10
3153.1663203199868803
 20
110.0217521166231052
 30
0.0
 40
0.5561517737671898
 50
0.8088168161365189
 51
22.4084195054693787
  0
ARC
  5
3434A
  8
0
 10
3153.0837904401369087
 20
110.0339553833314028
 30
0.0
 40
0.5696928524083131
 50
149.7986433010387941
 51
178.0235633481538002
  0
ARC
  5
3434B
  8
0
 10
3153.1085222270021404
 20
110.0187745593378992
 30
0.0
 40
0.5987045711517125
 50
121.9283622159237979
 51
149.7336503884235128
  0
ARC
  5
3434C
  8
0
 10
3153.1217368579068534
 20
109.9975677735916975
 30
0.0
 40
0.6236916524464164
 50
92.8611268854822356
 51
121.9283622159237979
  0
ARC
  5
3434D
  8
0
 10
3153.1217982271550682
 20
109.9963398393121992
 30
0.0
 40
0.6249211193144533
 50
53.4253642352397975
 51
92.8611268854822356
  0
ARC
  5
3434E
  8
0
 10
3153.1574504219029222
 20
110.0443899849352931
 30
0.0
 40
0.5650888915036933
 50
24.3178247290606286
 51
53.4253642352397975
  0
ARC
  5
3434F
  8
0
 10
3153.1532961184379928
 20
110.0425126888936944
 30
0.0
 40
0.5696476717914379
 50
11.1138029267309104
 51
24.3178247290606286
  0
ARC
  5
34350
  8
0
 10
3153.1944390393668982
 20
110.0487257236851946
 30
0.0
 40
0.528081905413657
 50
1.1385739821305849
 51
11.3128020294434304
  0
ARC
  5
34351
  8
0
 10
3153.0904631111939125
 20
110.0568018609692018
 30
0.0
 40
0.5762291527996714
 50
141.1403925042488083
 51
178.4808150244055014
  0
ARC
  5
34352
  8
0
 10
3153.1163188610289581
 20
110.0355621360988039
 30
0.0
 40
0.6096888428130924
 50
113.9052497927508938
 51
141.1106207874597942
  0
ARC
  5
34353
  8
0
 10
3153.1223365375558387
 20
110.021985835667607
 30
0.0
 40
0.6245390402589135
 50
77.4822729472324738
 51
113.9052497927508938
  0
ARC
  5
34354
  8
0
 10
3153.1253688718761623
 20
110.0356438127092957
 30
0.0
 40
0.6105484938684641
 50
45.5282423410433807
 51
77.4822729472324738
  0
ARC
  5
34355
  8
0
 10
3153.158572336294128
 20
110.0694652351450031
 30
0.0
 40
0.5631527275498195
 50
26.9376780916589809
 51
45.5282423410433807
  0
ARC
  5
34356
  8
0
 10
3153.1423104874138517
 20
110.0612016775204012
 30
0.0
 40
0.5813937284434997
 50
13.8371393497686697
 51
26.9376780916589809
  0
ARC
  5
34357
  8
0
 10
3153.1955610876320861
 20
110.0743178849758976
 30
0.0
 40
0.5265515793107859
 50
5.3825709282319698
 51
13.83713934976827
  0
ARC
  5
34358
  8
0
 10
3153.0936318811468482
 20
110.0647140206349945
 30
0.0
 40
0.6289322285795805
 50
1.2406106966380861
 51
5.3825709282319698
  0
ARC
  5
34359
  8
0
 10
3153.0928484069258957
 20
110.0787992818597019
 30
0.0
 40
0.5785494903139576
 50
142.6555162321089085
 51
178.7504312674309972
  0
ARC
  5
3435A
  8
0
 10
3153.1170341178521994
 20
110.0600173706738047
 30
0.0
 40
0.6091704694363582
 50
105.8911442007218966
 51
142.6310168327269139
  0
ARC
  5
3435B
  8
0
 10
3153.1221624831268855
 20
110.0420035375927057
 30
0.0
 40
0.6279000800211612
 50
72.828918018713054
 51
105.8911442007218966
  0
ARC
  5
3435C
  8
0
 10
3153.1309078401618535
 20
110.0703057813123991
 30
0.0
 40
0.5982774827475117
 50
47.3355607033073511
 51
72.828918018713054
  0
ARC
  5
3435D
  8
0
 10
3153.139941478316814
 20
110.0801076406231971
 30
0.0
 40
0.5849477016434801
 50
23.6192593410223886
 51
47.3355607033073511
  0
ARC
  5
3435E
  8
0
 10
3153.1717574633239565
 20
110.0940204404525957
 30
0.0
 40
0.5502227408656477
 50
8.8472020622759544
 51
23.6192593410223886
  0
ARC
  5
3435F
  8
0
 10
3153.1205920978659378
 20
110.086056456054294
 30
0.0
 40
0.6020042015438168
 50
1.399665688275372
 51
8.8472020622763559
  0
ARC
  5
34360
  8
0
 10
3153.095510061864843
 20
110.0993456650353011
 30
0.0
 40
0.5811220296829883
 50
151.8491173400792036
 51
179.259990949110005
  0
ARC
  5
34361
  8
0
 10
3153.0992029945477952
 20
110.0973696060184039
 30
0.0
 40
0.5853104137434065
 50
127.8411698112746961
 51
151.8491173400788057
  0
ARC
  5
34362
  8
0
 10
3153.1291129256887871
 20
110.0588671135782022
 30
0.0
 40
0.6340653714912691
 50
95.0828617548510522
 51
127.8411698112746961
  0
ARC
  5
34363
  8
0
 10
3153.1257077759219101
 20
110.0971503958557065
 30
0.0
 40
0.5956309501105195
 50
67.6850247963985652
 51
95.0828617548510522
  0
ARC
  5
34364
  8
0
 10
3153.115486407697972
 20
110.0722466670320046
 30
0.0
 40
0.622550684093393
 50
41.814536581151593
 51
67.6850247963985652
  0
ARC
  5
34365
  8
0
 10
3153.1680746908227775
 20
110.1192900325341952
 30
0.0
 40
0.5519914482710034
 50
19.3753142783121106
 51
41.814536581151593
  0
ARC
  5
34366
  8
0
 10
3153.1020290323731388
 20
110.0960636643064987
 30
0.0
 40
0.6220021130379098
 50
9.9721019666320867
 51
19.3753142783121106
  0
ARC
  5
34367
  8
0
 10
3153.2110999840660952
 20
110.1148706611112971
 30
0.0
 40
0.5113223328470916
 50
0.2690171555566142
 51
10.0129798036396096
  0
ARC
  5
34368
  8
0
 10
3153.0998274699718422
 20
110.1180033701869974
 30
0.0
 40
0.5856204539378913
 50
157.6712585797563122
 51
178.3959401451768088
  0
ARC
  5
34369
  8
0
 10
3153.1054633367230053
 20
110.1150476063668009
 30
0.0
 40
0.5919569906412792
 50
138.5262466284247012
 51
157.613865837662388
  0
ARC
  5
3436A
  8
0
 10
3153.1172703974420983
 20
110.1046112398379933
 30
0.0
 40
0.6077153036580967
 50
110.8788304714404944
 51
138.5262466284247012
  0
ARC
  5
3436B
  8
0
 10
3153.121894890549811
 20
110.0924874502641018
 30
0.0
 40
0.6206911354286259
 50
79.7680992276217324
 51
110.8788304714404944
  0
ARC
  5
3436C
  8
0
 10
3153.1240253691171347
 20
110.1042904427405063
 30
0.0
 40
0.6086974049696509
 50
53.1791456246213912
 51
79.7680992276217324
  0
ARC
  5
3436D
  8
0
 10
3153.1374767448419334
 20
110.1222576300572058
 30
0.0
 40
0.5862528214591249
 50
27.9068560686147293
 51
53.1791456246213912
  0
ARC
  5
3436E
  8
0
 10
3153.1432881675132194
 20
110.1253355103789033
 30
0.0
 40
0.5796766538258726
 50
14.7364952889234804
 51
27.9068560686147293
  0
ARC
  5
3436F
  8
0
 10
3153.1697375013482088
 20
110.1322923729834997
 30
0.0
 40
0.5523277014212625
 50
5.5729819782338188
 51
14.7364952889230807
  0
ARC
  5
34370
  8
0
 10
3153.0530580049708078
 20
110.1209073953564967
 30
0.0
 40
0.669561325396685
 50
1.409698476786202
 51
5.5729819782338188
  0
ARC
  5
34371
  8
0
 10
3153.1045337311538788
 20
110.1358163089593063
 30
0.0
 40
0.5901805004810564
 50
154.6611987101487102
 51
179.0375132319456952
  0
ARC
  5
34372
  8
0
 10
3153.1039935577059623
 20
110.1357502804337969
 30
0.0
 40
0.5897206254918724
 50
137.3907459782791136
 51
154.6329400474390923
  0
ARC
  5
34373
  8
0
 10
3153.1204526769029144
 20
110.1206104375653041
 30
0.0
 40
0.6120839313039863
 50
115.7746823915551033
 51
137.3907459782791136
  0
ARC
  5
34374
  8
0
 10
3153.1206604049189082
 20
110.1201802465150053
 30
0.0
 40
0.6125616501209566
 50
95.0481419945078017
 51
115.7746823915551033
  0
ARC
  5
34375
  8
0
 10
3153.121109977946162
 20
110.1150908592577053
 30
0.0
 40
0.6176708553978063
 50
69.6251164956423452
 51
95.0481419945078017
  0
ARC
  5
34376
  8
0
 10
3153.1276759119550661
 20
110.1327698407692992
 30
0.0
 40
0.5988119615622197
 50
46.6080225210521206
 51
69.6251164956423452
  0
ARC
  5
34377
  8
0
 10
3153.1309593754781417
 20
110.1362429800954033
 30
0.0
 40
0.5940324396739211
 50
27.6074236645407289
 51
46.6080225210521206
  0
ARC
  5
34378
  8
0
 10
3153.1581902145740059
 20
110.1504834115678051
 30
0.0
 40
0.5633028369038128
 50
14.6112375270949393
 51
27.6074236645407289
  0
ARC
  5
34379
  8
0
 10
3153.1117234810390073
 20
110.1383700016173037
 30
0.0
 40
0.6113225414631114
 50
7.361440604497794
 51
14.6112375270945503
  0
ARC
  5
3437A
  8
0
 10
3153.1318477980330499
 20
110.1426094730740033
 30
0.0
 40
0.5908231385972329
 50
1.680969784305534
 51
7.203753631205414
  0
ARC
  5
3437B
  8
0
 10
3153.1311379043950183
 20
110.1499638340041969
 30
0.0
 40
0.6169056623131113
 50
170.7012377341411025
 51
178.5255485596900087
  0
ARC
  5
3437C
  8
0
 10
3153.1019694182350577
 20
110.1533980023540948
 30
0.0
 40
0.5875670635674253
 50
158.1989005682019922
 51
170.5721221752691008
  0
ARC
  5
3437D
  8
0
 10
3153.1110728667531475
 20
110.149756680091599
 30
0.0
 40
0.5973717564619669
 50
136.4591970643650995
 51
158.1989005682023901
  0
ARC
  5
3437E
  8
0
 10
3153.1180622144938752
 20
110.1431145705634975
 30
0.0
 40
0.6070137791135354
 50
107.1128316831700005
 51
136.4591970643650995
  0
ARC
  5
3437F
  8
0
 10
3153.1211184718958975
 20
110.1331879614301954
 30
0.0
 40
0.6174002259646266
 50
72.3973929465202843
 51
107.1128316831700005
  0
ARC
  5
34380
  8
0
 10
3153.1263423841801341
 20
110.1496532200144003
 30
0.0
 40
0.6001261413348064
 50
41.8800614992407318
 51
72.3973929465202843
  0
ARC
  5
34381
  8
0
 10
3153.1380583678760559
 20
110.1601580139216026
 30
0.0
 40
0.5843903550822138
 50
22.848465428836839
 51
41.8800614992407318
  0
ARC
  5
34382
  8
0
 10
3153.1335601999307983
 20
110.1582626793758948
 30
0.0
 40
0.5892715237837419
 50
9.991012934113046
 51
22.8484654288372084
  0
ARC
  5
34383
  8
0
 10
3153.1678449824130439
 20
110.1643024668076976
 30
0.0
 40
0.554458805676029
 50
3.2725535307448781
 51
9.991012934113046
  0
ARC
  5
34384
  8
0
 10
3153.0546592411728852
 20
110.1578306162998047
 30
0.0
 40
0.6678294229851053
 50
0.8412494009067586
 51
3.2725535307448781
  0
ARC
  5
34385
  8
0
 10
3153.1057070794668107
 20
110.1685818586897057
 30
0.0
 40
0.5913221005740386
 50
167.2628845737991981
 51
179.243647160981908
  0
ARC
  5
34386
  8
0
 10
3153.1092808749949654
 20
110.1671486956106065
 30
0.0
 40
0.5951242455189889
 50
152.3487849713986861
 51
167.2041612312034999
  0
ARC
  5
34387
  8
0
 10
3153.1147937469231692
 20
110.1642603582855031
 30
0.0
 40
0.6013479300697754
 50
135.6286334112986083
 51
152.3487849713986861
  0
ARC
  5
34388
  8
0
 10
3153.1177645659049631
 20
110.1613540243830016
 30
0.0
 40
0.6055039548746664
 50
104.1708761774825973
 51
135.6286334112986083
  0
ARC
  5
34389
  8
0
 10
3153.1206845113788404
 20
110.1497897976850027
 30
0.0
 40
0.6174311264040792
 50
74.2508552291487263
 51
104.1708761774825973
  0
ARC
  5
3438A
  8
0
 10
3153.1255090234358249
 20
110.1668972045220016
 30
0.0
 40
0.5996564453864216
 50
50.4906023757978701
 51
74.2508552291487263
  0
ARC
  5
3438B
  8
0
 10
3153.12489472212701
 20
110.1661522464277994
 30
0.0
 40
0.6006220170615629
 50
31.8688728942867705
 51
50.4906023757978701
  0
ARC
  5
3438C
  8
0
 10
3153.1465147096569126
 20
110.1795932128044058
 30
0.0
 40
0.5751645341168329
 50
15.2661679317638708
 51
31.8688728942871187
  0
ARC
  5
3438D
  8
0
 10
3153.1091563601598864
 20
110.1693968313753942
 30
0.0
 40
0.6138893642822805
 50
7.9317378218409704
 51
15.2661679317638708
  0
ARC
  5
3438E
  8
0
 10
3153.1617176163481417
 20
110.177251690677906
 30
0.0
 40
0.560747282477588
 50
0.7513837613963393
 51
7.87792933634889
  0
ARC
  5
3438F
  8
0
 10
3153.1118773005200637
 20
110.1819273995827047
 30
0.0
 40
0.5974535633182274
 50
168.2944597767327934
 51
179.6254827023138887
  0
ARC
  5
34390
  8
0
 10
3153.1151439990671861
 20
110.1808406637425009
 30
0.0
 40
0.6008729381611212
 50
155.8481654944349941
 51
168.2561864014394928
  0
ARC
  5
34391
  8
0
 10
3153.1049948457648497
 20
110.1853916228791945
 30
0.0
 40
0.5897501443656307
 50
138.8931037908392057
 51
155.8481654944349941
  0
ARC
  5
34392
  8
0
 10
3153.1237479526739662
 20
110.169028269762407
 30
0.0
 40
0.614638662681066
 50
114.8774512152293994
 51
138.8931037908392057
  0
ARC
  5
34393
  8
0
 10
3153.1183556266059895
 20
110.180657023227198
 30
0.0
 40
0.6018205080731269
 50
93.2142688364968564
 51
114.8774512152293994
  0
ARC
  5
34394
  8
0
 10
3153.1193668322221129
 20
110.1626507442688023
 30
0.0
 40
0.6198551585749128
 50
70.3124115024712921
 51
93.2142688364968564
  0
ARC
  5
34395
  8
0
 10
3153.1289132974861786
 20
110.1893311974023959
 30
0.0
 40
0.5915182289872623
 50
49.4012464546637915
 51
70.3124115024712921
  0
ARC
  5
34396
  8
0
 10
3153.1167499688172029
 20
110.1751393735194995
 30
0.0
 40
0.6102092543591802
 50
32.1249300319787494
 51
49.4012464546637915
  0
ARC
  5
34397
  8
0
 10
3153.1532049726552032
 20
110.1980296640805932
 30
0.0
 40
0.5671635494999566
 50
22.8569562524366106
 51
32.1249300319784084
  0
ARC
  5
34398
  8
0
 10
3153.1189722042659014
 20
110.1835994734240955
 30
0.0
 40
0.6043134194044457
 50
16.3589901019571613
 51
22.8569562524366106
  0
ARC
  5
34399
  8
0
 10
3153.1427779398659368
 20
110.1905873712236001
 30
0.0
 40
0.5795032649693131
 50
10.4883288728016506
 51
16.3589901019567598
  0
ARC
  5
3439A
  8
0
 10
3153.1371398337628307
 20
110.1895435979092071
 30
0.0
 40
0.5852371731621986
 50
6.9047845716901737
 51
10.4883288728016506
  0
ARC
  5
3439B
  8
0
 10
3153.1270986899430682
 20
110.1883276352033931
 30
0.0
 40
0.5953516743616556
 50
0.6094827722680251
 51
6.9047845716901737
  0
ARC
  5
3439C
  8
0
 10
3153.107889478495963
 20
110.1955840391332941
 30
0.0
 40
0.5934647269508837
 50
163.4611219881830948
 51
179.6394670455212008
  0
ARC
  5
3439D
  8
0
 10
3153.1147518130310345
 20
110.1931814217090988
 30
0.0
 40
0.600727189743918
 50
146.8794859782805133
 51
163.427764618656596
  0
ARC
  5
3439E
  8
0
 10
3153.1183016311529173
 20
110.1908655128844998
 30
0.0
 40
0.6049656614477972
 50
117.1369251851227062
 51
146.879485978280087
  0
ARC
  5
3439F
  8
0
 10
3153.1203298717559846
 20
110.1869082740821
 30
0.0
 40
0.6094124017015142
 50
93.2355523378615914
 51
117.1369251851227062
  0
ARC
  5
343A0
  8
0
 10
3153.1203644901029293
 20
110.1862958975659978
 30
0.0
 40
0.6100257559445802
 50
69.3824944737448703
 51
93.2355523378615914
  0
ARC
  5
343A1
  8
0
 10
3153.1239344923351382
 20
110.1957849307108006
 30
0.0
 40
0.5998873800410167
 50
50.2505072498933103
 51
69.3824944737448703
  0
ARC
  5
343A2
  8
0
 10
3153.1203519464688725
 20
110.1914773099363032
 30
0.0
 40
0.6054900786426956
 50
35.3449248327831498
 51
50.2505072498930616
  0
ARC
  5
343A3
  8
0
 10
3153.1401032311860035
 20
110.2054852624687982
 30
0.0
 40
0.5812757031167038
 50
19.1407424685036816
 51
35.3449248327831498
  0
ARC
  5
343A4
  8
0
 10
3153.1125116511930173
 20
110.1959088430751024
 30
0.0
 40
0.6104819198342768
 50
8.8391811531079032
 51
19.1407424685036816
  0
ARC
  5
343A5
  8
0
 10
3153.1976990875919
 20
110.2091562120045012
 30
0.0
 40
0.5242705974694634
 50
3.3597778452554179
 51
8.8391811531075017
  0
ARC
  5
343A6
  8
0
 10
3152.2292534846869785
 20
110.1523021704394978
 30
0.0
 40
1.4943836155390391
 50
2.3157447909513911
 51
3.3597778452554179
  0
ARC
  5
343A7
  8
0
 10
3153.1104831516749982
 20
110.2066842503782027
 30
0.0
 40
0.5960867630478687
 50
168.7364172262344084
 51
179.3353039445433978
  0
ARC
  5
343A8
  8
0
 10
3153.117316257973016
 20
110.2048573261124034
 30
0.0
 40
0.6031452701119728
 50
154.153465224366812
 51
168.6929974573018001
  0
ARC
  5
343A9
  8
0
 10
3153.1156069505050255
 20
110.2056853510063945
 30
0.0
 40
0.601245965700334
 50
131.9014335811436069
 51
154.153465224366812
  0
ARC
  5
343AA
  8
0
 10
3153.1198493651831996
 20
110.200957340574007
 30
0.0
 40
0.607598301094158
 50
102.5599175077556993
 51
131.9014335811436069
  0
ARC
  5
343AB
  8
0
 10
3153.1202052806897882
 20
110.1993598173657034
 30
0.0
 40
0.6092349917335776
 50
73.2899157572378925
 51
102.5599175077557987
  0
ARC
  5
343AC
  8
0
 10
3153.1228842067289406
 20
110.208283436345198
 30
0.0
 40
0.5999179310161212
 50
49.9272055118211213
 51
73.2899157572378925
  0
ARC
  5
343AD
  8
0
 10
3153.1189058645582008
 20
110.2035544475647981
 30
0.0
 40
0.6060977806351762
 50
28.8851327414433285
 51
49.9272055118211213
  0
ARC
  5
343AE
  8
0
 10
3153.143456228398918
 20
110.2170986660202061
 30
0.0
 40
0.5780591248482931
 50
15.9242252380472191
 51
28.8851327414433285
  0
ARC
  5
343AF
  8
0
 10
3153.1146198856149567
 20
110.208871234480398
 30
0.0
 40
0.6080462103171885
 50
6.2725793365003462
 51
15.9242252380468301
  0
ARC
  5
343B0
  8
0
 10
3153.1711645771179064
 20
110.2150864369451995
 30
0.0
 40
0.5511609672504163
 50
2.5594467006193611
 51
6.2725793365003462
  0
ARC
  5
343B1
  8
0
 10
3152.7309551070561611
 20
110.2001927126817975
 30
0.0
 40
0.991607905698231
 50
0.9843341361312116
 51
2.2833065130269312
  0
ARC
  5
343B2
  8
0
 10
3153.1188807787480073
 20
110.2153578586079021
 30
0.0
 40
0.604568431235512
 50
162.1394966134384106
 51
178.8388152095602095
  0
ARC
  5
343B3
  8
0
 10
3153.1189255222461725
 20
110.214755424864407
 30
0.0
 40
0.6047960441009524
 50
145.0728209149312136
 51
162.0864751892868014
  0
ARC
  5
343B4
  8
0
 10
3153.1134820956890508
 20
110.2185566519041942
 30
0.0
 40
0.5981567504871184
 50
130.5886621560933918
 51
145.0728209149312136
  0
ARC
  5
343B5
  8
0
 10
3153.1225056514558673
 20
110.2080244715361061
 30
0.0
 40
0.6120258305571942
 50
113.1341948512797018
 51
130.5886621560933918
  0
ARC
  5
343B6
  8
0
 10
3153.1189188087259936
 20
110.2164198191210005
 30
0.0
 40
0.6028963562107563
 50
93.4292737116388565
 51
113.1341948512797018
  0
ARC
  5
343B7
  8
0
 10
3153.1192663405117855
 20
110.2106202464826055
 30
0.0
 40
0.6087063322115807
 50
73.4069997838247019
 51
93.4292737116388565
  0
ARC
  5
343B8
  8
0
 10
3153.1189008034571089
 20
110.2093935294364968
 30
0.0
 40
0.6099863525431438
 50
56.4542157365227197
 51
73.4069997838247019
  0
ARC
  5
343B9
  8
0
 10
3153.1311097287962184
 20
110.2278072169108043
 30
0.0
 40
0.5878928751271389
 50
42.3770737611920083
 51
56.4542157365224924
  0
ARC
  5
343BA
  8
0
 10
3153.115084524797112
 20
110.2131859493803034
 30
0.0
 40
0.6095859299462845
 50
26.3824955564134385
 51
42.3770737611923067
  0
ARC
  5
343BB
  8
0
 10
3153.1430003024179314
 20
110.2270328332105009
 30
0.0
 40
0.5784246265079865
 50
14.1986303565458201
 51
26.3824955564134385
  0
ARC
  5
343BC
  8
0
 10
3153.0790541068718085
 20
110.2108535846547994
 30
0.0
 40
0.6443858576110797
 50
8.657241477311409
 51
14.1986303565458201
  0
ARC
  5
343BD
  8
0
 10
3153.198345921712189
 20
110.2290166985370945
 30
0.0
 40
0.5237192267901352
 50
3.7935786138186161
 51
8.6572414773118123
  0
ARC
  5
343BE
  8
0
 10
3152.9717655228719195
 20
110.2139927507356987
 30
0.0
 40
0.7507971784853669
 50
1.13003093806447
 51
3.7935786138186161
  0
ARC
  5
343BF
  8
0
 10
3153.1460295233641773
 20
110.2284302388952995
 30
0.0
 40
0.631593360603071
 50
162.6919871637605866
 51
179.9407259630287115
  0
ARC
  5
343C0
  8
0
 10
3153.119394079347785
 20
110.231585641268893
 30
0.0
 40
0.6052451625134926
 50
138.325956476966212
 51
162.2270097254595953
  0
ARC
  5
343C1
  8
0
 10
3153.1176952852702016
 20
110.2330978316163055
 30
0.0
 40
0.6029708228362772
 50
117.5818150455153983
 51
138.3259564769658994
  0
ARC
  5
343C2
  8
0
 10
3153.1213218265461364
 20
110.2261555322297966
 30
0.0
 40
0.6108032759895358
 50
95.8506316715626951
 51
117.5818150455151994
  0
ARC
  5
343C3
  8
0
 10
3153.1199064492689104
 20
110.2399682438438049
 30
0.0
 40
0.59691823745995
 50
79.9450140983066433
 51
95.8506316715626951
  0
ARC
  5
343C4
  8
0
 10
3153.1170155331042224
 20
110.2236645531466053
 30
0.0
 40
0.6134762484097632
 50
64.4844003370239705
 51
79.9450140983066433
  0
ARC
  5
343C5
  8
0
 10
3153.1276337255080762
 20
110.2459104671628012
 30
0.0
 40
0.5888261632105101
 50
51.4087592374455866
 51
64.4844003370239705
  0
ARC
  5
343C6
  8
0
 10
3153.1091296789918488
 20
110.2227235791590942
 30
0.0
 40
0.6184914883016828
 50
38.0204674548837573
 51
51.4087592374455866
  0
ARC
  5
343C7
  8
0
 10
3153.1365252059899831
 20
110.244143075046793
 30
0.0
 40
0.5837163577689826
 50
23.8434120245068897
 51
38.0204674548837573
  0
ARC
  5
343C8
  8
0
 10
3153.0982506261370872
 20
110.2272273210636939
 30
0.0
 40
0.6255623396043944
 50
13.4227431664776802
 51
23.8434120245068897
  0
ARC
  5
343C9
  8
0
 10
3153.1756999977069427
 20
110.2457108548892961
 30
0.0
 40
0.5459379326714329
 50
5.749305883719928
 51
13.4227431664776802
  0
ARC
  5
343CA
  8
0
 10
3152.7190220676261561
 20
110.1997313939224057
 30
0.0
 40
1.0049246891843009
 50
4.062239830165268
 51
5.749305883720333
  0
ARC
  5
343CB
  8
0
 10
3153.1783434911108088
 20
110.2434857549114042
 30
0.0
 40
0.5437710910651437
 50
0.6757725992883036
 51
2.8919398780213239
  0
ARC
  5
343CC
  8
0
 10
3153.1281555438990836
 20
110.2294871156272933
 30
0.0
 40
0.5942718743593557
 50
0.3444261965246586
 51
1.96837536592531
  0
ARC
  5
343CD
  8
0
 10
3153.1212626395840743
 20
110.2429370607613066
 30
0.0
 40
0.6069634029366461
 50
159.8118964029580127
 51
178.7814508951825871
  0
ARC
  5
343CE
  8
0
 10
3153.1187766406301307
 20
110.2438511442790059
 30
0.0
 40
0.6043146788134341
 50
139.8950937156596126
 51
159.8118964029580127
  0
ARC
  5
343CF
  8
0
 10
3153.1184137748559806
 20
110.2441567587431024
 30
0.0
 40
0.6038402615177269
 50
117.0752163181360004
 51
139.8950937156596126
  0
ARC
  5
343D0
  8
0
 10
3153.1196854494728541
 20
110.2416690357236035
 30
0.0
 40
0.6066341695612082
 50
97.1167651738747963
 51
117.0752163181360004
  0
ARC
  5
343D1
  8
0
 10
3153.1192234234467833
 20
110.2453695737901995
 30
0.0
 40
0.602904900191563
 50
80.5667556467880814
 51
97.1167651738747963
  0
ARC
  5
343D2
  8
0
 10
3153.1189189774017905
 20
110.2435371632728049
 30
0.0
 40
0.6047624296527248
 50
64.6605119091645122
 51
80.5667556467880814
  0
ARC
  5
343D3
  8
0
 10
3153.1191743229278472
 20
110.2440763887319974
 30
0.0
 40
0.6041658012643742
 50
46.0328537487614611
 51
64.6605119091645122
  0
ARC
  5
343D4
  8
0
 10
3153.1243220436799675
 20
110.2494131301988034
 30
0.0
 40
0.5967509621955928
 50
31.2204281549006488
 51
46.0328537487614611
  0
ARC
  5
343D5
  8
0
 10
3153.0999121129689229
 20
110.2346180529426931
 30
0.0
 40
0.6252945959574435
 50
23.5268604346175394
 51
31.2204281549006488
  0
ARC
  5
343D6
  8
0
 10
3153.1464179661447815
 20
110.2548653027249941
 30
0.0
 40
0.5745723572119444
 50
14.8782017307203205
 51
23.5268604346179195
  0
ARC
  5
343D7
  8
0
 10
3153.096649485429225
 20
110.2416432068834951
 30
0.0
 40
0.6260672646420093
 50
8.545060426218507
 51
14.8782017307199297
  0
ARC
  5
343D8
  8
0
 10
3153.1173801467889461
 20
110.2447580947846006
 30
0.0
 40
0.605103895468848
 50
3.0035112383044278
 51
8.545060426218507
  0
ARC
  5
343D9
  8
0
 10
3153.0192750700362012
 20
110.2428142196344965
 30
0.0
 40
0.703183338987768
 50
0.6241951179275557
 51
2.7428359060038709
  0
ARC
  5
343DA
  8
0
 10
3153.1185064316568969
 20
110.2506921380352054
 30
0.0
 40
0.6040770085560064
 50
146.2365108196171093
 51
179.7226449105598078
  0
ARC
  5
343DB
  8
0
 10
3153.1183584489690475
 20
110.250791067307901
 30
0.0
 40
0.6038990032842407
 50
126.0270345786005066
 51
146.2365108196171093
  0
ARC
  5
343DC
  8
0
 10
3153.1184668359010175
 20
110.2506420334240005
 30
0.0
 40
0.6040832824896444
 50
108.087793664971997
 51
126.0270345786005066
  0
ARC
  5
343DD
  8
0
 10
3153.1183838833981099
 20
110.250896010139499
 30
0.0
 40
0.6038161022325208
 50
97.6855180103290195
 51
108.087793664971997
  0
ARC
  5
343DE
  8
0
 10
3153.1187409129220214
 20
110.2478967280610931
 30
0.0
 40
0.6068361912990996
 50
93.2861507299069785
 51
97.6810531381688207
  0
ARC
  5
343DF
  8
0
 10
3153.118335780164216
 20
110.2509439333810946
 30
0.0
 40
0.603770816915182
 50
85.0472323942378665
 51
93.2643442065782722
  0
ARC
  5
343E0
  8
0
 10
3153.1185881780961608
 20
110.2513559752027987
 30
0.0
 40
0.6033385615483261
 50
72.7114597335527009
 51
85.0677335437114124
  0
ARC
  5
343E1
  8
0
 10
3153.1184598874901894
 20
110.2508005227550001
 30
0.0
 40
0.6039070462023881
 50
50.4849512084991119
 51
72.7154992389362178
  0
ARC
  5
343E2
  8
0
 10
3153.1183508846411314
 20
110.2506683624643955
 30
0.0
 40
0.6040783586755646
 50
31.6105990409799418
 51
50.4849512084991119
  0
ARC
  5
343E3
  8
0
 10
3153.1185268049380284
 20
110.2507766342186954
 30
0.0
 40
0.6038717897431835
 50
16.1680371617610206
 51
31.6105990409799418
  0
ARC
  5
343E4
  8
0
 10
3153.1174330008911966
 20
110.2504595163488972
 30
0.0
 40
0.6050106361059817
 50
5.6520188440967232
 51
16.1680371617610206
  0
ARC
  5
343E5
  8
0
 10
3153.12631194022606
 20
110.2513382433791946
 30
0.0
 40
0.59608831998837
 50
1.767652350756775
 51
5.6520188440967232
  0
ARC
  5
343E6
  8
0
 10
3154.3493306351938372
 20
110.284715889322996
 30
0.0
 40
0.6273931429816924
 50
181.3691099682536105
 51
182.2394874440010994
  0
ARC
  5
343E7
  8
0
 10
3153.6825000799271947
 20
100.4193039631419992
 30
0.0
 40
0.0398228001235803
 50
335.7211003625333774
 51
34.7825943848806034
  0
ARC
  5
343E8
  8
0
 10
3153.6856376000241653
 20
100.4982244289744955
 30
0.0
 40
0.0369072030248577
 50
333.4319132976947913
 51
37.5043798138373887
  0
ARC
  5
343E9
  8
0
 10
3153.6825798662121088
 20
100.5768229909841978
 30
0.0
 40
0.0397916776875233
 50
335.7259590723052725
 51
35.0941469093340999
  0
ARC
  5
343EA
  8
0
 10
3153.6826114186328596
 20
100.6555487878037951
 30
0.0
 40
0.0397236012754457
 50
335.6518099613991808
 51
35.117007347445977
  0
ARC
  5
343EB
  8
0
 10
3153.6829785948848439
 20
100.7343719496229966
 30
0.0
 40
0.0393845826845989
 50
335.3844647881211927
 51
35.4527932698181516
  0
ARC
  5
343EC
  8
0
 10
3153.682639293389002
 20
100.8130514596945062
 30
0.0
 40
0.0396802770001233
 50
335.9388599882465769
 51
35.0767783908159672
  0
ARC
  5
343ED
  8
0
 10
3153.6828579376388006
 20
100.8917898490074947
 30
0.0
 40
0.0395026311240242
 50
335.3500748227885992
 51
35.3181473231827709
  0
ARC
  5
343EE
  8
0
 10
3153.6830784766139004
 20
100.9705782030894028
 30
0.0
 40
0.0392985934671168
 50
335.4037924593495177
 51
35.5340637529066328
  0
ARC
  5
343EF
  8
0
 10
3153.6830209072431899
 20
101.049285825672797
 30
0.0
 40
0.0393644615473905
 50
335.6710933206801997
 51
35.566589825053839
  0
ARC
  5
343F0
  8
0
 10
3153.6827248138670257
 20
101.1280266354459059
 30
0.0
 40
0.0396012566628689
 50
335.8737713578286161
 51
35.3491095308910417
  0
ARC
  5
343F1
  8
0
 10
3153.6844873900299717
 20
101.2068668465607004
 30
0.0
 40
0.0379967839654766
 50
334.6203634354138217
 51
36.5412171200819387
  0
ARC
  5
343F2
  8
0
 10
3153.6827451240928895
 20
101.285498948016297
 30
0.0
 40
0.0396381560334788
 50
335.6339103508602761
 51
34.7880182375156934
  0
ARC
  5
343F3
  8
0
 10
3153.6827015445978759
 20
101.3642578318116989
 30
0.0
 40
0.0396653127465614
 50
335.3778019576894849
 51
35.2199305087055521
  0
ARC
  5
343F4
  8
0
 10
3153.6829143945042233
 20
101.4430289745316998
 30
0.0
 40
0.0394515910918631
 50
335.5083260997849948
 51
35.2072116260513113
  0
ARC
  5
343F5
  8
0
 10
3153.6827231218558154
 20
101.5217257513267981
 30
0.0
 40
0.0396013465351092
 50
335.5857443208652739
 51
35.2080714804158603
  0
ARC
  5
343F6
  8
0
 10
3153.6827132397088462
 20
101.6004488386049047
 30
0.0
 40
0.0396225857333759
 50
335.6947295562212048
 51
35.1845218019713215
  0
ARC
  5
343F7
  8
0
 10
3153.6824349098228595
 20
101.6791997925434003
 30
0.0
 40
0.039893949474667
 50
335.9812731069694109
 51
34.9005015252270994
  0
ARC
  5
343F8
  8
0
 10
3153.682372112487883
 20
101.7579311784748057
 30
0.0
 40
0.0399740414804605
 50
335.6514426238701958
 51
34.9273484055316672
  0
ARC
  5
343F9
  8
0
 10
3153.6825576801270472
 20
101.8366472501905946
 30
0.0
 40
0.0397837490955016
 50
335.6327110078177043
 51
35.1305963231104172
  0
ARC
  5
343FA
  8
0
 10
3153.6830229586021233
 20
101.9154714941041959
 30
0.0
 40
0.0393282043581341
 50
335.3982947881480072
 51
34.697674943088991
  0
ARC
  5
343FB
  8
0
 10
3153.6829477437618152
 20
101.9941635048162993
 30
0.0
 40
0.0394080450587681
 50
335.303693669225197
 51
35.044262538185329
  0
ARC
  5
343FC
  8
0
 10
3153.6832836137159575
 20
102.0729231326253057
 30
0.0
 40
0.0390954496222355
 50
335.8640466535480869
 51
35.7601508774488792
  0
ARC
  5
343FD
  8
0
 10
3153.6831070067300971
 20
102.1516318673042036
 30
0.0
 40
0.0392879622667656
 50
335.5932039041858275
 51
35.5896141572990885
  0
ARC
  5
343FE
  8
0
 10
3153.6824761454381587
 20
102.2303588465960047
 30
0.0
 40
0.0398665690087927
 50
335.7813122319374202
 51
34.8550048880703187
  0
ARC
  5
343FF
  8
0
 10
3153.683090697812986
 20
102.3091580159551057
 30
0.0
 40
0.039266834046737
 50
335.4059982216048184
 51
36.5528181170232003
  0
ARC
  5
34400
  8
0
 10
3153.6780391952379432
 20
102.3863495694050982
 30
0.0
 40
0.0445335859300526
 50
336.4226193723318943
 51
33.3473865597393129
  0
ARC
  5
34401
  8
0
 10
3153.6821186324809787
 20
102.4665311645922969
 30
0.0
 40
0.0402260377698672
 50
335.998724782087379
 51
34.1905031299314075
  0
ARC
  5
34402
  8
0
 10
3153.6824866865040349
 20
102.5453282628673009
 30
0.0
 40
0.0398758759967481
 50
335.8061765044304252
 51
35.1020889132732208
  0
ARC
  5
34403
  8
0
 10
3153.6823022629100706
 20
102.6240409988793942
 30
0.0
 40
0.0400539255738452
 50
335.857220243948916
 51
34.1630285806312912
  0
ARC
  5
34404
  8
0
 10
3153.6827519956309516
 20
102.702815501661803
 30
0.0
 40
0.0395993321878856
 50
336.2671344894707204
 51
35.1681249303439003
  0
ARC
  5
34405
  8
0
 10
3153.682651530692965
 20
102.7815543303671006
 30
0.0
 40
0.0396786038416634
 50
335.5268444860445243
 51
35.1670101714424135
  0
ARC
  5
34406
  8
0
 10
3153.6829452138881607
 20
102.8603411377369952
 30
0.0
 40
0.0394389097665611
 50
335.4617885447182175
 51
35.5906665095477877
  0
ARC
  5
34407
  8
0
 10
3153.6832967778741477
 20
102.9390017563141981
 30
0.0
 40
0.0391070642942786
 50
335.830060922834889
 51
35.7275919978181875
  0
ARC
  5
34408
  8
0
 10
3153.6824479999399955
 20
103.0177952151216942
 30
0.0
 40
0.0398938910975611
 50
335.7469232905792751
 51
35.0604563491148369
  0
ARC
  5
34409
  8
0
 10
3153.6824537097181747
 20
103.0964973239736935
 30
0.0
 40
0.0398822605161771
 50
335.7610003209031788
 51
34.9552826947343434
  0
ARC
  5
3440A
  8
0
 10
3153.6829442121647844
 20
103.1752506034919037
 30
0.0
 40
0.0394261071170692
 50
335.3920873088965777
 51
35.3759311659174003
  0
ARC
  5
3440B
  8
0
 10
3153.6824547702108248
 20
103.2539770963244052
 30
0.0
 40
0.0398907059765242
 50
335.7850987902656925
 51
34.478405601886422
  0
ARC
  5
3440C
  8
0
 10
3153.6827471656088164
 20
103.3327374807071948
 30
0.0
 40
0.0396199558619322
 50
335.3573157384183219
 51
35.2935405627440772
  0
ARC
  5
3440D
  8
0
 10
3153.6826663594238198
 20
103.4114866705660063
 30
0.0
 40
0.0396756611993495
 50
335.6331750728890029
 51
36.9156216574173826
  0
ARC
  5
3440E
  8
0
 10
3153.6825968596622261
 20
103.4901821562832964
 30
0.0
 40
0.0397351765317538
 50
332.9568746285124234
 51
35.0956526728268017
  0
ARC
  5
3440F
  8
0
 10
3153.6822354034120508
 20
103.5689538558679033
 30
0.0
 40
0.040071640545277
 50
335.926356188769887
 51
35.2248935836660806
  0
ARC
  5
34410
  8
0
 10
3153.6826548385820388
 20
103.6476879622080958
 30
0.0
 40
0.0396945325685561
 50
335.1881190783520879
 51
34.9739191123158122
  0
ARC
  5
34411
  8
0
 10
3153.683141293549852
 20
103.7264974945293972
 30
0.0
 40
0.0392487391194571
 50
335.0543580654750144
 51
35.2638310336761123
  0
ARC
  5
34412
  8
0
 10
3153.6826896399229554
 20
103.8051463587788987
 30
0.0
 40
0.0396610144011564
 50
335.3344168908316192
 51
35.1141478729294505
  0
ARC
  5
34413
  8
0
 10
3153.6826872963051756
 20
103.8839554506134988
 30
0.0
 40
0.0396573010769075
 50
335.435742818889878
 51
35.0436871962505165
  0
ARC
  5
34414
  8
0
 10
3153.6825518118948821
 20
103.9626798930779046
 30
0.0
 40
0.0397787584504016
 50
335.9806235157013816
 51
35.0571085840621066
  0
ARC
  5
34415
  8
0
 10
3153.6824968073501623
 20
104.0413177219919021
 30
0.0
 40
0.039872591246363
 50
335.8359714998720165
 51
34.8413204267278616
  0
ARC
  5
34416
  8
0
 10
3153.6826559329260817
 20
104.1201015023748937
 30
0.0
 40
0.0397169787565597
 50
335.5326537328199947
 51
35.1623129656979501
  0
ARC
  5
34417
  8
0
 10
3153.6832968644448556
 20
104.1989364193107974
 30
0.0
 40
0.0390915363806432
 50
335.2223600120136098
 51
35.2044014030431711
  0
ARC
  5
34418
  8
0
 10
3153.6827691657667856
 20
104.2776290330133975
 30
0.0
 40
0.0395903884412696
 50
335.376432203092179
 51
34.9177982253112873
  0
ARC
  5
34419
  8
0
 10
3153.6826234044838202
 20
104.356312196662202
 30
0.0
 40
0.0397228450506127
 50
335.8764886029965169
 51
35.1776938144327502
  0
ARC
  5
3441A
  8
0
 10
3153.6827962553888938
 20
104.4351074274516975
 30
0.0
 40
0.0395757233568583
 50
335.6103113746333975
 51
35.2611463888864378
  0
ARC
  5
3441B
  8
0
 10
3153.6828779693628348
 20
104.5138362777043
 30
0.0
 40
0.0395184682383977
 50
335.5627105002919848
 51
34.8773327961348869
  0
ARC
  5
3441C
  8
0
 10
3153.6827234641750692
 20
104.5926168798067977
 30
0.0
 40
0.0396404621707896
 50
335.6282006500845796
 51
35.2146004435343087
  0
ARC
  5
3441D
  8
0
 10
3153.6829155969071508
 20
104.6713183519202062
 30
0.0
 40
0.0394456949799639
 50
335.5292462553923087
 51
35.2279567513580716
  0
ARC
  5
3441E
  8
0
 10
3153.6839879976241718
 20
104.7500815024186949
 30
0.0
 40
0.0383945642378266
 50
334.7469906939592761
 51
35.1728896107122466
  0
ARC
  5
3441F
  8
0
 10
3153.6827115466808209
 20
104.8287927074294998
 30
0.0
 40
0.0396390123148247
 50
335.225104557369491
 51
35.2608611265851124
  0
ARC
  5
34420
  8
0
 10
3153.6777516468750946
 20
104.9059780654552014
 30
0.0
 40
0.0448369301439715
 50
338.6756858185183887
 51
34.1353073798034004
  0
ARC
  5
34421
  8
0
 10
3153.6831550292999964
 20
104.9862898165134055
 30
0.0
 40
0.0392297076829383
 50
334.5020999147353109
 51
35.2601839328699285
  0
ARC
  5
34422
  8
0
 10
3153.6827693508348602
 20
105.0650198532261044
 30
0.0
 40
0.0395914359757786
 50
335.3818149387141148
 51
35.2161555910505086
  0
ARC
  5
34423
  8
0
 10
3153.6826205686320463
 20
105.1437568966912011
 30
0.0
 40
0.0397307731915135
 50
335.7179733948921125
 51
34.6722792774091886
  0
ARC
  5
34424
  8
0
 10
3153.6833699319668085
 20
105.2224886133444954
 30
0.0
 40
0.0390217128246991
 50
335.1003862361959023
 51
34.9796678109532593
  0
ARC
  5
34425
  8
0
 10
3153.6826353514061339
 20
105.3011756595085018
 30
0.0
 40
0.0397499127084968
 50
335.6451658753754259
 51
34.9027894076195935
  0
ARC
  5
34426
  8
0
 10
3153.6826418986270255
 20
105.3799226136231937
 30
0.0
 40
0.0397163307016985
 50
335.6311166897733074
 51
36.0561111138819825
  0
ARC
  5
34427
  8
0
 10
3153.6830460201840651
 20
105.4588028278754024
 30
0.0
 40
0.0393446822716845
 50
333.8372496700937972
 51
35.1158624163014679
  0
ARC
  5
34428
  8
0
 10
3153.6826956344339123
 20
105.537537410972007
 30
0.0
 40
0.0396914722352458
 50
335.3635199042574868
 51
34.9624922666194422
  0
ARC
  5
34429
  8
0
 10
3153.6818254294530561
 20
105.6161797704946963
 30
0.0
 40
0.040556681331132
 50
335.9017539186825729
 51
34.8922353084454215
  0
ARC
  5
3442A
  8
0
 10
3153.6816155570468254
 20
105.6948763563382983
 30
0.0
 40
0.0407980243687252
 50
336.2306765630960967
 51
34.2782395319602387
  0
ARC
  5
3442B
  8
0
 10
3153.6804673711731084
 20
105.7736018029275016
 30
0.0
 40
0.0419387404663074
 50
336.9263568272618841
 51
33.4495341397196668
  0
ARC
  5
3442C
  8
0
 10
3153.6771488414988198
 20
105.8520277607258038
 30
0.0
 40
0.0452193213043812
 50
338.7018979554053999
 51
30.8619570168026485
  0
ARC
  5
3442D
  8
0
 10
3153.6762708229161944
 20
105.9305755408993974
 30
0.0
 40
0.0461381487970478
 50
338.8609556722049092
 51
29.7494577820115396
  0
ARC
  5
3442E
  8
0
 10
3153.6737191995321155
 20
106.0089813018689995
 30
0.0
 40
0.0486897766300624
 50
339.9355432908075727
 51
28.624875886920659
  0
ARC
  5
3442F
  8
0
 10
3153.6698841771599291
 20
106.087077657374607
 30
0.0
 40
0.0524642158240855
 50
341.6856763197154123
 51
26.4333131074126904
  0
ARC
  5
34430
  8
0
 10
3153.6718978566759688
 20
106.1651989749594946
 30
0.0
 40
0.0506120562463383
 50
341.3494483584534009
 51
26.6174877993055894
  0
ARC
  5
34431
  8
0
 10
3153.6656877462041848
 20
106.2432551465067974
 30
0.0
 40
0.0567011422536766
 50
344.4390113576163799
 51
23.5156272665158497
  0
ARC
  5
34432
  8
0
 10
3153.6610322752171669
 20
106.3208186880271029
 30
0.0
 40
0.0613095174374569
 50
344.2207045282463014
 51
22.2987268455073391
  0
ARC
  5
34433
  8
0
 10
3153.6689326286991673
 20
106.4001445943684985
 30
0.0
 40
0.0533167763478702
 50
341.99402646248069
 51
22.0357351904881185
  0
ARC
  5
34434
  8
0
 10
3153.6569513379749878
 20
106.4756227651281932
 30
0.0
 40
0.0654520588144588
 50
345.8838726394728269
 51
20.7831635030724406
  0
ARC
  5
34435
  8
0
 10
3153.6438541279640049
 20
106.5520433419801947
 30
0.0
 40
0.0784920038575614
 50
348.0911337546280038
 51
17.4719252350690297
  0
ARC
  5
34436
  8
0
 10
3153.6480781076988933
 20
106.6290653321932069
 30
0.0
 40
0.0743367414757322
 50
347.7449582917511748
 51
17.8018253199755989
  0
ARC
  5
34437
  8
0
 10
3153.6340232107968404
 20
106.7050695766669008
 30
0.0
 40
0.0883160174325545
 50
349.2261869153206817
 51
15.2725174322986206
  0
ARC
  5
34438
  8
0
 10
3153.644375658869194
 20
106.7823873686374014
 30
0.0
 40
0.0779681230351118
 50
347.927606196892782
 51
16.0043206130334106
  0
ARC
  5
34439
  8
0
 10
3153.6222623684748214
 20
106.8566865588166053
 30
0.0
 40
0.100078252880863
 50
350.6483900868922206
 51
13.2120590604213497
  0
ARC
  5
3443A
  8
0
 10
3153.6181376304921287
 20
106.9321962424280059
 30
0.0
 40
0.1041988995373462
 50
351.2989376171847766
 51
12.4997554344045305
  0
ARC
  5
3443B
  8
0
 10
3153.610844759451993
 20
107.0069487015979064
 30
0.0
 40
0.1114863195450182
 50
351.6515334572044935
 51
11.7147623361886897
  0
ARC
  5
3443C
  8
0
 10
3153.6077870423891909
 20
107.0811344734105006
 30
0.0
 40
0.1145680567220721
 50
352.0639967546683238
 51
11.64496327035517
  0
ARC
  5
3443D
  8
0
 10
3153.5887523690021226
 20
107.154167866155106
 30
0.0
 40
0.1336315431523295
 50
354.0188824329720205
 51
10.2351474895222996
  0
ARC
  5
3443E
  8
0
 10
3153.6159337769981903
 20
107.2297088441319062
 30
0.0
 40
0.1064854442313904
 50
351.7385996845314935
 51
11.1598463949321793
  0
ARC
  5
3443F
  8
0
 10
3153.6093793940522119
 20
107.3026895226015967
 30
0.0
 40
0.1130453573684093
 50
352.0765707433400848
 51
10.7099139817227105
  0
ARC
  5
34440
  8
0
 10
3153.5912945150571431
 20
107.375120483226894
 30
0.0
 40
0.1310610511596805
 50
353.4482056255956195
 51
9.217099381945955
  0
ARC
  5
34441
  8
0
 10
3153.5957884306749293
 20
107.4470202225371054
 30
0.0
 40
0.1266290180113073
 50
353.2316362825297915
 51
9.2200783392940853
  0
ARC
  5
34442
  8
0
 10
3153.594048439713788
 20
107.5196444533490023
 30
0.0
 40
0.1283409936507864
 50
353.4898937574523075
 51
8.8848395788823566
  0
ARC
  5
34443
  8
0
 10
3153.5723250885780544
 20
107.5892686822546978
 30
0.0
 40
0.1500573971039546
 50
354.262811675585624
 51
7.9802283986311968
  0
ARC
  5
34444
  8
0
 10
3153.5840765965767787
 20
107.6600045128730017
 30
0.0
 40
0.1383413354166542
 50
353.9478316500919846
 51
8.3077469363072947
  0
ARC
  5
34445
  8
0
 10
3153.5576019818968234
 20
107.7303963965300966
 30
0.0
 40
0.1648000227460927
 50
354.7335256389649771
 51
7.0154252611092911
  0
ARC
  5
34446
  8
0
 10
3153.5781039858279655
 20
107.7999265110975955
 30
0.0
 40
0.1443180834149271
 50
354.2004813329181161
 51
7.6035421512088881
  0
ARC
  5
34447
  8
0
 10
3153.5253606871910961
 20
107.8672655639558968
 30
0.0
 40
0.1970200189083738
 50
355.7892925832987885
 51
6.2334676085312077
  0
ARC
  5
34448
  8
0
 10
3153.4866390939341727
 20
107.9345439236301019
 30
0.0
 40
0.2357326441794198
 50
356.4707251234473233
 51
5.1993277790923083
  0
ARC
  5
34449
  8
0
 10
3153.5103743735708122
 20
108.0029953800786018
 30
0.0
 40
0.2119785216919376
 50
356.1543066744710018
 51
5.3407618652533291
  0
ARC
  5
3444A
  8
0
 10
3153.5084712811271856
 20
108.0683093818506961
 30
0.0
 40
0.2139338113595866
 50
356.3343716406017734
 51
5.4230832805129809
  0
ARC
  5
3444B
  8
0
 10
3153.4989798567939943
 20
108.1346731661598994
 30
0.0
 40
0.2234171359049815
 50
356.4976500336463232
 51
5.0754915722752241
  0
ARC
  5
3444C
  8
0
 10
3153.5015336891287916
 20
108.1995030313490957
 30
0.0
 40
0.2208718706325645
 50
356.5644799419110882
 51
5.0686886553756549
  0
ARC
  5
3444D
  8
0
 10
3153.5039886940098768
 20
108.2642738851227051
 30
0.0
 40
0.2184179321484983
 50
356.5628122724079958
 51
4.955094139809316
  0
ARC
  5
3444E
  8
0
 10
3153.5247306156388731
 20
108.3280571595805952
 30
0.0
 40
0.1976900189242938
 50
356.3356916046853939
 51
5.2459908609312764
  0
ARC
  5
3444F
  8
0
 10
3153.4083279539440809
 20
108.3907586825310005
 30
0.0
 40
0.3140582719711301
 50
357.5338713612730999
 51
3.5817008432610411
  0
ARC
  5
34450
  8
0
 10
3153.4054900540259041
 20
108.4526259900579959
 30
0.0
 40
0.3168993473891331
 50
357.6436305113423941
 51
3.5066933559778151
  0
ARC
  5
34451
  8
0
 10
3153.0217110688217872
 20
108.509843139802399
 30
0.0
 40
0.7006968830592832
 50
358.969255103836872
 51
2.0477574067115101
  0
ARC
  5
34452
  8
0
 10
3153.334275639264888
 20
108.5757206198306051
 30
0.0
 40
0.3881031129641124
 50
357.9980480355227996
 51
2.742844431775374
  0
ARC
  5
34453
  8
0
 10
3153.5419395044491466
 20
108.6357402997577992
 30
0.0
 40
0.1804856575630931
 50
356.2796342528803848
 51
4.7914428499584822
  0
ARC
  5
34454
  8
0
 10
3153.4606910713159778
 20
108.6914647550714932
 30
0.0
 40
0.2617476757332291
 50
357.542343392921623
 51
3.9136258914573658
  0
ARC
  5
34455
  8
0
 10
3152.5539255763242181
 20
100.3801599582319
 30
0.0
 40
0.0394192083405992
 50
144.4199931990312962
 51
174.0847882922896872
  0
ARC
  5
34456
  8
0
 10
3152.5541825419259112
 20
100.4586942487063936
 30
0.0
 40
0.0397211228086932
 50
144.6231811852148041
 51
204.5564986954881022
  0
ARC
  5
34457
  8
0
 10
3152.5546530062479178
 20
100.5372670855301038
 30
0.0
 40
0.0402409417905015
 50
144.9919739623462078
 51
203.8699313704665883
  0
ARC
  5
34458
  8
0
 10
3152.5541456341411504
 20
100.6162090324882001
 30
0.0
 40
0.039690805769746
 50
144.7243170963612897
 51
204.2488106782178079
  0
ARC
  5
34459
  8
0
 10
3152.5535860612230863
 20
100.6949237402227055
 30
0.0
 40
0.039214703181162
 50
144.6088723694967086
 51
204.5922236637698859
  0
ARC
  5
3445A
  8
0
 10
3152.5539561510940985
 20
100.773698045090498
 30
0.0
 40
0.0395102336456899
 50
144.6466629003014077
 51
203.6902850195774874
  0
ARC
  5
3445B
  8
0
 10
3152.5538542463659724
 20
100.8524796095393015
 30
0.0
 40
0.0394111441703169
 50
145.5177261791027092
 51
204.5166610450629889
  0
ARC
  5
3445C
  8
0
 10
3152.5541907748488484
 20
100.9311257898408059
 30
0.0
 40
0.039761591359243
 50
144.7518195987827028
 51
203.0748046162343883
  0
ARC
  5
3445D
  8
0
 10
3152.5507489130259273
 20
101.0110716581051946
 30
0.0
 40
0.0361514228884067
 50
143.2610669698858032
 51
206.8576646126792014
  0
ARC
  5
3445E
  8
0
 10
3152.5540986817559315
 20
101.0886663415879951
 30
0.0
 40
0.0396373626403364
 50
144.6992841425197014
 51
204.2852404668252007
  0
ARC
  5
3445F
  8
0
 10
3152.553513512572863
 20
101.1674683226510041
 30
0.0
 40
0.0390966800250146
 50
144.3609478390006871
 51
204.5759923398339026
  0
ARC
  5
34460
  8
0
 10
3152.5540751126131909
 20
101.2461282423831932
 30
0.0
 40
0.0396440015237084
 50
144.5110594320942994
 51
204.3338191455829929
  0
ARC
  5
34461
  8
0
 10
3152.5535803964507977
 20
101.3249082232649982
 30
0.0
 40
0.0391758580149626
 50
144.2930950084551966
 51
204.5368230899867115
  0
ARC
  5
34462
  8
0
 10
3152.5540539226590226
 20
101.403619156103602
 30
0.0
 40
0.0396372994533234
 50
144.656477112368492
 51
204.2267590553097989
  0
ARC
  5
34463
  8
0
 10
3152.5540936864140349
 20
101.4823604498344025
 30
0.0
 40
0.0396466742418772
 50
144.5389987961854956
 51
204.3672804078138938
  0
ARC
  5
34464
  8
0
 10
3152.5537008962910477
 20
101.5610722155915937
 30
0.0
 40
0.0392611046131504
 50
144.7363733562212929
 51
204.4404573351665135
  0
ARC
  5
34465
  8
0
 10
3152.5537652755360796
 20
101.6398644122608061
 30
0.0
 40
0.0393117187482866
 50
144.9309685792530047
 51
204.6124663703079989
  0
ARC
  5
34466
  8
0
 10
3152.5538165559000845
 20
101.718630957314403
 30
0.0
 40
0.039385784573931
 50
144.6023427932132108
 51
204.5770219782262984
  0
ARC
  5
34467
  8
0
 10
3152.5538511777817803
 20
101.7973130606602012
 30
0.0
 40
0.0394320533227206
 50
144.4970053270702977
 51
204.4448353874213069
  0
ARC
  5
34468
  8
0
 10
3152.5537711463662163
 20
101.8760364859972043
 30
0.0
 40
0.0393265211252738
 50
144.3686237707100872
 51
204.4808409532863038
  0
ARC
  5
34469
  8
0
 10
3152.5540668843232197
 20
101.954801808957896
 30
0.0
 40
0.0395921843560181
 50
144.344350988017311
 51
204.2498602938748036
  0
ARC
  5
3446A
  8
0
 10
3152.5532735901761043
 20
102.033483057914097
 30
0.0
 40
0.0388390467196369
 50
143.9239713675924861
 51
205.3032496166387944
  0
ARC
  5
3446B
  8
0
 10
3152.5542198302841825
 20
102.1122814601900046
 30
0.0
 40
0.0397764965306406
 50
144.5063884009682909
 51
204.1382126301666915
  0
ARC
  5
3446C
  8
0
 10
3152.5542349310931058
 20
102.1910321957207941
 30
0.0
 40
0.0397783095557262
 50
144.9581034106826962
 51
204.1125165959122114
  0
ARC
  5
3446D
  8
0
 10
3152.5536940439928912
 20
102.269811181403
 30
0.0
 40
0.0392577878759135
 50
144.3232968721754048
 51
204.64092091420369
  0
ARC
  5
3446E
  8
0
 10
3152.5540183765538131
 20
102.3484968216921942
 30
0.0
 40
0.0395397623279461
 50
144.6437096573590964
 51
204.2307911775187961
  0
ARC
  5
3446F
  8
0
 10
3152.5546466213540953
 20
102.4271430349546961
 30
0.0
 40
0.0401823595953941
 50
145.125337381125604
 51
203.9239901788386931
  0
ARC
  5
34470
  8
0
 10
3152.5545036956168587
 20
102.5059264634312939
 30
0.0
 40
0.0400596410881914
 50
145.0701077982473066
 51
204.0672467365399996
  0
ARC
  5
34471
  8
0
 10
3152.554745506216932
 20
102.5846269240264945
 30
0.0
 40
0.0403046933187851
 50
144.7970457865060894
 51
203.9789011626041031
  0
ARC
  5
34472
  8
0
 10
3152.5540096240251842
 20
102.6634608434698066
 30
0.0
 40
0.0395683874065679
 50
144.652287733425311
 51
204.2360600655250948
  0
ARC
  5
34473
  8
0
 10
3152.5540802836958392
 20
102.7421864730414995
 30
0.0
 40
0.0396227146035029
 50
144.5851764289909056
 51
204.238832318275314
  0
ARC
  5
34474
  8
0
 10
3152.5542157907279943
 20
102.8208834152535047
 30
0.0
 40
0.0397628970747042
 50
144.7394602603644103
 51
204.1886035096187015
  0
ARC
  5
34475
  8
0
 10
3152.5537125018081497
 20
102.8996573132531012
 30
0.0
 40
0.0392845057101847
 50
144.7183562326125923
 51
204.4627403950240989
  0
ARC
  5
34476
  8
0
 10
3152.5542993474728064
 20
102.9783913538061029
 30
0.0
 40
0.0398632229137774
 50
145.1546199715658076
 51
204.3909631278073959
  0
ARC
  5
34477
  8
0
 10
3152.5546579898377786
 20
103.0570751768006943
 30
0.0
 40
0.0401857220909709
 50
145.0325859611085093
 51
204.1312040339284124
  0
ARC
  5
34478
  8
0
 10
3152.553945344820022
 20
103.1358684340085006
 30
0.0
 40
0.039493859603049
 50
144.896003190242908
 51
204.4599067286382876
  0
ARC
  5
34479
  8
0
 10
3152.5541331866638757
 20
103.214588223395495
 30
0.0
 40
0.0396620933346543
 50
144.6458970737294862
 51
204.291735702361791
  0
ARC
  5
3447A
  8
0
 10
3152.553481422445202
 20
103.2933486151240032
 30
0.0
 40
0.0390645750043175
 50
144.3602646204637949
 51
204.562790278135509
  0
ARC
  5
3447B
  8
0
 10
3152.5544860189061183
 20
103.3721154412059064
 30
0.0
 40
0.0400240192972287
 50
145.5677240160497092
 51
204.1781177800627063
  0
ARC
  5
3447C
  8
0
 10
3152.5504283998197934
 20
103.4508276122401043
 30
0.0
 40
0.0360908785126867
 50
141.5107037897039959
 51
206.6922060634690865
  0
ARC
  5
3447D
  8
0
 10
3152.554050128228937
 20
103.5296005860283941
 30
0.0
 40
0.0395925893081963
 50
144.7197462972198139
 51
204.2706884398650118
  0
ARC
  5
3447E
  8
0
 10
3152.5542811511231776
 20
103.6083442142467987
 30
0.0
 40
0.0398021406160211
 50
145.0698708676713125
 51
204.1575138044260029
  0
ARC
  5
3447F
  8
0
 10
3152.5541959415259043
 20
103.6870635797504008
 30
0.0
 40
0.03973918057915
 50
145.023018265660312
 51
204.3005209031310869
  0
ARC
  5
34480
  8
0
 10
3152.5537230038398775
 20
103.7658192153433987
 30
0.0
 40
0.0392713453470597
 50
144.4047101084086933
 51
204.5951418759111107
  0
ARC
  5
34481
  8
0
 10
3152.5546414909631494
 20
103.8444778572876999
 30
0.0
 40
0.0401828106162653
 50
144.4595032977456981
 51
203.9856497499690136
  0
ARC
  5
34482
  8
0
 10
3152.5544262118178267
 20
103.9232643542694063
 30
0.0
 40
0.0399438301675039
 50
145.0671809961685881
 51
204.7154374227482094
  0
ARC
  5
34483
  8
0
 10
3152.5537374397958956
 20
104.0020199717631044
 30
0.0
 40
0.0392961584195821
 50
144.2282612872458003
 51
204.5307085483267997
  0
ARC
  5
34484
  8
0
 10
3152.5536502715381175
 20
104.080820512224193
 30
0.0
 40
0.0392329177745281
 50
144.1236074907884017
 51
204.4338568754398011
  0
ARC
  5
34485
  8
0
 10
3152.5539772939500835
 20
104.159518234622297
 30
0.0
 40
0.0395341615981044
 50
144.7023458994540874
 51
204.1492249158507946
  0
ARC
  5
34486
  8
0
 10
3152.5539780847661859
 20
104.2382563122581018
 30
0.0
 40
0.0395346888139343
 50
144.5917622103800113
 51
204.3174875735797968
  0
ARC
  5
34487
  8
0
 10
3152.5538239760007855
 20
104.3169975993730958
 30
0.0
 40
0.0393722796363693
 50
144.5379643450862943
 51
204.3212647658843082
  0
ARC
  5
34488
  8
0
 10
3152.5543474211372086
 20
104.3957129728664057
 30
0.0
 40
0.0398841518530933
 50
144.896727009236912
 51
204.1621919614036926
  0
ARC
  5
34489
  8
0
 10
3152.5542396074670251
 20
104.4744905037808991
 30
0.0
 40
0.0397730930381068
 50
144.8274100154206963
 51
204.1924758156320081
  0
ARC
  5
3448A
  8
0
 10
3152.5537033622099443
 20
104.553210044381899
 30
0.0
 40
0.039285573265163
 50
144.7265099226154064
 51
204.5701780562297927
  0
ARC
  5
3448B
  8
0
 10
3152.5541480847541607
 20
104.6319551505908976
 30
0.0
 40
0.0396882606149211
 50
144.6368422560327076
 51
204.4247714468322954
  0
ARC
  5
3448C
  8
0
 10
3152.5539502455999354
 20
104.7107071586067946
 30
0.0
 40
0.0394935313805261
 50
144.4512335856894936
 51
204.3375845832117079
  0
ARC
  5
3448D
  8
0
 10
3152.5536480100818153
 20
104.7893989182021954
 30
0.0
 40
0.0391944631207645
 50
144.3765468996724053
 51
204.2837342917545982
  0
ARC
  5
3448E
  8
0
 10
3152.5538480636369059
 20
104.8682280012268961
 30
0.0
 40
0.0394075413121389
 50
144.395509961932305
 51
204.4640161089965034
  0
ARC
  5
3448F
  8
0
 10
3152.5540919874088104
 20
104.9469158809126981
 30
0.0
 40
0.0396347367026526
 50
145.0020376945375062
 51
204.3667147927349106
  0
ARC
  5
34490
  8
0
 10
3152.5537480142561435
 20
105.0256519118075005
 30
0.0
 40
0.0392935366646058
 50
144.5148332387477126
 51
204.6544937038854926
  0
ARC
  5
34491
  8
0
 10
3152.5537425587372127
 20
105.1043935023447062
 30
0.0
 40
0.0392870247637991
 50
144.6953740395640011
 51
204.8782151657246118
  0
ARC
  5
34492
  8
0
 10
3152.5541678455488181
 20
105.1831124465398943
 30
0.0
 40
0.0396848466772153
 50
144.8161877523525902
 51
204.2921080786454979
  0
ARC
  5
34493
  8
0
 10
3152.5538534546772098
 20
105.2618700747153042
 30
0.0
 40
0.0394281753983152
 50
144.4566729999264965
 51
204.4458521433365092
  0
ARC
  5
34494
  8
0
 10
3152.5539284364581363
 20
105.3406318149147012
 30
0.0
 40
0.0394715386271261
 50
145.3918168299989873
 51
204.3889571397947122
  0
ARC
  5
34495
  8
0
 10
3152.555263390986056
 20
105.4190358690084963
 30
0.0
 40
0.0406970734659967
 50
145.2763546532011958
 51
202.6800696110420006
  0
ARC
  5
34496
  8
0
 10
3152.5542416054190653
 20
105.4980269106199984
 30
0.0
 40
0.0397902123157202
 50
144.7266835252856083
 51
204.6584837902993002
  0
ARC
  5
34497
  8
0
 10
3152.5539304493668169
 20
105.576841191035399
 30
0.0
 40
0.0394755970237279
 50
145.0128102869624911
 51
204.0718982569254933
  0
ARC
  5
34498
  8
0
 10
3152.5539546358381813
 20
105.6555262207739929
 30
0.0
 40
0.0395157653271788
 50
145.4643530065860091
 51
203.8697238353134082
  0
ARC
  5
34499
  8
0
 10
3152.5542663165751947
 20
105.7342827642064975
 30
0.0
 40
0.0398225243394001
 50
144.6898524251677998
 51
203.4816251347893115
  0
ARC
  5
3449A
  8
0
 10
3152.5541180385021107
 20
105.8129029024790952
 30
0.0
 40
0.0396913984817063
 50
147.2999771257225063
 51
202.7317487948562018
  0
ARC
  5
3449B
  8
0
 10
3152.556107730767053
 20
105.8913610862872048
 30
0.0
 40
0.0416759122276988
 50
147.9348074090937075
 51
202.1488722588842109
  0
ARC
  5
3449C
  8
0
 10
3152.5570885086558519
 20
105.9698717275564945
 30
0.0
 40
0.042643000075533
 50
149.1805265584997926
 51
201.4020504733267956
  0
ARC
  5
3449D
  8
0
 10
3152.559729397215051
 20
106.0480755403321069
 30
0.0
 40
0.0452519693350823
 50
151.0525482276729008
 51
199.982229466706201
  0
ARC
  5
3449E
  8
0
 10
3152.56068906419614
 20
106.1262362225803031
 30
0.0
 40
0.0462230000554911
 50
152.0802715358263129
 51
199.4118803555778072
  0
ARC
  5
3449F
  8
0
 10
3152.5619117856499543
 20
106.2042932867056066
 30
0.0
 40
0.0474776167611536
 50
153.1721863886446897
 51
198.8043429962984874
  0
ARC
  5
344A0
  8
0
 10
3152.5663458357071249
 20
106.2820159763686974
 30
0.0
 40
0.0518632097309893
 50
155.8656285380972975
 51
197.1918277445400065
  0
ARC
  5
344A1
  8
0
 10
3152.5685502404048748
 20
106.3595011666710946
 30
0.0
 40
0.0541212465878353
 50
156.5951428528360054
 51
196.4668464319935879
  0
ARC
  5
344A2
  8
0
 10
3152.5690056554590228
 20
106.4369325378462037
 30
0.0
 40
0.0545861392905767
 50
157.6976965460411861
 51
196.1384430946581858
  0
ARC
  5
344A3
  8
0
 10
3152.5741530451259678
 20
106.5136089526552041
 30
0.0
 40
0.0597698549970943
 50
159.0287586609356936
 51
194.8142188140421922
  0
ARC
  5
344A4
  8
0
 10
3152.5764734804938598
 20
106.5906689343682956
 30
0.0
 40
0.0620655834279817
 50
160.189529455998013
 51
194.0855065121110101
  0
ARC
  5
344A5
  8
0
 10
3152.5857291844567953
 20
106.6671589887474028
 30
0.0
 40
0.0712347604945107
 50
162.6378510540880029
 51
192.220873319495297
  0
ARC
  5
344A6
  8
0
 10
3152.5916076252751736
 20
106.743141416799304
 30
0.0
 40
0.0771170200600885
 50
163.9264815859723114
 51
191.2751680940625079
  0
ARC
  5
344A7
  8
0
 10
3152.5937421675880614
 20
106.8192293787165994
 30
0.0
 40
0.0792504364975743
 50
164.6549645591578894
 51
190.9489093127880039
  0
ARC
  5
344A8
  8
0
 10
3152.5983038127869804
 20
106.8947055828087969
 30
0.0
 40
0.0838168755838294
 50
165.6011396225804049
 51
190.3295520770327869
  0
ARC
  5
344A9
  8
0
 10
3152.6061298310760321
 20
106.9696257240231034
 30
0.0
 40
0.0916280546566997
 50
166.5614973573752877
 51
189.3349637061650128
  0
ARC
  5
344AA
  8
0
 10
3152.5908234072321648
 20
107.0447551560718011
 30
0.0
 40
0.0764523767543179
 50
165.0878156455312933
 51
189.998205710291586
  0
ARC
  5
344AB
  8
0
 10
3152.6102570451707834
 20
107.1185974389634055
 30
0.0
 40
0.0957955890899166
 50
167.7681886044593966
 51
188.7749503753464069
  0
ARC
  5
344AC
  8
0
 10
3152.6222274210831529
 20
107.1920613869745011
 30
0.0
 40
0.1077400157668405
 50
168.8916787107567927
 51
187.7648534704788119
  0
ARC
  5
344AD
  8
0
 10
3152.6226370302128998
 20
107.2656239642559939
 30
0.0
 40
0.1081600217795246
 50
169.2055320318791871
 51
187.660802112753089
  0
ARC
  5
344AE
  8
0
 10
3152.633629752906927
 20
107.3384102818623944
 30
0.0
 40
0.1191299539019474
 50
170.2120923804851884
 51
186.929855477289891
  0
ARC
  5
344AF
  8
0
 10
3152.6434198610991189
 20
107.4107560351227022
 30
0.0
 40
0.1289224419427613
 50
170.9211298334813875
 51
186.4112143699530009
  0
ARC
  5
344B0
  8
0
 10
3152.6372126514611409
 20
107.4831759632887014
 30
0.0
 40
0.1227217748634444
 50
170.9427141158870995
 51
186.7268872852004051
  0
ARC
  5
344B1
  8
0
 10
3152.6468425471462069
 20
107.5542335410983981
 30
0.0
 40
0.1323530198518369
 50
170.9874223809925127
 51
186.1202541649132058
  0
ARC
  5
344B2
  8
0
 10
3152.6498349980302009
 20
107.6246974861217041
 30
0.0
 40
0.135369395206326
 50
171.7628504801024008
 51
186.8228163114416134
  0
ARC
  5
344B3
  8
0
 10
3152.6598832659669824
 20
107.6946694212877986
 30
0.0
 40
0.1454296298638336
 50
172.1809437978803885
 51
185.4490078813269065
  0
ARC
  5
344B4
  8
0
 10
3152.6675013957142255
 20
107.7642030699699944
 30
0.0
 40
0.1530458689698991
 50
172.7350137488955966
 51
185.3362061944554
  0
ARC
  5
344B5
  8
0
 10
3152.7851223356037735
 20
107.8326979655973048
 30
0.0
 40
0.2706292133475696
 50
175.3723838792994911
 51
183.1394102279421929
  0
ARC
  5
344B6
  8
0
 10
3152.6941997707472183
 20
107.9007859009304013
 30
0.0
 40
0.1797381653263415
 50
173.7246817628108033
 51
184.2633720481958903
  0
ARC
  5
344B7
  8
0
 10
3152.767091798401907
 20
107.9686961761281054
 30
0.0
 40
0.252621693944554
 50
175.2974079423345017
 51
183.2336559812100916
  0
ARC
  5
344B8
  8
0
 10
3152.7311879322792265
 20
108.0348712391738957
 30
0.0
 40
0.2167298996866494
 50
174.701012949726703
 51
183.4776611166776092
  0
ARC
  5
344B9
  8
0
 10
3152.8814838587250051
 20
108.099790647114105
 30
0.0
 40
0.3670502041964712
 50
176.3993625086999089
 51
182.183535105557695
  0
ARC
  5
344BA
  8
0
 10
3152.6485428846322066
 20
108.1672422096789035
 30
0.0
 40
0.1341211577132155
 50
172.7898125356371111
 51
184.9693955957862102
  0
ARC
  5
344BB
  8
0
 10
3152.7077111099029025
 20
108.2324012641667963
 30
0.0
 40
0.1932629742824698
 50
174.6903724085248939
 51
183.7287984990412042
  0
ARC
  5
344BC
  8
0
 10
3152.8611187206720388
 20
108.2930071633415992
 30
0.0
 40
0.3467134745602907
 50
176.3014185734924979
 51
182.1059565239185076
  0
ARC
  5
344BD
  8
0
 10
3153.3021174471768973
 20
108.3466669585588988
 30
0.0
 40
0.787759465004584
 50
177.6349834256743065
 51
180.7827994123915971
  0
ARC
  5
344BE
  8
0
 10
3152.9310550251261702
 20
108.4181233570277954
 30
0.0
 40
0.4166169622844924
 50
176.8996846264327019
 51
181.6594598867607999
  0
ARC
  5
344BF
  8
0
 10
3153.4370892754682245
 20
108.4711308775171972
 30
0.0
 40
0.9227247640150972
 50
177.9942260994590129
 51
180.6571128587476096
  0
ARC
  5
344C0
  8
0
 10
3152.9294161994080241
 20
108.5437804538360069
 30
0.0
 40
0.4149483837107103
 50
177.2743648460755992
 51
181.7446997390757133
  0
ARC
  5
344C1
  8
0
 10
3152.9516956821289568
 20
108.6033968912741017
 30
0.0
 40
0.4372499303811742
 50
177.3875917448980886
 51
181.6576762923384933
  0
ARC
  5
344C2
  8
0
 10
3152.7505477873360178
 20
108.663681127713005
 30
0.0
 40
0.2361173793050755
 50
176.0419017160079989
 51
182.8743427492345006
  0
ENDSEC
  0
EOF
