  0
SECTION
  2
HEADER
  9
$ACADVER
  1
AC1009
  9
$INSBASE
 10
3540.9223978144927969
 20
151.7324364807444965
 30
0.0
  9
$EXTMIN
 10
3537.9865232965871655
 20
151.7274549215914021
 30
0.0
  9
$EXTMAX
 10
3542.005074979867004
 20
155.9710869448398967
 30
0.0
  9
$LIMMIN
 10
0.0
 20
0.0
  9
$LIMMAX
 10
11.6929133858000007
 20
8.2677165353999982
  9
$ORTHOMODE
 70
     0
  9
$REGENMODE
 70
     1
  9
$FILLMODE
 70
     1
  9
$QTEXTMODE
 70
     0
  9
$MIRRTEXT
 70
     0
  9
$DRAGMODE
 70
     2
  9
$LTSCALE
 40
0.6431102362
  9
$OSMODE
 70
  4095
  9
$ATTMODE
 70
     1
  9
$TEXTSIZE
 40
0.2
  9
$TRACEWID
 40
0.05
  9
$TEXTSTYLE
  7
STANDARD
  9
$CLAYER
  8
0
  9
$CELTYPE
  6
BYLAYER
  9
$CECOLOR
 62
   256
  9
$DIMSCALE
 40
1.0
  9
$DIMASZ
 40
0.1875
  9
$DIMEXO
 40
0.0625
  9
$DIMDLI
 40
0.4443307087
  9
$DIMRND
 40
0.0
  9
$DIMDLE
 40
0.0
  9
$DIMEXE
 40
0.125
  9
$DIMTP
 40
0.01
  9
$DIMTM
 40
0.01
  9
$DIMTXT
 40
2.0
  9
$DIMCEN
 40
0.1052362205
  9
$DIMTSZ
 40
0.0
  9
$DIMTOL
 70
     1
  9
$DIMLIM
 70
     0
  9
$DIMTIH
 70
     1
  9
$DIMTOH
 70
     1
  9
$DIMSE1
 70
     0
  9
$DIMSE2
 70
     0
  9
$DIMTAD
 70
     0
  9
$DIMZIN
 70
     0
  9
$DIMBLK
  1

  9
$DIMASO
 70
     1
  9
$DIMSHO
 70
     1
  9
$DIMPOST
  1
\X
  9
$DIMAPOST
  1

  9
$DIMALT
 70
     1
  9
$DIMALTD
 70
     2
  9
$DIMALTF
 40
25.3999999999999986
  9
$DIMLFAC
 40
1.0
  9
$DIMTOFL
 70
     0
  9
$DIMTVP
 40
0.0
  9
$DIMTIX
 70
     0
  9
$DIMSOXD
 70
     0
  9
$DIMSAH
 70
     0
  9
$DIMBLK1
  1

  9
$DIMBLK2
  1

  9
$DIMSTYLE
  2
STANDARD
  9
$DIMCLRD
 70
     0
  9
$DIMCLRE
 70
     0
  9
$DIMCLRT
 70
     0
  9
$DIMTFAC
 40
1.0
  9
$DIMGAP
 40
0.09
  9
$LUNITS
 70
     2
  9
$LUPREC
 70
     4
  9
$SKETCHINC
 40
0.1
  9
$FILLETRAD
 40
0.0
  9
$AUNITS
 70
     0
  9
$AUPREC
 70
     0
  9
$MENU
  1
.
  9
$ELEVATION
 40
0.0
  9
$PELEVATION
 40
0.0
  9
$THICKNESS
 40
0.0
  9
$LIMCHECK
 70
     0
  9
$BLIPMODE
 70
     0
  9
$CHAMFERA
 40
0.0
  9
$CHAMFERB
 40
0.0
  9
$SKPOLY
 70
     0
  9
$TDCREATE
 40
2458060.468368056230247
  9
$TDUPDATE
 40
2460885.7375115738250315
  9
$TDINDWG
 40
0.4621945602
  9
$TDUSRTIMER
 40
0.4621945602
  9
$USRTIMER
 70
     1
  9
$ANGBASE
 50
0.0
  9
$ANGDIR
 70
     0
  9
$PDMODE
 70
     0
  9
$PDSIZE
 40
0.3125
  9
$PLINEWID
 40
0.0
  9
$COORDS
 70
     1
  9
$SPLFRAME
 70
     0
  9
$SPLINETYPE
 70
     6
  9
$SPLINESEGS
 70
     8
  9
$ATTDIA
 70
     1
  9
$ATTREQ
 70
     1
  9
$HANDLING
 70
     1
  9
$HANDSEED
  5
C0F1
  9
$SURFTAB1
 70
     6
  9
$SURFTAB2
 70
     6
  9
$SURFTYPE
 70
     6
  9
$SURFU
 70
     6
  9
$SURFV
 70
     6
  9
$UCSNAME
  2

  9
$UCSORG
 10
0.0
 20
0.0
 30
0.0
  9
$UCSXDIR
 10
1.0
 20
0.0
 30
0.0
  9
$UCSYDIR
 10
0.0
 20
1.0
 30
0.0
  9
$PUCSNAME
  2

  9
$PUCSORG
 10
0.0
 20
0.0
 30
0.0
  9
$PUCSXDIR
 10
1.0
 20
0.0
 30
0.0
  9
$PUCSYDIR
 10
0.0
 20
1.0
 30
0.0
  9
$USERI1
 70
     0
  9
$USERI2
 70
     0
  9
$USERI3
 70
     0
  9
$USERI4
 70
     0
  9
$USERI5
 70
     0
  9
$USERR1
 40
0.0
  9
$USERR2
 40
0.0
  9
$USERR3
 40
0.0
  9
$USERR4
 40
0.0
  9
$USERR5
 40
0.0
  9
$WORLDVIEW
 70
     1
  9
$SHADEDGE
 70
     3
  9
$SHADEDIF
 70
    70
  9
$TILEMODE
 70
     1
  9
$MAXACTVP
 70
    64
  9
$PLIMCHECK
 70
     0
  9
$PEXTMIN
 10
1.0000000000000000E+20
 20
1.0000000000000000E+20
 30
1.0000000000000000E+20
  9
$PEXTMAX
 10
-1.0000000000000000E+20
 20
-1.0000000000000000E+20
 30
-1.0000000000000000E+20
  9
$PLIMMIN
 10
0.0
 20
0.0
  9
$PLIMMAX
 10
12.0
 20
9.0
  9
$UNITMODE
 70
     0
  9
$VISRETAIN
 70
     1
  9
$PLINEGEN
 70
     0
  9
$PSLTSCALE
 70
     1
  0
ENDSEC
  0
SECTION
  2
TABLES
  0
TABLE
  2
VPORT
 70
     1
  0
VPORT
  2
*ACTIVE
 70
     0
 10
0.0
 20
0.0
 11
1.0
 21
1.0
 12
407.0784407397889026
 22
-35.7989685979277326
 13
0.0
 23
0.0
 14
1.0
 24
1.0
 15
0.0
 25
0.0
 16
0.0
 26
0.0
 36
71.4061910302851857
 17
3132.9173583984370453
 27
189.6482395311433891
 37
0.0
 40
4.27502757459186
 41
2.322222222222222
 42
50.0
 43
0.0
 44
0.0
 50
0.0
 51
0.0
 71
     0
 72
   100
 73
     1
 74
     1
 75
     0
 76
     0
 77
     0
 78
     0
  0
ENDTAB
  0
TABLE
  2
LTYPE
 70
     2
  0
LTYPE
  2
CONTINUOUS
 70
     0
  3
Solid line
 72
    65
 73
     0
 40
0.0
  0
LTYPE
  2
PHANTOM2
 70
     0
  3
___ _ _ ___ _ _ ___ _ _ ___ _ _
 72
    65
 73
     6
 40
1.25
 49
0.625
 49
-0.125
 49
0.125
 49
-0.125
 49
0.125
 49
-0.125
  0
ENDTAB
  0
TABLE
  2
LAYER
 70
     2
  0
LAYER
  2
0
 70
     0
 62
   255
  6
CONTINUOUS
  0
LAYER
  2
DEFPOINTS
 70
     0
 62
     7
  6
CONTINUOUS
  0
ENDTAB
  0
TABLE
  2
STYLE
 70
     1
  0
STYLE
  2
STANDARD
 70
     0
 40
0.0
 41
0.8
 50
0.0
 71
     0
 42
0.2
  3
txt
  4

  0
ENDTAB
  0
TABLE
  2
VIEW
 70
     0
  0
ENDTAB
  0
TABLE
  2
UCS
 70
     0
  0
ENDTAB
  0
TABLE
  2
APPID
 70
     9
  0
APPID
  2
ACAD
 70
     0
  0
APPID
  2
ACAD_MLEADERVER
 70
     0
  0
APPID
  2
ACAD_EXEMPT_FROM_CAD_STANDARDS
 70
     0
  0
APPID
  2
ACAD_NAV_VCDISPLAY
 70
     0
  0
APPID
  2
ACAECLAYERSTANDARD
 70
     0
  0
APPID
  2
ACCMTRANSPARENCY
 70
     0
  0
APPID
  2
ACAD_DSTYLE_DIMJAG
 70
     0
  0
APPID
  2
ACAD_DSTYLE_DIMTALN
 70
     0
  0
APPID
  2
ACDBATTR
 70
     0
  0
ENDTAB
  0
TABLE
  2
DIMSTYLE
 70
     1
  0
DIMSTYLE
  2
STANDARD
 70
     0
  3

  4

  5

  6

  7

 40
1.0
 41
0.1875
 42
0.0625
 43
0.38
 44
0.125
 45
0.0
 46
0.0
 47
0.01
 48
0.01
140
0.15625
141
0.09
142
0.0
143
25.3999999999999986
144
1.0
145
0.0
146
1.0
147
0.09
 71
     1
 72
     0
 73
     1
 74
     1
 75
     0
 76
     0
 77
     0
 78
     4
170
     0
171
     2
172
     0
173
     0
174
     0
175
     0
176
     0
177
     0
178
     0
  0
ENDTAB
  0
ENDSEC
  0
SECTION
  2
BLOCKS
  0
BLOCK
  8
0
  2
$MODEL_SPACE
 70
     0
 10
0.0
 20
0.0
 30
0.0
  3
$MODEL_SPACE
  1

  0
ENDBLK
  5
21
  8
0
  0
BLOCK
 67
     1
  8
0
  2
$PAPER_SPACE
 70
     0
 10
0.0
 20
0.0
 30
0.0
  3
$PAPER_SPACE
  1

  0
ENDBLK
  5
1D
 67
     1
  8
0
  0
BLOCK
  8
0
  2
_FILLED
 70
     0
 10
0.0
 20
0.0
 30
0.0
  3
_FILLED
  1

  0
SOLID
  5
9A2B
  8
0
  6
BYBLOCK
 62
     0
 10
0.0
 20
0.0
 30
0.0
 11
-1.0
 21
0.1666666667
 31
0.0
 12
-1.0
 22
-0.1666666667
 32
0.0
 13
-1.0
 23
-0.1666666667
 33
0.0
  0
ENDBLK
  5
9A2C
  8
0
  6
BYBLOCK
 62
     0
  0
ENDSEC
  0
SECTION
  2
ENTITIES
  0
ATTDEF
  5
3930
  8
DEFPOINTS
 10
3540.9118508462238424
 20
151.7307882549247893
 30
0.0
 40
0.001
  1
P23180-00
  3

  2
MODELNUMBER
 70
     0
1001
ACDBATTR
1070
     0
1070
     1
  0
ATTDEF
  5
3931
  8
DEFPOINTS
 10
3540.9118508462238424
 20
151.7291215882580957
 30
0.0
 40
0.001
  1
KALLISTA
  3

  2
BRANDNAME
 70
     0
1001
ACDBATTR
1070
     0
1070
     1
  0
ATTDEF
  5
3932
  8
DEFPOINTS
 10
3540.9118508462238424
 20
151.7274549215914021
 30
0.0
 40
0.001
  1
SOAP DISPENSER
  3

  2
PRODUCT
 70
     0
1001
ACDBATTR
1070
     0
1070
     1
  0
LINE
  5
BFAB
  8
0
 10
3540.2974393807789966
 20
152.4493577405444
 30
0.0
 11
3540.2974393807789966
 21
155.1323577405445064
 31
0.0
  0
LINE
  5
BFAC
  8
0
 10
3540.2974393807789966
 20
155.2323577405443871
 30
0.0
 11
3540.2974393807789966
 21
155.398122758943714
 31
0.0
  0
LINE
  5
BFAD
  8
0
 10
3540.2974393807789966
 20
155.7759846498975094
 30
0.0
 11
3540.2974393807789966
 21
155.9423577405445087
 31
0.0
  0
LINE
  5
BFAE
  8
0
 10
3541.5473562481552108
 20
152.4393577405444091
 30
0.0
 11
3541.5473562481552108
 21
155.1323577405445064
 31
0.0
  0
LINE
  5
BFAF
  8
0
 10
3541.5473562481552108
 20
155.2323577405443871
 30
0.0
 11
3541.5473562481552108
 21
155.9423577405445087
 31
0.0
  0
LINE
  5
BFB0
  8
0
 10
3539.8397206490672033
 20
151.8698834968444089
 30
0.0
 11
3539.8397206490672033
 21
151.7324364807444965
 31
0.0
  0
ARC
  5
BFB1
  8
0
 10
3539.8597206490671851
 20
151.8698834968444089
 30
0.0
 40
0.02
 50
90.0
 51
180.0
  0
LINE
  5
BFB2
  8
0
 10
3540.3174393807789784
 20
155.9623577405444053
 30
0.0
 11
3541.5273562481547742
 21
155.9623577405444053
 31
0.0
  0
LINE
  5
BFB3
  8
0
 10
3540.3174393807789784
 20
155.2123577405444053
 30
0.0
 11
3541.5273562481547742
 21
155.2123577405444053
 31
0.0
  0
LINE
  5
BFB4
  8
0
 10
3540.3174393807789784
 20
155.152357740544403
 30
0.0
 11
3541.5273562481547742
 21
155.152357740544403
 31
0.0
  0
ARC
  5
BFB5
  8
0
 10
3540.3174393807789784
 20
155.1323577405445064
 30
0.0
 40
0.02
 50
90.0
 51
180.0
  0
LINE
  5
BFB6
  8
0
 10
3540.3074393807792148
 20
152.4393577405444091
 30
0.0
 11
3541.5473562481552108
 21
152.4393577405444091
 31
0.0
  0
LINE
  5
BFB7
  8
0
 10
3540.3376999741799409
 20
152.144436480744389
 30
0.0
 11
3541.5070956547529022
 21
152.144436480744389
 31
0.0
  0
LINE
  5
BFB8
  8
0
 10
3539.8597206490671851
 20
151.8898834968443907
 30
0.0
 11
3541.9850749798670222
 21
151.8898834968443907
 31
0.0
  0
LINE
  5
BFB9
  8
0
 10
3539.8397206491172255
 20
151.7324364807444965
 30
0.0
 11
3542.005074979867004
 21
151.7324364807444965
 31
0.0
  0
LINE
  5
BFBA
  8
0
 10
3540.4248978145169531
 20
152.4393577405444091
 30
0.0
 11
3540.4248978145169531
 21
152.1739364807444019
 31
0.0
  0
ARC
  5
BFBB
  8
0
 10
3540.3953978145168549
 20
152.1739364807444019
 30
0.0
 40
0.0295
 50
270.0
 51
0.0000000000032569
  0
ARC
  5
BFBC
  8
0
 10
3540.3074393807792148
 20
152.4493577405445137
 30
0.0
 40
0.01
 50
180.0000000000146088
 51
270.0
  0
ARC
  5
BFBD
  8
0
 10
3539.8287582376528917
 20
153.2093868267905918
 30
0.0
 40
1.3198665495646189
 50
271.3442103287083
 51
280.3146229458885159
  0
ARC
  5
BFBE
  8
0
 10
3539.9567941279169645
 20
152.4720190052051976
 30
0.0
 40
0.5715219479497704
 50
280.9222974508800803
 51
296.5332725780069154
  0
ARC
  5
BFBF
  8
0
 10
3540.1136687163570969
 20
152.15783429961769
 30
0.0
 40
0.2203501015222748
 50
296.5332725780069154
 51
327.6055906473828259
  0
ARC
  5
BFC0
  8
0
 10
3540.1479143984088296
 20
152.1361060159420902
 30
0.0
 40
0.1797929190422695
 50
327.6055906473828259
 51
359.4959845985580955
  0
ARC
  5
BFC1
  8
0
 10
3540.3376999741799409
 20
152.1344364807445118
 30
0.0
 40
0.01
 50
90.0
 51
179.4959845985596871
  0
LINE
  5
BFC2
  8
0
 10
3542.005074979867004
 20
151.8698834968444089
 30
0.0
 11
3542.005074979867004
 21
151.7324364807444965
 31
0.0
  0
ARC
  5
BFC3
  8
0
 10
3541.9850749798670222
 20
151.8698834968444089
 30
0.0
 40
0.02
 50
0.0
 51
90.0
  0
LINE
  5
BFC4
  8
0
 10
3541.4198978144167995
 20
152.4393577405444091
 30
0.0
 11
3541.4198978144167995
 21
152.1739364807444019
 31
0.0
  0
ARC
  5
BFC5
  8
0
 10
3541.4493978144168977
 20
152.1739364807444019
 30
0.0
 40
0.0295
 50
179.9999999999967031
 51
270.0
  0
ARC
  5
BFC6
  8
0
 10
3542.0160373912808609
 20
153.2093868267905918
 30
0.0
 40
1.3198665495646189
 50
259.6853770541115978
 51
268.6557896712915863
  0
ARC
  5
BFC7
  8
0
 10
3541.8880015010167881
 20
152.4720190052051976
 30
0.0
 40
0.5715219479497704
 50
243.466727421993113
 51
259.0777025491199197
  0
ARC
  5
BFC8
  8
0
 10
3541.7311269125771105
 20
152.15783429961769
 30
0.0
 40
0.2203501015222748
 50
212.3944093526170889
 51
243.466727421993113
  0
ARC
  5
BFC9
  8
0
 10
3541.6968812305240135
 20
152.1361060159420902
 30
0.0
 40
0.1797929190422695
 50
180.5040154014417908
 51
212.3944093526170889
  0
ARC
  5
BFCA
  8
0
 10
3541.5070956547529022
 20
152.1344364807445118
 30
0.0
 40
0.01
 50
0.5040154014402134
 51
90.0
  0
LINE
  5
BFCB
  8
0
 10
3540.4023978145169167
 20
155.2123577405444053
 30
0.0
 11
3540.4023978145169167
 21
155.152357740544403
 31
0.0
  0
LINE
  5
BFCC
  8
0
 10
3541.4423978144168359
 20
155.2123577405444053
 30
0.0
 11
3541.4423978144168359
 21
155.152357740544403
 31
0.0
  0
ARC
  5
BFCD
  8
0
 10
3541.5273562481547742
 20
155.2323577405443871
 30
0.0
 40
0.02
 50
270.0
 51
359.9999999999919282
  0
ARC
  5
BFCE
  8
0
 10
3541.5273562481547742
 20
155.1323577405445064
 30
0.0
 40
0.02
 50
0.0000000000048853
 51
89.9999999999739515
  0
ARC
  5
BFCF
  8
0
 10
3540.3174393807789784
 20
155.2323577405443871
 30
0.0
 40
0.02
 50
180.0000000000032117
 51
270.0
  0
ARC
  5
BFD0
  8
0
 10
3540.3174393807789784
 20
155.9423577405445087
 30
0.0
 40
0.02
 50
90.0
 51
179.9999999999917861
  0
ARC
  5
BFD1
  8
0
 10
3541.5273562481547742
 20
155.9423577405445087
 30
0.0
 40
0.02
 50
0.0
 51
90.0
  0
LINE
  5
BFD2
  8
0
 10
3538.0648489130157941
 20
155.9708966797444987
 30
0.0
 11
3540.2975742012367846
 21
155.7755585282831134
 31
0.0
  0
LINE
  5
BFD3
  8
0
 10
3538.032165509448987
 20
155.5973236680235061
 30
0.0
 11
3538.1241906601380833
 21
155.5892725105769898
 31
0.0
  0
LINE
  5
BFD4
  8
0
 10
3538.2486549150930841
 20
155.5783832992516977
 30
0.0
 11
3540.2977514074291321
 21
155.3991105856592867
 31
0.0
  0
LINE
  5
BFD5
  8
0
 10
3538.0106813909751509
 20
155.9254447319848964
 30
0.0
 11
3537.9867135616827909
 21
155.6514911900729885
 31
0.0
  0
ARC
  5
BFD6
  8
0
 10
3538.0604911258787979
 20
155.9210869448399137
 30
0.0
 40
0.05
 50
85.0000000006539835
 51
174.9999999911896111
  0
ARC
  5
BFD7
  8
0
 10
3538.0365232965859832
 20
155.6471334029278921
 30
0.0
 40
0.05
 50
174.9999999911848079
 51
264.9999999988232844
  0
ARC
  5
BFD8
  8
0
 10
3538.1710268524348066
 20
155.4078515606040867
 30
0.0
 40
0.1873691276545447
 50
65.5244110228593826
 51
104.4755889748000044
  0
ARC
  5
BFD9
  8
0
 10
3539.7010337413821617
 20
155.5870537044206117
 30
0.0
 40
0.6256153681485407
 50
342.4227028901723884
 51
17.577297109827601
  0
ENDSEC
  0
EOF
