  0
SECTION
  2
HEADER
  9
$ACADVER
  1
AC1009
  9
$INSBASE
 10
3158.2563239474638976
 20
89.167102563755904
 30
0.0
  9
$EXTMIN
 10
3157.1736467820642247
 20
89.161108527735081
 30
0.0
  9
$EXTMAX
 10
3159.3390011128640253
 20
93.4057530278559085
 30
0.0
  9
$LIMMIN
 10
0.0
 20
0.0
  9
$LIMMAX
 10
11.6929133858000007
 20
8.2677165353999982
  9
$ORTHOMODE
 70
     0
  9
$REGENMODE
 70
     1
  9
$FILLMODE
 70
     1
  9
$QTEXTMODE
 70
     0
  9
$MIRRTEXT
 70
     0
  9
$DRAGMODE
 70
     2
  9
$LTSCALE
 40
0.6431102362
  9
$OSMODE
 70
  4095
  9
$ATTMODE
 70
     1
  9
$TEXTSIZE
 40
0.2
  9
$TRACEWID
 40
0.05
  9
$TEXTSTYLE
  7
STANDARD
  9
$CLAYER
  8
0
  9
$CELTYPE
  6
BYLAYER
  9
$CECOLOR
 62
   256
  9
$DIMSCALE
 40
1.0
  9
$DIMASZ
 40
0.1875
  9
$DIMEXO
 40
0.0625
  9
$DIMDLI
 40
0.4443307087
  9
$DIMRND
 40
0.0
  9
$DIMDLE
 40
0.0
  9
$DIMEXE
 40
0.125
  9
$DIMTP
 40
0.01
  9
$DIMTM
 40
0.01
  9
$DIMTXT
 40
2.0
  9
$DIMCEN
 40
0.1052362205
  9
$DIMTSZ
 40
0.0
  9
$DIMTOL
 70
     1
  9
$DIMLIM
 70
     0
  9
$DIMTIH
 70
     1
  9
$DIMTOH
 70
     1
  9
$DIMSE1
 70
     0
  9
$DIMSE2
 70
     0
  9
$DIMTAD
 70
     0
  9
$DIMZIN
 70
     0
  9
$DIMBLK
  1

  9
$DIMASO
 70
     1
  9
$DIMSHO
 70
     1
  9
$DIMPOST
  1
\X
  9
$DIMAPOST
  1

  9
$DIMALT
 70
     1
  9
$DIMALTD
 70
     2
  9
$DIMALTF
 40
25.3999999999999986
  9
$DIMLFAC
 40
1.0
  9
$DIMTOFL
 70
     0
  9
$DIMTVP
 40
0.0
  9
$DIMTIX
 70
     0
  9
$DIMSOXD
 70
     0
  9
$DIMSAH
 70
     0
  9
$DIMBLK1
  1

  9
$DIMBLK2
  1

  9
$DIMSTYLE
  2
STANDARD
  9
$DIMCLRD
 70
     0
  9
$DIMCLRE
 70
     0
  9
$DIMCLRT
 70
     0
  9
$DIMTFAC
 40
1.0
  9
$DIMGAP
 40
0.09
  9
$LUNITS
 70
     2
  9
$LUPREC
 70
     4
  9
$SKETCHINC
 40
0.1
  9
$FILLETRAD
 40
0.0
  9
$AUNITS
 70
     0
  9
$AUPREC
 70
     0
  9
$MENU
  1
.
  9
$ELEVATION
 40
0.0
  9
$PELEVATION
 40
0.0
  9
$THICKNESS
 40
0.0
  9
$LIMCHECK
 70
     0
  9
$BLIPMODE
 70
     0
  9
$CHAMFERA
 40
0.0
  9
$CHAMFERB
 40
0.0
  9
$SKPOLY
 70
     0
  9
$TDCREATE
 40
2458060.468368056230247
  9
$TDUPDATE
 40
2460637.56976851914078
  9
$TDINDWG
 40
0.5562802083
  9
$TDUSRTIMER
 40
0.5562802083
  9
$USRTIMER
 70
     1
  9
$ANGBASE
 50
0.0
  9
$ANGDIR
 70
     0
  9
$PDMODE
 70
     0
  9
$PDSIZE
 40
0.3125
  9
$PLINEWID
 40
0.0
  9
$COORDS
 70
     2
  9
$SPLFRAME
 70
     0
  9
$SPLINETYPE
 70
     6
  9
$SPLINESEGS
 70
     8
  9
$ATTDIA
 70
     1
  9
$ATTREQ
 70
     1
  9
$HANDLING
 70
     1
  9
$HANDSEED
  5
33DF5
  9
$SURFTAB1
 70
     6
  9
$SURFTAB2
 70
     6
  9
$SURFTYPE
 70
     6
  9
$SURFU
 70
     6
  9
$SURFV
 70
     6
  9
$UCSNAME
  2

  9
$UCSORG
 10
0.0
 20
0.0
 30
0.0
  9
$UCSXDIR
 10
1.0
 20
0.0
 30
0.0
  9
$UCSYDIR
 10
0.0
 20
1.0
 30
0.0
  9
$PUCSNAME
  2

  9
$PUCSORG
 10
0.0
 20
0.0
 30
0.0
  9
$PUCSXDIR
 10
1.0
 20
0.0
 30
0.0
  9
$PUCSYDIR
 10
0.0
 20
1.0
 30
0.0
  9
$USERI1
 70
     0
  9
$USERI2
 70
     0
  9
$USERI3
 70
     0
  9
$USERI4
 70
     0
  9
$USERI5
 70
     0
  9
$USERR1
 40
0.0
  9
$USERR2
 40
0.0
  9
$USERR3
 40
0.0
  9
$USERR4
 40
0.0
  9
$USERR5
 40
0.0
  9
$WORLDVIEW
 70
     1
  9
$SHADEDGE
 70
     3
  9
$SHADEDIF
 70
    70
  9
$TILEMODE
 70
     1
  9
$MAXACTVP
 70
    64
  9
$PLIMCHECK
 70
     0
  9
$PEXTMIN
 10
1.0000000000000000E+20
 20
1.0000000000000000E+20
 30
1.0000000000000000E+20
  9
$PEXTMAX
 10
-1.0000000000000000E+20
 20
-1.0000000000000000E+20
 30
-1.0000000000000000E+20
  9
$PLIMMIN
 10
0.0
 20
0.0
  9
$PLIMMAX
 10
12.0
 20
9.0
  9
$UNITMODE
 70
     0
  9
$VISRETAIN
 70
     1
  9
$PLINEGEN
 70
     0
  9
$PSLTSCALE
 70
     1
  0
ENDSEC
  0
SECTION
  2
TABLES
  0
TABLE
  2
VPORT
 70
     1
  0
VPORT
  2
*ACTIVE
 70
     0
 10
0.0
 20
0.0
 11
1.0
 21
1.0
 12
-645.2877434353486024
 22
-34.7118314189544321
 13
0.0
 23
0.0
 14
1.0
 24
1.0
 15
0.0
 25
0.0
 16
0.0
 26
0.0
 36
17.1152628219792007
 17
3803.5440673828129547
 27
125.9952621967499056
 37
0.0
 40
4.2747483618238098
 41
2.21775147928994
 42
50.0
 43
0.0
 44
0.0
 50
0.0
 51
0.0
 71
     0
 72
   100
 73
     1
 74
     1
 75
     0
 76
     0
 77
     0
 78
     0
  0
ENDTAB
  0
TABLE
  2
LTYPE
 70
     2
  0
LTYPE
  2
CONTINUOUS
 70
     0
  3
Solid line
 72
    65
 73
     0
 40
0.0
  0
LTYPE
  2
PHANTOM2
 70
     0
  3
___ _ _ ___ _ _ ___ _ _ ___ _ _
 72
    65
 73
     6
 40
1.25
 49
0.625
 49
-0.125
 49
0.125
 49
-0.125
 49
0.125
 49
-0.125
  0
ENDTAB
  0
TABLE
  2
LAYER
 70
     2
  0
LAYER
  2
0
 70
     0
 62
   255
  6
CONTINUOUS
  0
LAYER
  2
DEFPOINTS
 70
     0
 62
     7
  6
CONTINUOUS
  0
ENDTAB
  0
TABLE
  2
STYLE
 70
     1
  0
STYLE
  2
STANDARD
 70
     0
 40
0.0
 41
0.8
 50
0.0
 71
     0
 42
0.2
  3
txt
  4

  0
ENDTAB
  0
TABLE
  2
VIEW
 70
     0
  0
ENDTAB
  0
TABLE
  2
UCS
 70
     0
  0
ENDTAB
  0
TABLE
  2
APPID
 70
    11
  0
APPID
  2
ACAD
 70
     0
  0
APPID
  2
ACAD_MLEADERVER
 70
     0
  0
APPID
  2
ACAD_EXEMPT_FROM_CAD_STANDARDS
 70
     0
  0
APPID
  2
ACAD_NAV_VCDISPLAY
 70
     0
  0
APPID
  2
ACAECLAYERSTANDARD
 70
     0
  0
APPID
  2
ACCMTRANSPARENCY
 70
     0
  0
APPID
  2
ACAD_DSTYLE_DIMJAG
 70
     0
  0
APPID
  2
ACAD_DSTYLE_DIMTALN
 70
     0
  0
APPID
  2
ACDBATTR
 70
     0
  0
APPID
  2
DCO15
 70
     0
  0
APPID
  2
ACADANNOTATIVE
 70
     0
  0
ENDTAB
  0
TABLE
  2
DIMSTYLE
 70
     2
  0
DIMSTYLE
  2
STANDARD
 70
     0
  3

  4

  5

  6

  7

 40
1.0
 41
0.1875
 42
0.0625
 43
0.38
 44
0.125
 45
0.0
 46
0.0
 47
0.01
 48
0.01
140
0.15625
141
0.09
142
0.0
143
25.3999999999999986
144
1.0
145
0.0
146
1.0
147
0.09
 71
     1
 72
     0
 73
     1
 74
     1
 75
     0
 76
     0
 77
     0
 78
     4
170
     0
171
     2
172
     0
173
     0
174
     0
175
     0
176
     0
177
     0
178
     0
  0
DIMSTYLE
  2
ANNOTATIVE
 70
     0
  3

  4

  5

  6

  7

 40
0.0
 41
0.18
 42
0.0625
 43
0.38
 44
0.18
 45
0.0
 46
0.0
 47
0.0
 48
0.0
140
0.18
141
0.09
142
0.0
143
25.3999999999999986
144
1.0
145
0.0
146
1.0
147
0.09
 71
     0
 72
     0
 73
     1
 74
     1
 75
     0
 76
     0
 77
     0
 78
     0
170
     0
171
     2
172
     0
173
     0
174
     0
175
     0
176
     0
177
     0
178
     0
  0
ENDTAB
  0
ENDSEC
  0
SECTION
  2
BLOCKS
  0
BLOCK
  8
0
  2
$MODEL_SPACE
 70
     0
 10
0.0
 20
0.0
 30
0.0
  3
$MODEL_SPACE
  1

  0
ENDBLK
  5
21
  8
0
  0
BLOCK
 67
     1
  8
0
  2
$PAPER_SPACE
 70
     0
 10
0.0
 20
0.0
 30
0.0
  3
$PAPER_SPACE
  1

  0
ENDBLK
  5
1D
 67
     1
  8
0
  0
BLOCK
  8
0
  2
_FILLED
 70
     0
 10
0.0
 20
0.0
 30
0.0
  3
_FILLED
  1

  0
SOLID
  5
32933
  8
0
  6
BYBLOCK
 62
     0
 10
0.0
 20
0.0
 30
0.0
 11
-1.0
 21
0.1666666667
 31
0.0
 12
-1.0
 22
-0.1666666667
 32
0.0
 13
-1.0
 23
-0.1666666667
 33
0.0
  0
ENDBLK
  5
32934
  8
0
  6
BYBLOCK
 62
     0
  0
ENDSEC
  0
SECTION
  2
ENTITIES
  0
ATTDEF
  5
30D2B
  8
DEFPOINTS
 10
3158.2570737359610575
 20
89.1644418610684255
 30
0.0
 40
0.001
  1
P23180-AF
  3

  2
MODELNUMBER
 70
     0
1001
ACDBATTR
1070
     0
1070
     1
  0
ATTDEF
  5
30D2C
  8
DEFPOINTS
 10
3158.2570737359610575
 20
89.1627751944017746
 30
0.0
 40
0.001
  1
JUXTAPOSE
  3

  2
TRADENAME
 70
     0
1001
ACDBATTR
1070
     0
1070
     1
  0
ATTDEF
  5
30D2D
  8
DEFPOINTS
 10
3158.2570737359610575
 20
89.1611085277351236
 30
0.0
 40
0.001
  1
SOAP DISPENSER
  3

  2
PRODUCT
 70
     0
1001
ACDBATTR
1070
     0
1070
     1
  0
LINE
  5
33C77
  8
0
 10
3159.3390011128640253
 20
89.167102563755904
 30
0.0
 11
3157.1736467820642247
 21
89.167102563755904
 31
0.0
  0
LINE
  5
33C78
  8
0
 10
3158.8613239474639158
 20
93.3970238235559123
 30
0.0
 11
3158.312941581990799
 21
93.3970238235559123
 31
0.0
  0
LINE
  5
33C79
  8
0
 10
3158.1997063129379058
 20
93.3970238235559123
 30
0.0
 11
3157.6513239474638794
 21
93.3970238235559123
 31
0.0
  0
LINE
  5
33C7A
  8
0
 10
3158.8813239474638976
 20
93.377023823555902
 30
0.0
 11
3158.8813239474638976
 21
92.6670238235559083
 31
0.0
  0
ARC
  5
33C7B
  8
0
 10
3158.8613239474639158
 20
93.377023823555902
 30
0.0
 40
0.02
 50
0.0
 51
90.0
  0
LINE
  5
33C7C
  8
0
 10
3158.8613239474639158
 20
92.6470238235559265
 30
0.0
 11
3157.6513239474638794
 21
92.6470238235559265
 31
0.0
  0
ARC
  5
33C7D
  8
0
 10
3158.8613239474639158
 20
92.6670238235559083
 30
0.0
 40
0.02
 50
270.0
 51
0.0
  0
ARC
  5
33C7E
  8
0
 10
3157.6513239474638794
 20
92.6670238235559083
 30
0.0
 40
0.02
 50
180.0
 51
270.0
  0
ARC
  5
33C7F
  8
0
 10
3158.2557810459161374
 20
93.2172343669317343
 30
0.0
 40
0.1886926803007611
 50
4.7562816341442709
 51
65.9274139321364601
  0
ARC
  5
33C80
  8
0
 10
3158.2570749130491095
 20
93.2189876082295683
 30
0.0
 40
0.1867720333448907
 50
299.7723491183477904
 51
359.1008337863644897
  0
LINE
  5
33C81
  8
0
 10
3158.4438239474638976
 20
93.2328802857728931
 30
0.0
 11
3158.4438239474638976
 21
92.9948300553065792
 31
0.0
  0
LINE
  5
33C82
  8
0
 10
3158.7763239474638794
 20
92.6470238235559265
 30
0.0
 11
3158.7763239474638794
 21
92.5870238235559242
 31
0.0
  0
LINE
  5
33C83
  8
0
 10
3159.3390011128640253
 20
89.3045573149558862
 30
0.0
 11
3159.3390011128640253
 21
89.167102563755904
 31
0.0
  0
LINE
  5
33C84
  8
0
 10
3158.8613239474639158
 20
92.5870238235559242
 30
0.0
 11
3157.6513239474638794
 21
92.5870238235559242
 31
0.0
  0
LINE
  5
33C85
  8
0
 10
3158.8813239474638976
 20
92.5670238235558855
 30
0.0
 11
3158.8813239474638976
 21
89.884023823555907
 31
0.0
  0
ARC
  5
33C86
  8
0
 10
3158.8613239474639158
 20
92.5670238235558855
 30
0.0
 40
0.02
 50
0.0
 51
90.0
  0
LINE
  5
33C87
  8
0
 10
3158.8713239474641341
 20
89.8740238235559019
 30
0.0
 11
3157.6413239474641159
 21
89.8740238235559019
 31
0.0
  0
ARC
  5
33C88
  8
0
 10
3158.8713239474641341
 20
89.884023823555907
 30
0.0
 40
0.01
 50
270.0
 51
0.0
  0
ARC
  5
33C89
  8
0
 10
3157.6413239474641159
 20
89.884023823555907
 30
0.0
 40
0.01
 50
180.0
 51
270.0
  0
LINE
  5
33C8A
  8
0
 10
3158.8410285381642097
 20
89.5791025637559102
 30
0.0
 11
3157.6716193567640403
 21
89.5791025637559102
 31
0.0
  0
LINE
  5
33C8B
  8
0
 10
3158.7538239474638431
 20
89.8740238235559019
 30
0.0
 11
3158.7538239474638431
 21
89.6086301227559119
 31
0.0
  0
ARC
  5
33C8C
  8
0
 10
3158.7835690806809907
 20
89.6086301227559119
 30
0.0
 40
0.0297451332166015
 50
180.0
 51
263.0657664357311205
  0
ARC
  5
33C8D
  8
0
 10
3158.8398901594378003
 20
89.567918083384825
 30
0.0
 40
0.0112422643313667
 50
8.0856583164126192
 51
84.1883348988902611
  0
ARC
  5
33C8E
  8
0
 10
3159.0458033108120617
 20
89.5741730337287549
 30
0.0
 40
0.1948387105986785
 50
181.374512554715011
 51
243.2519942287183881
  0
ARC
  5
33C8F
  8
0
 10
3159.2553296933801903
 20
89.9925329349506455
 30
0.0
 40
0.662733890808185
 50
243.3543732557126873
 51
266.0530373982725223
  0
ARC
  5
33C90
  8
0
 10
3159.3578571294478934
 20
90.8291176977357253
 30
0.0
 40
1.505055638170099
 50
264.3511233676404117
 51
268.5418109697063755
  0
ARC
  5
33C91
  8
0
 10
3159.314980754752014
 20
89.3006470984577447
 30
0.0
 40
0.024336544472985
 50
9.2459399600147503
 51
79.1608599353350826
  0
LINE
  5
33C92
  8
0
 10
3159.3195523954432247
 20
89.3245495798558835
 30
0.0
 11
3157.1930954994859349
 21
89.3245495798558835
 31
0.0
  0
ARC
  5
33C93
  8
0
 10
3158.2591566106480059
 20
93.019249536168914
 30
0.0
 40
0.1862748945305033
 50
316.3769314016124099
 51
352.46719750643922
  0
ARC
  5
33C94
  8
0
 10
3158.2587789696867731
 20
93.0196094488378264
 30
0.0
 40
0.1867965743408777
 50
288.7141685407144109
 51
316.3769314016124099
  0
LINE
  5
33C95
  8
0
 10
3157.6313239474638976
 20
93.377023823555902
 30
0.0
 11
3157.6313239474638976
 21
92.6670238235559083
 31
0.0
  0
ARC
  5
33C96
  8
0
 10
3157.6513239474638794
 20
93.377023823555902
 30
0.0
 40
0.02
 50
90.0
 51
180.0
  0
ARC
  5
33C97
  8
0
 10
3158.2568668490121127
 20
93.2172343669317343
 30
0.0
 40
0.1886926803007611
 50
114.0725860678634973
 51
175.2437183658556989
  0
ARC
  5
33C98
  8
0
 10
3158.2555729818791406
 20
93.2189876082295683
 30
0.0
 40
0.1867720333448907
 50
180.8991662136355103
 51
240.2276508816522949
  0
LINE
  5
33C99
  8
0
 10
3158.0688239474638976
 20
93.2328802857728931
 30
0.0
 11
3158.0688239474638976
 21
92.9948300553065792
 31
0.0
  0
LINE
  5
33C9A
  8
0
 10
3157.7363239474639158
 20
92.6470238235559265
 30
0.0
 11
3157.7363239474639158
 21
92.5870238235559242
 31
0.0
  0
LINE
  5
33C9B
  8
0
 10
3157.1736467820642247
 20
89.3045573149558862
 30
0.0
 11
3157.1736467820642247
 21
89.167102563755904
 31
0.0
  0
LINE
  5
33C9C
  8
0
 10
3157.6313239474638976
 20
92.5670238235558855
 30
0.0
 11
3157.6313239474638976
 21
89.884023823555907
 31
0.0
  0
ARC
  5
33C9D
  8
0
 10
3157.6513239474638794
 20
92.5670238235558855
 30
0.0
 40
0.02
 50
90.0
 51
180.0
  0
LINE
  5
33C9E
  8
0
 10
3157.7588239474639522
 20
89.8740238235559019
 30
0.0
 11
3157.7588239474639522
 21
89.6086301227559119
 31
0.0
  0
ARC
  5
33C9F
  8
0
 10
3157.7290788142468045
 20
89.6086301227559119
 30
0.0
 40
0.0297451332166015
 50
276.9342335642689932
 51
0.0
  0
ARC
  5
33CA0
  8
0
 10
3157.6727577354909045
 20
89.567918083384825
 30
0.0
 40
0.0112422643313667
 50
95.8116651011097247
 51
171.914341683587395
  0
ARC
  5
33CA1
  8
0
 10
3157.4668445841161883
 20
89.5741730337287549
 30
0.0
 40
0.1948387105986785
 50
296.7480057712816119
 51
358.6254874452848753
  0
ARC
  5
33CA2
  8
0
 10
3157.2573182015480597
 20
89.9925329349506455
 30
0.0
 40
0.662733890808185
 50
273.9469626017274777
 51
296.6456267442873127
  0
ARC
  5
33CA3
  8
0
 10
3157.1547907654799019
 20
90.8291176977357253
 30
0.0
 40
1.505055638170099
 50
271.4581890302936245
 51
275.6488766323595883
  0
ARC
  5
33CA4
  8
0
 10
3157.1976671401757812
 20
89.3006470984577447
 30
0.0
 40
0.024336544472985
 50
100.8391400646649032
 51
170.7540600399860011
  0
ARC
  5
33CA5
  8
0
 10
3158.2534912842811536
 20
93.019249536168914
 30
0.0
 40
0.1862748945305033
 50
187.5328024935606948
 51
223.6230685983875901
  0
ARC
  5
33CA6
  8
0
 10
3158.2538689252410222
 20
93.0196094488378264
 30
0.0
 40
0.1867965743408777
 50
223.6230685983875901
 51
251.2858314592855891
  0
ARC
  5
33CA7
  8
0
 10
3158.2563239474638976
 20
93.0253035647192092
 30
0.0
 40
0.1929779781633003
 50
251.1378884825153932
 51
288.8621115174846068
  0
ARC
  5
33CA8
  8
0
 10
3158.2563239474638976
 20
93.2201020282035557
 30
0.0
 40
0.1881122772476854
 50
240.1976582743430981
 51
299.802341725656504
  0
ARC
  5
33CA9
  8
0
 10
3158.2563239474638976
 20
93.2177773868754684
 30
0.0
 40
0.1879756409804349
 50
66.0109884627350851
 51
113.9890115372645027
  0
ARC
  5
33CAA
  8
0
 10
3158.2534167151779911
 20
93.3610802700112714
 30
0.0
 40
0.3371395691557604
 50
259.8190618613859897
 51
280.8090924119899796
  0
ARC
  5
33CAB
  8
0
 10
3158.2546558486101276
 20
93.1350326004685343
 30
0.0
 40
0.1220268494450928
 50
240.0988496997042034
 51
300.5293045736756881
  0
CIRCLE
  5
33CAC
  8
0
 10
3158.2557096873028968
 20
93.2232900690755741
 30
0.0
 40
0.136820968924268
  0
ENDSEC
  0
EOF
