  0
SECTION
  2
HEADER
  9
$ACADVER
  1
AC1009
  9
$INSBASE
 10
4775.3417085992359716
 20
242.776262092789608
 30
0.0
  9
$EXTMIN
 10
4774.2590314338349344
 20
242.7692126526845868
 30
0.0
  9
$EXTMAX
 10
4776.4243857646360993
 20
247.0149125568896125
 30
0.0
  9
$LIMMIN
 10
0.0
 20
0.0
  9
$LIMMAX
 10
11.6929133858000007
 20
8.2677165353999982
  9
$ORTHOMODE
 70
     0
  9
$REGENMODE
 70
     1
  9
$FILLMODE
 70
     1
  9
$QTEXTMODE
 70
     0
  9
$MIRRTEXT
 70
     0
  9
$DRAGMODE
 70
     2
  9
$LTSCALE
 40
0.6431102362
  9
$OSMODE
 70
  4095
  9
$ATTMODE
 70
     1
  9
$TEXTSIZE
 40
0.2
  9
$TRACEWID
 40
0.05
  9
$TEXTSTYLE
  7
STANDARD
  9
$CLAYER
  8
0
  9
$CELTYPE
  6
BYLAYER
  9
$CECOLOR
 62
   256
  9
$DIMSCALE
 40
1.0
  9
$DIMASZ
 40
0.1875
  9
$DIMEXO
 40
0.0625
  9
$DIMDLI
 40
0.4443307087
  9
$DIMRND
 40
0.0
  9
$DIMDLE
 40
0.0
  9
$DIMEXE
 40
0.125
  9
$DIMTP
 40
0.01
  9
$DIMTM
 40
0.01
  9
$DIMTXT
 40
2.0
  9
$DIMCEN
 40
0.1052362205
  9
$DIMTSZ
 40
0.0
  9
$DIMTOL
 70
     1
  9
$DIMLIM
 70
     0
  9
$DIMTIH
 70
     1
  9
$DIMTOH
 70
     1
  9
$DIMSE1
 70
     0
  9
$DIMSE2
 70
     0
  9
$DIMTAD
 70
     0
  9
$DIMZIN
 70
     0
  9
$DIMBLK
  1

  9
$DIMASO
 70
     1
  9
$DIMSHO
 70
     1
  9
$DIMPOST
  1
\X
  9
$DIMAPOST
  1

  9
$DIMALT
 70
     1
  9
$DIMALTD
 70
     2
  9
$DIMALTF
 40
25.3999999999999986
  9
$DIMLFAC
 40
1.0
  9
$DIMTOFL
 70
     0
  9
$DIMTVP
 40
0.0
  9
$DIMTIX
 70
     0
  9
$DIMSOXD
 70
     0
  9
$DIMSAH
 70
     0
  9
$DIMBLK1
  1

  9
$DIMBLK2
  1

  9
$DIMSTYLE
  2
STANDARD
  9
$DIMCLRD
 70
     0
  9
$DIMCLRE
 70
     0
  9
$DIMCLRT
 70
     0
  9
$DIMTFAC
 40
1.0
  9
$DIMGAP
 40
0.09
  9
$LUNITS
 70
     2
  9
$LUPREC
 70
     4
  9
$SKETCHINC
 40
0.1
  9
$FILLETRAD
 40
0.0
  9
$AUNITS
 70
     0
  9
$AUPREC
 70
     0
  9
$MENU
  1
.
  9
$ELEVATION
 40
0.0
  9
$PELEVATION
 40
0.0
  9
$THICKNESS
 40
0.0
  9
$LIMCHECK
 70
     0
  9
$BLIPMODE
 70
     0
  9
$CHAMFERA
 40
0.0
  9
$CHAMFERB
 40
0.0
  9
$SKPOLY
 70
     0
  9
$TDCREATE
 40
2458060.468368056230247
  9
$TDUPDATE
 40
2459597.5391319449990988
  9
$TDINDWG
 40
0.370134375
  9
$TDUSRTIMER
 40
0.370134375
  9
$USRTIMER
 70
     1
  9
$ANGBASE
 50
0.0
  9
$ANGDIR
 70
     0
  9
$PDMODE
 70
     0
  9
$PDSIZE
 40
0.3125
  9
$PLINEWID
 40
0.0
  9
$COORDS
 70
     1
  9
$SPLFRAME
 70
     0
  9
$SPLINETYPE
 70
     6
  9
$SPLINESEGS
 70
     8
  9
$ATTDIA
 70
     1
  9
$ATTREQ
 70
     1
  9
$HANDLING
 70
     1
  9
$HANDSEED
  5
CE09
  9
$SURFTAB1
 70
     6
  9
$SURFTAB2
 70
     6
  9
$SURFTYPE
 70
     6
  9
$SURFU
 70
     6
  9
$SURFV
 70
     6
  9
$UCSNAME
  2

  9
$UCSORG
 10
0.0
 20
0.0
 30
0.0
  9
$UCSXDIR
 10
1.0
 20
0.0
 30
0.0
  9
$UCSYDIR
 10
0.0
 20
1.0
 30
0.0
  9
$PUCSNAME
  2

  9
$PUCSORG
 10
0.0
 20
0.0
 30
0.0
  9
$PUCSXDIR
 10
1.0
 20
0.0
 30
0.0
  9
$PUCSYDIR
 10
0.0
 20
1.0
 30
0.0
  9
$USERI1
 70
     0
  9
$USERI2
 70
     0
  9
$USERI3
 70
     0
  9
$USERI4
 70
     0
  9
$USERI5
 70
     0
  9
$USERR1
 40
0.0
  9
$USERR2
 40
0.0
  9
$USERR3
 40
0.0
  9
$USERR4
 40
0.0
  9
$USERR5
 40
0.0
  9
$WORLDVIEW
 70
     1
  9
$SHADEDGE
 70
     3
  9
$SHADEDIF
 70
    70
  9
$TILEMODE
 70
     1
  9
$MAXACTVP
 70
    64
  9
$PLIMCHECK
 70
     0
  9
$PEXTMIN
 10
1.0000000000000000E+20
 20
1.0000000000000000E+20
 30
1.0000000000000000E+20
  9
$PEXTMAX
 10
-1.0000000000000000E+20
 20
-1.0000000000000000E+20
 30
-1.0000000000000000E+20
  9
$PLIMMIN
 10
0.0
 20
0.0
  9
$PLIMMAX
 10
12.0
 20
9.0
  9
$UNITMODE
 70
     0
  9
$VISRETAIN
 70
     1
  9
$PLINEGEN
 70
     0
  9
$PSLTSCALE
 70
     1
  0
ENDSEC
  0
SECTION
  2
TABLES
  0
TABLE
  2
VPORT
 70
     1
  0
VPORT
  2
*ACTIVE
 70
     0
 10
0.0
 20
0.0
 11
1.0
 21
1.0
 12
0.0
 22
0.0
 13
0.0
 23
0.0
 14
1.0
 24
1.0
 15
0.0
 25
0.0
 16
0.0
 26
0.0
 36
15.9057274819763901
 17
4775.3415527343740905
 27
244.8917321808345093
 37
0.0
 40
4.7654868865667357
 41
2.5853658536585362
 42
50.0
 43
0.0
 44
0.0
 50
0.0
 51
0.0
 71
     0
 72
   100
 73
     1
 74
     1
 75
     0
 76
     0
 77
     0
 78
     0
  0
ENDTAB
  0
TABLE
  2
LTYPE
 70
     2
  0
LTYPE
  2
CONTINUOUS
 70
     0
  3
Solid line
 72
    65
 73
     0
 40
0.0
  0
LTYPE
  2
PHANTOM2
 70
     0
  3
___ _ _ ___ _ _ ___ _ _ ___ _ _
 72
    65
 73
     6
 40
1.25
 49
0.625
 49
-0.125
 49
0.125
 49
-0.125
 49
0.125
 49
-0.125
  0
ENDTAB
  0
TABLE
  2
LAYER
 70
     2
  0
LAYER
  2
0
 70
     0
 62
   255
  6
CONTINUOUS
  0
LAYER
  2
DEFPOINTS
 70
     0
 62
     7
  6
CONTINUOUS
  0
ENDTAB
  0
TABLE
  2
STYLE
 70
     1
  0
STYLE
  2
STANDARD
 70
     0
 40
0.0
 41
0.8
 50
0.0
 71
     0
 42
0.2
  3
txt
  4

  0
ENDTAB
  0
TABLE
  2
VIEW
 70
     0
  0
ENDTAB
  0
TABLE
  2
UCS
 70
     0
  0
ENDTAB
  0
TABLE
  2
APPID
 70
     9
  0
APPID
  2
ACAD
 70
     0
  0
APPID
  2
ACAD_MLEADERVER
 70
     0
  0
APPID
  2
ACAD_EXEMPT_FROM_CAD_STANDARDS
 70
     0
  0
APPID
  2
ACAD_NAV_VCDISPLAY
 70
     0
  0
APPID
  2
ACAECLAYERSTANDARD
 70
     0
  0
APPID
  2
ACCMTRANSPARENCY
 70
     0
  0
APPID
  2
ACAD_DSTYLE_DIMJAG
 70
     0
  0
APPID
  2
ACAD_DSTYLE_DIMTALN
 70
     0
  0
APPID
  2
ACDBATTR
 70
     0
  0
ENDTAB
  0
TABLE
  2
DIMSTYLE
 70
     1
  0
DIMSTYLE
  2
STANDARD
 70
     0
  3

  4

  5

  6

  7

 40
1.0
 41
0.1875
 42
0.0625
 43
0.38
 44
0.125
 45
0.0
 46
0.0
 47
0.01
 48
0.01
140
0.15625
141
0.09
142
0.0
143
25.3999999999999986
144
1.0
145
0.0
146
1.0
147
0.09
 71
     1
 72
     0
 73
     1
 74
     1
 75
     0
 76
     0
 77
     0
 78
     4
170
     0
171
     2
172
     0
173
     0
174
     0
175
     0
176
     0
177
     0
178
     0
  0
ENDTAB
  0
ENDSEC
  0
SECTION
  2
BLOCKS
  0
BLOCK
  8
0
  2
$MODEL_SPACE
 70
     0
 10
0.0
 20
0.0
 30
0.0
  3
$MODEL_SPACE
  1

  0
ENDBLK
  5
21
  8
0
  0
BLOCK
 67
     1
  8
0
  2
$PAPER_SPACE
 70
     0
 10
0.0
 20
0.0
 30
0.0
  3
$PAPER_SPACE
  1

  0
ENDBLK
  5
1D
 67
     1
  8
0
  0
BLOCK
  8
0
  2
_FILLED
 70
     0
 10
0.0
 20
0.0
 30
0.0
  3
_FILLED
  1

  0
SOLID
  5
CBC1
  8
0
  6
BYBLOCK
 62
     0
 10
0.0
 20
0.0
 30
0.0
 11
-1.0
 21
0.1666666667
 31
0.0
 12
-1.0
 22
-0.1666666667
 32
0.0
 13
-1.0
 23
-0.1666666667
 33
0.0
  0
ENDBLK
  5
CBC2
  8
0
  6
BYBLOCK
 62
     0
  0
ENDSEC
  0
SECTION
  2
ENTITIES
  0
ATTDEF
  5
3930
  8
DEFPOINTS
 10
4775.342991076445287
 20
242.7725459860178887
 30
0.0
 40
0.001
  1
P23180-SN
  3

  2
MODELNUMBER
 70
     0
1001
ACDBATTR
1070
     0
1070
     1
  0
ATTDEF
  5
3931
  8
DEFPOINTS
 10
4775.342991076445287
 20
242.7708793193513088
 30
0.0
 40
0.001
  1
JUXTAPOSE
  3

  2
TRADENAME
 70
     0
1001
ACDBATTR
1070
     0
1070
     1
  0
ATTDEF
  5
3932
  8
DEFPOINTS
 10
4775.342991076445287
 20
242.7692126526845868
 30
0.0
 40
0.001
  1
SOAP DISPENSER
  3

  2
PRODUCT
 70
     0
1001
ACDBATTR
1070
     0
1070
     1
  0
LINE
  5
CBFF
  8
0
 10
4776.4243857646360993
 20
242.776262092789608
 30
0.0
 11
4774.2590314338349344
 21
242.776262092789608
 31
0.0
  0
LINE
  5
CC00
  8
0
 10
4775.9467085992364446
 20
247.006183352589602
 30
0.0
 11
4775.3983262337624183
 21
247.006183352589602
 31
0.0
  0
LINE
  5
CC01
  8
0
 10
4775.2850909647086155
 20
247.006183352589602
 30
0.0
 11
4774.7367085992364082
 21
247.006183352589602
 31
0.0
  0
LINE
  5
CC02
  8
0
 10
4775.9667085992359716
 20
246.9861833525895918
 30
0.0
 11
4775.9667085992359716
 21
246.2761833525896122
 31
0.0
  0
LINE
  5
CC03
  8
0
 10
4775.9467085992364446
 20
246.256183352589602
 30
0.0
 11
4774.7367085992364082
 21
246.256183352589602
 31
0.0
  0
ARC
  5
CC04
  8
0
 10
4775.3411656976877566
 20
246.8263938959655093
 30
0.0
 40
0.1886926803007611
 50
4.7562816341429208
 51
65.9274139321364601
  0
ARC
  5
CC05
  8
0
 10
4775.3424595648211834
 20
246.8281471372633007
 30
0.0
 40
0.1867720333448907
 50
299.7723491183481883
 51
359.1008337863656266
  0
LINE
  5
CC06
  8
0
 10
4775.5292085992359716
 20
246.8420398148066113
 30
0.0
 11
4775.5292085992359716
 21
246.6039895843402974
 31
0.0
  0
LINE
  5
CC07
  8
0
 10
4775.8617085992364082
 20
246.256183352589602
 30
0.0
 11
4775.8617085992364082
 21
246.1961833525895997
 31
0.0
  0
LINE
  5
CC08
  8
0
 10
4776.4243857646360993
 20
242.9137168439895902
 30
0.0
 11
4776.4243857646360993
 21
242.776262092789608
 31
0.0
  0
ARC
  5
CC0A
  8
0
 10
4775.9401188521605945
 20
246.9795936055153049
 30
0.0
 40
0.027394149301953
 50
13.9191860650581098
 51
76.0808139349422845
  0
ARC
  5
CC0B
  8
0
 10
4775.9401188521605945
 20
246.2827730996638991
 30
0.0
 40
0.027394149301953
 50
283.9191860650577155
 51
346.0808139349418866
  0
LINE
  5
CC0C
  8
0
 10
4775.9467085992364446
 20
246.1961833525895997
 30
0.0
 11
4774.7367085992364082
 21
246.1961833525895997
 31
0.0
  0
LINE
  5
CC0D
  8
0
 10
4775.9667085992359716
 20
246.1761833525895895
 30
0.0
 11
4775.9667085992359716
 21
243.5031833525895877
 31
0.0
  0
LINE
  5
CC0E
  8
0
 10
4775.9467085992364446
 20
243.4831833525896059
 30
0.0
 11
4774.7367085992364082
 21
243.4831833525896059
 31
0.0
  0
ARC
  5
CC0F
  8
0
 10
4775.9401188521605945
 20
246.1695936055153879
 30
0.0
 40
0.027394149301953
 50
13.9191860650581098
 51
76.0808139349422845
  0
ARC
  5
CC10
  8
0
 10
4775.9401188521605945
 20
243.5097730996639029
 30
0.0
 40
0.027394149301953
 50
283.9191860650577155
 51
346.0808139349418866
  0
LINE
  5
CC11
  8
0
 10
4775.9264131899362837
 20
243.1882620927896141
 30
0.0
 11
4774.75700400853475
 21
243.1882620927896141
 31
0.0
  0
LINE
  5
CC12
  8
0
 10
4775.8392085992363718
 20
243.4831833525896059
 30
0.0
 11
4775.8392085992363718
 21
243.2177896517895874
 31
0.0
  0
ARC
  5
CC13
  8
0
 10
4775.86895373245261
 20
243.2177896517895874
 30
0.0
 40
0.0297451332166015
 50
180.0
 51
263.0657664357051999
  0
ARC
  5
CC14
  8
0
 10
4775.9252748112103291
 20
243.1770776124184863
 30
0.0
 40
0.0112422643313667
 50
8.0856583164089546
 51
84.1883348989161107
  0
ARC
  5
CC15
  8
0
 10
4776.1311879625836809
 20
243.1833325627623879
 30
0.0
 40
0.1948387105986785
 50
181.3745125547148973
 51
243.2519942287416939
  0
ARC
  5
CC16
  8
0
 10
4776.3407143451522643
 20
243.6016924639843069
 30
0.0
 40
0.662733890808185
 50
243.3543732557126873
 51
266.0530373982725791
  0
ARC
  5
CC17
  8
0
 10
4776.4432417812186031
 20
244.4382772267694008
 30
0.0
 40
1.505055638170099
 50
264.3511233676662755
 51
268.5418109696802844
  0
ARC
  5
CC18
  8
0
 10
4776.4003654065254523
 20
242.9098066274914061
 30
0.0
 40
0.024336544472985
 50
9.2459399600105616
 51
79.1608599353352247
  0
LINE
  5
CC19
  8
0
 10
4776.4049370472148439
 20
242.9337091088895875
 30
0.0
 11
4774.2784801512580088
 21
242.9337091088895875
 31
0.0
  0
ARC
  5
CC1A
  8
0
 10
4775.3445412624187156
 20
246.6284090652025895
 30
0.0
 40
0.1862748945305033
 50
316.3769314016309977
 51
352.4671975064400158
  0
ARC
  5
CC1B
  8
0
 10
4775.3441636214593018
 20
246.6287689778714878
 30
0.0
 40
0.1867965743408777
 50
288.7141685407145815
 51
316.3769314016309977
  0
LINE
  5
CC1C
  8
0
 10
4774.7167085992350621
 20
246.9861833525895918
 30
0.0
 11
4774.7167085992350621
 21
246.2761833525896122
 31
0.0
  0
ARC
  5
CC1D
  8
0
 10
4775.3422515007832772
 20
246.8263938959655093
 30
0.0
 40
0.1886926803007611
 50
114.0725860678634973
 51
175.2437183658570063
  0
ARC
  5
CC1E
  8
0
 10
4775.3409576336507598
 20
246.8281471372633007
 30
0.0
 40
0.1867720333448907
 50
180.8991662136342882
 51
240.227650881651897
  0
LINE
  5
CC1F
  8
0
 10
4775.1542085992359716
 20
246.8420398148066113
 30
0.0
 11
4775.1542085992359716
 21
246.6039895843402974
 31
0.0
  0
LINE
  5
CC20
  8
0
 10
4774.8217085992364446
 20
246.256183352589602
 30
0.0
 11
4774.8217085992364446
 21
246.1961833525895997
 31
0.0
  0
LINE
  5
CC21
  8
0
 10
4774.2590314338349344
 20
242.9137168439895902
 30
0.0
 11
4774.2590314338349344
 21
242.776262092789608
 31
0.0
  0
ARC
  5
CC22
  8
0
 10
4774.7432983463113487
 20
246.9795936055153049
 30
0.0
 40
0.027394149301953
 50
103.9191860650577013
 51
166.0808139349418866
  0
ARC
  5
CC23
  8
0
 10
4774.7432983463113487
 20
246.2827730996638991
 30
0.0
 40
0.027394149301953
 50
193.9191860650581134
 51
256.0808139349422845
  0
LINE
  5
CC24
  8
0
 10
4774.7167085992350621
 20
246.1761833525895895
 30
0.0
 11
4774.7167085992350621
 21
243.5031833525895877
 31
0.0
  0
ARC
  5
CC25
  8
0
 10
4774.7432983463113487
 20
246.1695936055153879
 30
0.0
 40
0.027394149301953
 50
103.9191860650577013
 51
166.0808139349418866
  0
ARC
  5
CC26
  8
0
 10
4774.7432983463113487
 20
243.5097730996639029
 30
0.0
 40
0.027394149301953
 50
193.9191860650581134
 51
256.0808139349422845
  0
LINE
  5
CC27
  8
0
 10
4774.8442085992355715
 20
243.4831833525896059
 30
0.0
 11
4774.8442085992355715
 21
243.2177896517895874
 31
0.0
  0
ARC
  5
CC28
  8
0
 10
4774.8144634660193333
 20
243.2177896517895874
 30
0.0
 40
0.0297451332166015
 50
276.9342335642948001
 51
0.0
  0
ARC
  5
CC29
  8
0
 10
4774.7581423872616142
 20
243.1770776124184863
 30
0.0
 40
0.0112422643313667
 50
95.8116651010839036
 51
171.9143416835910045
  0
ARC
  5
CC2A
  8
0
 10
4774.5522292358873528
 20
243.1833325627623879
 30
0.0
 40
0.1948387105986785
 50
296.7480057712584198
 51
358.6254874452851027
  0
ARC
  5
CC2B
  8
0
 10
4774.342702853319679
 20
243.6016924639843069
 30
0.0
 40
0.662733890808185
 50
273.9469626017274209
 51
296.6456267442873127
  0
ARC
  5
CC2C
  8
0
 10
4774.2401754172524306
 20
244.4382772267694008
 30
0.0
 40
1.505055638170099
 50
271.4581890303197156
 51
275.6488766323337245
  0
ARC
  5
CC2D
  8
0
 10
4774.2830517919492195
 20
242.9098066274914061
 30
0.0
 40
0.024336544472985
 50
100.8391400646648037
 51
170.7540600399894117
  0
ARC
  5
CC2E
  8
0
 10
4775.3388759360532276
 20
246.6284090652025895
 30
0.0
 40
0.1862748945305033
 50
187.5328024935600126
 51
223.6230685983690876
  0
ARC
  5
CC2F
  8
0
 10
4775.339253577011732
 20
246.6287689778714878
 30
0.0
 40
0.1867965743408777
 50
223.6230685983690876
 51
251.2858314592853901
  0
ARC
  5
CC30
  8
0
 10
4775.3417085992359716
 20
246.6344630937529132
 30
0.0
 40
0.1929779781633003
 50
251.137888482515109
 51
288.862111517484891
  0
ARC
  5
CC31
  8
0
 10
4775.3417085992359716
 20
246.8292615572372881
 30
0.0
 40
0.1881122772476854
 50
240.1976582743205881
 51
299.8023417256795256
  0
ARC
  5
CC32
  8
0
 10
4775.3417085992359716
 20
246.8269369159091866
 30
0.0
 40
0.1879756409804349
 50
66.0109884627350851
 51
113.9890115372649007
  0
ARC
  5
CC33
  8
0
 10
4775.3388013669491556
 20
246.9702397990450038
 30
0.0
 40
0.3371395691557604
 50
259.8190618613604101
 51
280.8090924120155023
  0
ARC
  5
CC34
  8
0
 10
4775.3400405003822016
 20
246.7441921295022098
 30
0.0
 40
0.1220268494450928
 50
240.0988496997042034
 51
300.5293045736756881
  0
ENDSEC
  0
EOF
