  0
SECTION
  2
HEADER
  9
$ACADVER
  1
AC1009
  9
$INSBASE
 10
3161.0979253583209356
 20
83.1106150386474241
 30
0.0
  9
$EXTMIN
 10
3158.1620508404848806
 20
83.105628700555954
 30
0.0
  9
$EXTMAX
 10
3162.1806025237137874
 20
87.3492655027474143
 30
0.0
  9
$LIMMIN
 10
0.0
 20
0.0
  9
$LIMMAX
 10
11.6929133858000007
 20
8.2677165353999982
  9
$ORTHOMODE
 70
     0
  9
$REGENMODE
 70
     1
  9
$FILLMODE
 70
     1
  9
$QTEXTMODE
 70
     0
  9
$MIRRTEXT
 70
     0
  9
$DRAGMODE
 70
     2
  9
$LTSCALE
 40
0.6431102362
  9
$OSMODE
 70
  4095
  9
$ATTMODE
 70
     1
  9
$TEXTSIZE
 40
0.2
  9
$TRACEWID
 40
0.05
  9
$TEXTSTYLE
  7
STANDARD
  9
$CLAYER
  8
0
  9
$CELTYPE
  6
BYLAYER
  9
$CECOLOR
 62
   256
  9
$DIMSCALE
 40
1.0
  9
$DIMASZ
 40
0.1875
  9
$DIMEXO
 40
0.0625
  9
$DIMDLI
 40
0.4443307087
  9
$DIMRND
 40
0.0
  9
$DIMDLE
 40
0.0
  9
$DIMEXE
 40
0.125
  9
$DIMTP
 40
0.01
  9
$DIMTM
 40
0.01
  9
$DIMTXT
 40
2.0
  9
$DIMCEN
 40
0.1052362205
  9
$DIMTSZ
 40
0.0
  9
$DIMTOL
 70
     1
  9
$DIMLIM
 70
     0
  9
$DIMTIH
 70
     1
  9
$DIMTOH
 70
     1
  9
$DIMSE1
 70
     0
  9
$DIMSE2
 70
     0
  9
$DIMTAD
 70
     0
  9
$DIMZIN
 70
     0
  9
$DIMBLK
  1

  9
$DIMASO
 70
     1
  9
$DIMSHO
 70
     1
  9
$DIMPOST
  1
\X
  9
$DIMAPOST
  1

  9
$DIMALT
 70
     1
  9
$DIMALTD
 70
     2
  9
$DIMALTF
 40
25.3999999999999986
  9
$DIMLFAC
 40
1.0
  9
$DIMTOFL
 70
     0
  9
$DIMTVP
 40
0.0
  9
$DIMTIX
 70
     0
  9
$DIMSOXD
 70
     0
  9
$DIMSAH
 70
     0
  9
$DIMBLK1
  1

  9
$DIMBLK2
  1

  9
$DIMSTYLE
  2
STANDARD
  9
$DIMCLRD
 70
     0
  9
$DIMCLRE
 70
     0
  9
$DIMCLRT
 70
     0
  9
$DIMTFAC
 40
1.0
  9
$DIMGAP
 40
0.09
  9
$LUNITS
 70
     2
  9
$LUPREC
 70
     4
  9
$SKETCHINC
 40
0.1
  9
$FILLETRAD
 40
0.0
  9
$AUNITS
 70
     0
  9
$AUPREC
 70
     0
  9
$MENU
  1
.
  9
$ELEVATION
 40
0.0
  9
$PELEVATION
 40
0.0
  9
$THICKNESS
 40
0.0
  9
$LIMCHECK
 70
     0
  9
$BLIPMODE
 70
     0
  9
$CHAMFERA
 40
0.0
  9
$CHAMFERB
 40
0.0
  9
$SKPOLY
 70
     0
  9
$TDCREATE
 40
2458060.468368056230247
  9
$TDUPDATE
 40
2460789.6488310191780329
  9
$TDINDWG
 40
0.5603311343
  9
$TDUSRTIMER
 40
0.5603311343
  9
$USRTIMER
 70
     1
  9
$ANGBASE
 50
0.0
  9
$ANGDIR
 70
     0
  9
$PDMODE
 70
     0
  9
$PDSIZE
 40
0.3125
  9
$PLINEWID
 40
0.0
  9
$COORDS
 70
     1
  9
$SPLFRAME
 70
     0
  9
$SPLINETYPE
 70
     6
  9
$SPLINESEGS
 70
     8
  9
$ATTDIA
 70
     1
  9
$ATTREQ
 70
     1
  9
$HANDLING
 70
     1
  9
$HANDSEED
  5
33C05
  9
$SURFTAB1
 70
     6
  9
$SURFTAB2
 70
     6
  9
$SURFTYPE
 70
     6
  9
$SURFU
 70
     6
  9
$SURFV
 70
     6
  9
$UCSNAME
  2

  9
$UCSORG
 10
0.0
 20
0.0
 30
0.0
  9
$UCSXDIR
 10
1.0
 20
0.0
 30
0.0
  9
$UCSYDIR
 10
0.0
 20
1.0
 30
0.0
  9
$PUCSNAME
  2

  9
$PUCSORG
 10
0.0
 20
0.0
 30
0.0
  9
$PUCSXDIR
 10
1.0
 20
0.0
 30
0.0
  9
$PUCSYDIR
 10
0.0
 20
1.0
 30
0.0
  9
$USERI1
 70
     0
  9
$USERI2
 70
     0
  9
$USERI3
 70
     0
  9
$USERI4
 70
     0
  9
$USERI5
 70
     0
  9
$USERR1
 40
0.0
  9
$USERR2
 40
0.0
  9
$USERR3
 40
0.0
  9
$USERR4
 40
0.0
  9
$USERR5
 40
0.0
  9
$WORLDVIEW
 70
     1
  9
$SHADEDGE
 70
     3
  9
$SHADEDIF
 70
    70
  9
$TILEMODE
 70
     1
  9
$MAXACTVP
 70
    64
  9
$PLIMCHECK
 70
     0
  9
$PEXTMIN
 10
1.0000000000000000E+20
 20
1.0000000000000000E+20
 30
1.0000000000000000E+20
  9
$PEXTMAX
 10
-1.0000000000000000E+20
 20
-1.0000000000000000E+20
 30
-1.0000000000000000E+20
  9
$PLIMMIN
 10
0.0
 20
0.0
  9
$PLIMMAX
 10
12.0
 20
9.0
  9
$UNITMODE
 70
     0
  9
$VISRETAIN
 70
     1
  9
$PLINEGEN
 70
     0
  9
$PSLTSCALE
 70
     1
  0
ENDSEC
  0
SECTION
  2
TABLES
  0
TABLE
  2
VPORT
 70
     1
  0
VPORT
  2
*ACTIVE
 70
     0
 10
0.0
 20
0.0
 11
1.0
 21
1.0
 12
-643.3727407007129386
 22
-40.7678150950982214
 13
0.0
 23
0.0
 14
1.0
 24
1.0
 15
0.0
 25
0.0
 16
0.0
 26
0.0
 36
17.1152628219792007
 17
3803.5440673828129547
 27
125.9952621967499056
 37
0.0
 40
4.2734865335081622
 41
2.2288732394366191
 42
50.0
 43
0.0
 44
0.0
 50
0.0
 51
0.0
 71
     0
 72
   100
 73
     1
 74
     1
 75
     0
 76
     0
 77
     0
 78
     0
  0
ENDTAB
  0
TABLE
  2
LTYPE
 70
     2
  0
LTYPE
  2
CONTINUOUS
 70
     0
  3
Solid line
 72
    65
 73
     0
 40
0.0
  0
LTYPE
  2
PHANTOM2
 70
     0
  3
___ _ _ ___ _ _ ___ _ _ ___ _ _
 72
    65
 73
     6
 40
1.25
 49
0.625
 49
-0.125
 49
0.125
 49
-0.125
 49
0.125
 49
-0.125
  0
ENDTAB
  0
TABLE
  2
LAYER
 70
     2
  0
LAYER
  2
0
 70
     0
 62
   255
  6
CONTINUOUS
  0
LAYER
  2
DEFPOINTS
 70
     0
 62
     7
  6
CONTINUOUS
  0
ENDTAB
  0
TABLE
  2
STYLE
 70
     1
  0
STYLE
  2
STANDARD
 70
     0
 40
0.0
 41
0.8
 50
0.0
 71
     0
 42
0.2
  3
txt
  4

  0
ENDTAB
  0
TABLE
  2
VIEW
 70
     3
  0
ENDTAB
  0
TABLE
  2
UCS
 70
     0
  0
ENDTAB
  0
TABLE
  2
APPID
 70
    10
  0
APPID
  2
ACAD
 70
     0
  0
APPID
  2
ACAD_MLEADERVER
 70
     0
  0
APPID
  2
ACAD_EXEMPT_FROM_CAD_STANDARDS
 70
     0
  0
APPID
  2
ACAD_NAV_VCDISPLAY
 70
     0
  0
APPID
  2
ACAECLAYERSTANDARD
 70
     0
  0
APPID
  2
ACCMTRANSPARENCY
 70
     0
  0
APPID
  2
ACAD_DSTYLE_DIMJAG
 70
     0
  0
APPID
  2
ACAD_DSTYLE_DIMTALN
 70
     0
  0
APPID
  2
ACDBATTR
 70
     0
  0
APPID
  2
DCO15
 70
     0
  0
ENDTAB
  0
TABLE
  2
DIMSTYLE
 70
     1
  0
DIMSTYLE
  2
STANDARD
 70
     0
  3

  4

  5

  6

  7

 40
1.0
 41
0.1875
 42
0.0625
 43
0.38
 44
0.125
 45
0.0
 46
0.0
 47
0.01
 48
0.01
140
0.15625
141
0.09
142
0.0
143
25.3999999999999986
144
1.0
145
0.0
146
1.0
147
0.09
 71
     1
 72
     0
 73
     1
 74
     1
 75
     0
 76
     0
 77
     0
 78
     4
170
     0
171
     2
172
     0
173
     0
174
     0
175
     0
176
     0
177
     0
178
     0
  0
ENDTAB
  0
ENDSEC
  0
SECTION
  2
BLOCKS
  0
BLOCK
  8
0
  2
$MODEL_SPACE
 70
     0
 10
0.0
 20
0.0
 30
0.0
  3
$MODEL_SPACE
  1

  0
ENDBLK
  5
21
  8
0
  0
BLOCK
 67
     1
  8
0
  2
$PAPER_SPACE
 70
     0
 10
0.0
 20
0.0
 30
0.0
  3
$PAPER_SPACE
  1

  0
ENDBLK
  5
1D
 67
     1
  8
0
  0
BLOCK
  8
0
  2
_FILLED
 70
     0
 10
0.0
 20
0.0
 30
0.0
  3
_FILLED
  1

  0
SOLID
  5
328F2
  8
0
  6
BYBLOCK
 62
     0
 10
0.0
 20
0.0
 30
0.0
 11
-1.0
 21
0.1666666667
 31
0.0
 12
-1.0
 22
-0.1666666667
 32
0.0
 13
-1.0
 23
-0.1666666667
 33
0.0
  0
ENDBLK
  5
328F3
  8
0
  6
BYBLOCK
 62
     0
  0
ENDSEC
  0
SECTION
  2
ENTITIES
  0
ATTDEF
  5
3279F
  8
DEFPOINTS
 10
3161.0873564838498169
 20
83.1089620338893269
 30
0.0
 40
0.001
  1
P23180-VS
  3

  2
MODELNUMBER
 70
     0
1001
ACDBATTR
1070
     0
1070
     1
  0
ATTDEF
  5
327A0
  8
DEFPOINTS
 10
3161.0873564838498169
 20
83.1072953672226618
 30
0.0
 40
0.001
  1
JUXTAPOSE
  3

  2
TRADENAME
 70
     0
1001
ACDBATTR
1070
     0
1070
     1
  0
ATTDEF
  5
327A1
  8
DEFPOINTS
 10
3161.0873564838498169
 20
83.1056287005559966
 30
0.0
 40
0.001
  1
SOAP DISPENSER
  3

  2
PRODUCT
 70
     0
1001
ACDBATTR
1070
     0
1070
     1
  0
LINE
  5
33AAC
  8
0
 10
3160.4729253583091122
 20
83.827536298447427
 30
0.0
 11
3160.4729253583091122
 21
86.510536298447434
 31
0.0
  0
LINE
  5
33AAD
  8
0
 10
3160.4729253583091122
 20
86.6105362984474141
 30
0.0
 11
3160.4729253583091122
 21
86.7759058644556944
 31
0.0
  0
LINE
  5
33AAE
  8
0
 10
3160.4729253583091122
 20
87.1551843630460468
 30
0.0
 11
3160.4729253583091122
 21
87.320536298447422
 31
0.0
  0
LINE
  5
33AAF
  8
0
 10
3160.0152481929299029
 20
83.2480620547474359
 30
0.0
 11
3160.0152481929299029
 21
83.1106150386474241
 31
0.0
  0
LINE
  5
33AB0
  8
0
 10
3160.492925358309094
 20
87.3405362984474181
 30
0.0
 11
3161.702925358335051
 21
87.3405362984474181
 31
0.0
  0
LINE
  5
33AB1
  8
0
 10
3160.492925358309094
 20
86.5905362984474323
 30
0.0
 11
3161.702925358335051
 21
86.5905362984474323
 31
0.0
  0
LINE
  5
33AB2
  8
0
 10
3160.492925358309094
 20
86.53053629844743
 30
0.0
 11
3161.702925358335051
 21
86.53053629844743
 31
0.0
  0
LINE
  5
33AB3
  8
0
 10
3160.4829253583079662
 20
83.8175362984474361
 30
0.0
 11
3161.7129253583348145
 21
83.8175362984474361
 31
0.0
  0
LINE
  5
33AB4
  8
0
 10
3160.5132207741330603
 20
83.5226150386474444
 30
0.0
 11
3161.6826299425110847
 21
83.5226150386474444
 31
0.0
  0
LINE
  5
33AB5
  8
0
 10
3160.0352481929298847
 20
83.2680620547474462
 30
0.0
 11
3162.1606025237138056
 21
83.2680620547474462
 31
0.0
  0
LINE
  5
33AB6
  8
0
 10
3160.0152481929299029
 20
83.1106150386474241
 30
0.0
 11
3162.1806025237137874
 21
83.1106150386474241
 31
0.0
  0
ARC
  5
33AB7
  8
0
 10
3160.0352481929298847
 20
83.2480620547474359
 30
0.0
 40
0.02
 50
90.0
 51
180.0000000000040075
  0
ARC
  5
33AB8
  8
0
 10
3160.0193334503810547
 20
84.4234394261447108
 30
0.0
 40
1.155486974988154
 50
270.7891706544505155
 51
282.3790124552878069
  0
ARC
  5
33AB9
  8
0
 10
3160.1655038148692256
 20
83.7546919991394532
 30
0.0
 40
0.4709520704534321
 50
282.4510845411185755
 51
300.7575214086913888
  0
ARC
  5
33ABA
  8
0
 10
3160.3030266627079072
 20
83.523605916643973
 30
0.0
 40
0.2020407259535171
 50
300.7575214086913888
 51
333.4700694195680057
  0
ARC
  5
33ABB
  8
0
 10
3160.3252162167441384
 20
83.5125281363335432
 30
0.0
 40
0.1772396468449881
 50
333.4700694195680057
 51
348.7417832107204276
  0
ARC
  5
33ABC
  8
0
 10
3160.2761683421581438
 20
83.5222916776546356
 30
0.0
 40
0.2272498532093245
 50
348.741783210719575
 51
357.6624457143558971
  0
ARC
  5
33ABD
  8
0
 10
3160.5132207741330603
 20
83.5126150386474393
 30
0.0
 40
0.01
 50
89.9999999999739515
 51
177.6624457144152984
  0
LINE
  5
33ABE
  8
0
 10
3160.6004253583209902
 20
83.8175362984474361
 30
0.0
 11
3160.6004253583209902
 21
83.5521150386474147
 31
0.0
  0
ARC
  5
33ABF
  8
0
 10
3160.570925358320892
 20
83.5521150386474147
 30
0.0
 40
0.0295
 50
270.0
 51
0.0000000000016284
  0
ARC
  5
33AC0
  8
0
 10
3160.4829253583079662
 20
83.827536298447427
 30
0.0
 40
0.01
 50
180.0000000000129887
 51
270.0
  0
LINE
  5
33AC1
  8
0
 10
3160.5779253583209538
 20
86.5905362984474323
 30
0.0
 11
3160.5779253583209538
 21
86.53053629844743
 31
0.0
  0
ARC
  5
33AC2
  8
0
 10
3160.492925358309094
 20
86.6105362984474141
 30
0.0
 40
0.02
 50
180.0000000000023874
 51
270.0
  0
ARC
  5
33AC3
  8
0
 10
3160.492925358309094
 20
86.5105362984474198
 30
0.0
 40
0.02
 50
90.0
 51
179.9999999999926104
  0
ARC
  5
33AC4
  8
0
 10
3160.492925358309094
 20
87.320536298447422
 30
0.0
 40
0.02
 50
90.0
 51
179.9999999999974989
  0
LINE
  5
33AC5
  8
0
 10
3161.7229253583350328
 20
83.827536298447427
 30
0.0
 11
3161.7229253583350328
 21
86.510536298447434
 31
0.0
  0
LINE
  5
33AC6
  8
0
 10
3161.7229253583350328
 20
86.6105362984474141
 30
0.0
 11
3161.7229253583350328
 21
87.320536298447422
 31
0.0
  0
LINE
  5
33AC7
  8
0
 10
3162.1806025237137874
 20
83.2480620547474359
 30
0.0
 11
3162.1806025237137874
 21
83.1106150386474241
 31
0.0
  0
ARC
  5
33AC8
  8
0
 10
3162.1606025237138056
 20
83.2480620547474359
 30
0.0
 40
0.02
 50
359.9999999999959073
 51
90.0
  0
ARC
  5
33AC9
  8
0
 10
3162.1765172662630903
 20
84.4234394261447108
 30
0.0
 40
1.155486974988154
 50
257.6209875447121931
 51
269.2108293455494845
  0
ARC
  5
33ACA
  8
0
 10
3162.0303469017740099
 20
83.7546919991394532
 30
0.0
 40
0.4709520704534321
 50
239.2424785913086112
 51
257.5489154588813108
  0
ARC
  5
33ACB
  8
0
 10
3161.892824053935783
 20
83.523605916643973
 30
0.0
 40
0.2020407259535171
 50
206.5299305804319943
 51
239.2424785913086112
  0
ARC
  5
33ACC
  8
0
 10
3161.8706344998990971
 20
83.5125281363335432
 30
0.0
 40
0.1772396468449881
 50
191.2582167892796008
 51
206.5299305804319943
  0
ARC
  5
33ACD
  8
0
 10
3161.9196823744860012
 20
83.5222916776546356
 30
0.0
 40
0.2272498532093245
 50
182.3375542856441029
 51
191.2582167892796008
  0
ARC
  5
33ACE
  8
0
 10
3161.6826299425110847
 20
83.5126150386474393
 30
0.0
 40
0.01
 50
2.33755428558469
 51
90.0000000000260485
  0
LINE
  5
33ACF
  8
0
 10
3161.5954253583217906
 20
83.8175362984474361
 30
0.0
 11
3161.5954253583217906
 21
83.5521150386474147
 31
0.0
  0
ARC
  5
33AD0
  8
0
 10
3161.6249253583218888
 20
83.5521150386474147
 30
0.0
 40
0.0295
 50
179.9999999999984084
 51
270.0
  0
ARC
  5
33AD1
  8
0
 10
3161.7129253583348145
 20
83.827536298447427
 30
0.0
 40
0.01
 50
270.0
 51
359.9999999999869829
  0
LINE
  5
33AD2
  8
0
 10
3161.6179253583218269
 20
86.5905362984474323
 30
0.0
 11
3161.6179253583218269
 21
86.53053629844743
 31
0.0
  0
ARC
  5
33AD3
  8
0
 10
3161.702925358335051
 20
86.6105362984474141
 30
0.0
 40
0.02
 50
270.0
 51
359.9999999999976126
  0
ARC
  5
33AD4
  8
0
 10
3161.702925358335051
 20
86.5105362984474198
 30
0.0
 40
0.02
 50
0.000000000007328
 51
90.0
  0
ARC
  5
33AD5
  8
0
 10
3161.702925358335051
 20
87.320536298447422
 30
0.0
 40
0.02
 50
0.0000000000024427
 51
90.0
  0
ARC
  5
33AD6
  8
0
 10
3159.8728240583750448
 20
86.9655451137508635
 30
0.0
 40
0.6293525363857067
 50
342.4628354653497126
 51
17.537164534648749
  0
LINE
  5
33AD7
  8
0
 10
3158.2076930533489758
 20
86.9755022258587189
 30
0.0
 11
3158.2997890462088435
 21
86.9674448705278138
 31
0.0
  0
LINE
  5
33AD8
  8
0
 10
3158.4238050798671793
 20
86.9565948734879584
 30
0.0
 11
3160.4733585557028164
 21
86.7772821790737652
 31
0.0
  0
LINE
  5
33AD9
  8
0
 10
3158.2403764568211955
 20
87.3490752376520589
 30
0.0
 11
3160.4733886626750063
 21
87.1537119841502914
 31
0.0
  0
LINE
  5
33ADA
  8
0
 10
3158.1622411055800512
 20
87.0296697478903525
 30
0.0
 11
3158.1862089347778237
 21
87.3036232898698614
 31
0.0
  0
ARC
  5
33ADB
  8
0
 10
3158.212050840485972
 20
87.0253119607633465
 30
0.0
 40
0.05
 50
175.0000000119464119
 51
265.0000000003141167
  0
ARC
  5
33ADC
  8
0
 10
3158.2360186696841993
 20
87.2992655027474314
 30
0.0
 40
0.05
 50
85.0000000006540546
 51
175.0000000119472077
  0
ARC
  5
33ADD
  8
0
 10
3158.3464932652718744
 20
86.7870966630932088
 30
0.0
 40
0.186297504017402
 50
65.4812411253901274
 51
104.5187588752359034
  0
ENDSEC
  0
EOF
