  0
SECTION
  2
HEADER
  9
$ACADVER
  1
AC1009
  9
$INSBASE
 10
3157.1335297177010943
 20
195.4021100204477932
 30
0.0
  9
$EXTMIN
 10
3142.5028059429960194
 20
189.1980596032373114
 30
0.0
  9
$EXTMAX
 10
3166.0319012773388749
 20
203.7155790127150112
 30
0.0
  9
$LIMMIN
 10
0.0
 20
0.0
  9
$LIMMAX
 10
11.6929133858000007
 20
8.2677165353999982
  9
$ORTHOMODE
 70
     0
  9
$REGENMODE
 70
     1
  9
$FILLMODE
 70
     1
  9
$QTEXTMODE
 70
     0
  9
$MIRRTEXT
 70
     0
  9
$DRAGMODE
 70
     2
  9
$LTSCALE
 40
0.6431102362
  9
$OSMODE
 70
  4095
  9
$ATTMODE
 70
     1
  9
$TEXTSIZE
 40
0.2
  9
$TRACEWID
 40
0.05
  9
$TEXTSTYLE
  7
STANDARD
  9
$CLAYER
  8
0
  9
$CELTYPE
  6
BYLAYER
  9
$CECOLOR
 62
   256
  9
$DIMSCALE
 40
1.0
  9
$DIMASZ
 40
0.1875
  9
$DIMEXO
 40
0.0625
  9
$DIMDLI
 40
0.4443307087
  9
$DIMRND
 40
0.0
  9
$DIMDLE
 40
0.0
  9
$DIMEXE
 40
0.125
  9
$DIMTP
 40
0.01
  9
$DIMTM
 40
0.01
  9
$DIMTXT
 40
2.0
  9
$DIMCEN
 40
0.1052362205
  9
$DIMTSZ
 40
0.0
  9
$DIMTOL
 70
     1
  9
$DIMLIM
 70
     0
  9
$DIMTIH
 70
     1
  9
$DIMTOH
 70
     1
  9
$DIMSE1
 70
     0
  9
$DIMSE2
 70
     0
  9
$DIMTAD
 70
     0
  9
$DIMZIN
 70
     0
  9
$DIMBLK
  1

  9
$DIMASO
 70
     1
  9
$DIMSHO
 70
     1
  9
$DIMPOST
  1
\X
  9
$DIMAPOST
  1

  9
$DIMALT
 70
     1
  9
$DIMALTD
 70
     2
  9
$DIMALTF
 40
25.3999999999999986
  9
$DIMLFAC
 40
1.0
  9
$DIMTOFL
 70
     0
  9
$DIMTVP
 40
0.0
  9
$DIMTIX
 70
     0
  9
$DIMSOXD
 70
     0
  9
$DIMSAH
 70
     0
  9
$DIMBLK1
  1

  9
$DIMBLK2
  1

  9
$DIMSTYLE
  2
STANDARD
  9
$DIMCLRD
 70
     0
  9
$DIMCLRE
 70
     0
  9
$DIMCLRT
 70
     0
  9
$DIMTFAC
 40
1.0
  9
$DIMGAP
 40
0.09
  9
$LUNITS
 70
     2
  9
$LUPREC
 70
     4
  9
$SKETCHINC
 40
0.1
  9
$FILLETRAD
 40
0.0
  9
$AUNITS
 70
     0
  9
$AUPREC
 70
     0
  9
$MENU
  1
.
  9
$ELEVATION
 40
0.0
  9
$PELEVATION
 40
0.0
  9
$THICKNESS
 40
0.0
  9
$LIMCHECK
 70
     0
  9
$BLIPMODE
 70
     0
  9
$CHAMFERA
 40
0.0
  9
$CHAMFERB
 40
0.0
  9
$SKPOLY
 70
     0
  9
$TDCREATE
 40
2458060.468368056230247
  9
$TDUPDATE
 40
2459485.4914930551312864
  9
$TDINDWG
 40
0.4007362269
  9
$TDUSRTIMER
 40
0.4007362269
  9
$USRTIMER
 70
     1
  9
$ANGBASE
 50
0.0
  9
$ANGDIR
 70
     0
  9
$PDMODE
 70
     0
  9
$PDSIZE
 40
0.3125
  9
$PLINEWID
 40
0.0
  9
$COORDS
 70
     1
  9
$SPLFRAME
 70
     0
  9
$SPLINETYPE
 70
     6
  9
$SPLINESEGS
 70
     8
  9
$ATTDIA
 70
     1
  9
$ATTREQ
 70
     1
  9
$HANDLING
 70
     1
  9
$HANDSEED
  5
8401
  9
$SURFTAB1
 70
     6
  9
$SURFTAB2
 70
     6
  9
$SURFTYPE
 70
     6
  9
$SURFU
 70
     6
  9
$SURFV
 70
     6
  9
$UCSNAME
  2

  9
$UCSORG
 10
0.0
 20
0.0
 30
0.0
  9
$UCSXDIR
 10
1.0
 20
0.0
 30
0.0
  9
$UCSYDIR
 10
0.0
 20
1.0
 30
0.0
  9
$PUCSNAME
  2

  9
$PUCSORG
 10
0.0
 20
0.0
 30
0.0
  9
$PUCSXDIR
 10
1.0
 20
0.0
 30
0.0
  9
$PUCSYDIR
 10
0.0
 20
1.0
 30
0.0
  9
$USERI1
 70
     0
  9
$USERI2
 70
     0
  9
$USERI3
 70
     0
  9
$USERI4
 70
     0
  9
$USERI5
 70
     0
  9
$USERR1
 40
0.0
  9
$USERR2
 40
0.0
  9
$USERR3
 40
0.0
  9
$USERR4
 40
0.0
  9
$USERR5
 40
0.0
  9
$WORLDVIEW
 70
     1
  9
$SHADEDGE
 70
     3
  9
$SHADEDIF
 70
    70
  9
$TILEMODE
 70
     1
  9
$MAXACTVP
 70
    64
  9
$PLIMCHECK
 70
     0
  9
$PEXTMIN
 10
1.0000000000000000E+20
 20
1.0000000000000000E+20
 30
1.0000000000000000E+20
  9
$PEXTMAX
 10
-1.0000000000000000E+20
 20
-1.0000000000000000E+20
 30
-1.0000000000000000E+20
  9
$PLIMMIN
 10
0.0
 20
0.0
  9
$PLIMMAX
 10
12.0
 20
9.0
  9
$UNITMODE
 70
     0
  9
$VISRETAIN
 70
     1
  9
$PLINEGEN
 70
     0
  9
$PSLTSCALE
 70
     1
  0
ENDSEC
  0
SECTION
  2
TABLES
  0
TABLE
  2
VPORT
 70
     1
  0
VPORT
  2
*ACTIVE
 70
     0
 10
0.0
 20
0.0
 11
1.0
 21
1.0
 12
77.5139291360772233
 22
-0.736919383637119
 13
0.0
 23
0.0
 14
1.0
 24
1.0
 15
0.0
 25
0.0
 16
0.0
 26
0.0
 36
95.5902297660485658
 17
3089.811279296875
 27
197.161570589386713
 37
0.0
 40
32.0672444297340533
 41
2.0416666666666661
 42
50.0
 43
0.0
 44
0.0
 50
0.0
 51
0.0
 71
     0
 72
   100
 73
     1
 74
     1
 75
     0
 76
     0
 77
     0
 78
     0
  0
ENDTAB
  0
TABLE
  2
LTYPE
 70
     2
  0
LTYPE
  2
CONTINUOUS
 70
     0
  3
Solid line
 72
    65
 73
     0
 40
0.0
  0
LTYPE
  2
PHANTOM2
 70
     0
  3
___ _ _ ___ _ _ ___ _ _ ___ _ _
 72
    65
 73
     6
 40
1.25
 49
0.625
 49
-0.125
 49
0.125
 49
-0.125
 49
0.125
 49
-0.125
  0
ENDTAB
  0
TABLE
  2
LAYER
 70
     2
  0
LAYER
  2
0
 70
     0
 62
   255
  6
CONTINUOUS
  0
LAYER
  2
DEFPOINTS
 70
     0
 62
     7
  6
CONTINUOUS
  0
ENDTAB
  0
TABLE
  2
STYLE
 70
     1
  0
STYLE
  2
STANDARD
 70
     0
 40
0.0
 41
0.8
 50
0.0
 71
     0
 42
0.2
  3
txt
  4

  0
ENDTAB
  0
TABLE
  2
VIEW
 70
     0
  0
ENDTAB
  0
TABLE
  2
UCS
 70
     0
  0
ENDTAB
  0
TABLE
  2
APPID
 70
     9
  0
APPID
  2
ACAD
 70
     0
  0
APPID
  2
ACAD_MLEADERVER
 70
     0
  0
APPID
  2
ACAD_EXEMPT_FROM_CAD_STANDARDS
 70
     0
  0
APPID
  2
ACAD_NAV_VCDISPLAY
 70
     0
  0
APPID
  2
ACAECLAYERSTANDARD
 70
     0
  0
APPID
  2
ACCMTRANSPARENCY
 70
     0
  0
APPID
  2
ACAD_DSTYLE_DIMJAG
 70
     0
  0
APPID
  2
ACAD_DSTYLE_DIMTALN
 70
     0
  0
APPID
  2
ACDBATTR
 70
     0
  0
ENDTAB
  0
TABLE
  2
DIMSTYLE
 70
     1
  0
DIMSTYLE
  2
STANDARD
 70
     0
  3

  4

  5

  6

  7

 40
1.0
 41
0.1875
 42
0.0625
 43
0.38
 44
0.125
 45
0.0
 46
0.0
 47
0.01
 48
0.01
140
0.15625
141
0.09
142
0.0
143
25.3999999999999986
144
1.0
145
0.0
146
1.0
147
0.09
 71
     1
 72
     0
 73
     1
 74
     1
 75
     0
 76
     0
 77
     0
 78
     4
170
     0
171
     2
172
     0
173
     0
174
     0
175
     0
176
     0
177
     0
178
     0
  0
ENDTAB
  0
ENDSEC
  0
SECTION
  2
BLOCKS
  0
BLOCK
  8
0
  2
$MODEL_SPACE
 70
     0
 10
0.0
 20
0.0
 30
0.0
  3
$MODEL_SPACE
  1

  0
ENDBLK
  5
21
  8
0
  0
BLOCK
 67
     1
  8
0
  2
$PAPER_SPACE
 70
     0
 10
0.0
 20
0.0
 30
0.0
  3
$PAPER_SPACE
  1

  0
ENDBLK
  5
1D
 67
     1
  8
0
  0
BLOCK
  8
0
  2
_FILLED
 70
     0
 10
0.0
 20
0.0
 30
0.0
  3
_FILLED
  1

  0
SOLID
  5
7E7B
  8
0
  6
BYBLOCK
 62
     0
 10
0.0
 20
0.0
 30
0.0
 11
-1.0
 21
0.1666666667
 31
0.0
 12
-1.0
 22
-0.1666666667
 32
0.0
 13
-1.0
 23
-0.1666666667
 33
0.0
  0
ENDBLK
  5
7E7C
  8
0
  6
BYBLOCK
 62
     0
  0
ENDSEC
  0
SECTION
  2
ENTITIES
  0
ATTDEF
  5
3930
  8
DEFPOINTS
 10
3157.1347277215468239
 20
195.406024932958104
 30
0.0
 40
0.001
  1
P23325-LV
  3

  2
MODELNUMBER
 70
     0
1001
ACDBATTR
1070
     0
1070
     1
  0
ATTDEF
  5
3931
  8
DEFPOINTS
 10
3157.1347277215468239
 20
195.4043582662914105
 30
0.0
 40
0.001
  1
ONE NAZARE
  3

  2
TRADENAME
 70
     0
1001
ACDBATTR
1070
     0
1070
     1
  0
ATTDEF
  5
3932
  8
DEFPOINTS
 10
3157.1347277215468239
 20
195.4026915996246885
 30
0.0
 40
0.001
  1
BATHROOM SINK FAUCET
  3

  2
PRODUCT
 70
     0
1001
ACDBATTR
1070
     0
1070
     1
  0
LINE
  5
823D
  8
0
 10
3158.2485297180010093
 20
195.8021100204477989
 30
0.0
 11
3156.0185297174011794
 21
195.8021100204477989
 31
0.0
  0
LINE
  5
823E
  8
0
 10
3156.0085297177010943
 20
195.792110020447808
 30
0.0
 11
3156.0085297177010943
 21
195.4021100204477932
 31
0.0
  0
LINE
  5
823F
  8
0
 10
3156.0085297177010943
 20
195.4021100204477932
 30
0.0
 11
3158.2585297177010943
 21
195.4021100204477932
 31
0.0
  0
LINE
  5
8240
  8
0
 10
3158.2585297177010943
 20
195.4021100204477932
 30
0.0
 11
3158.2585297177010943
 21
195.792110020447808
 31
0.0
  0
ARC
  5
8241
  8
0
 10
3158.2485297177008761
 20
195.792110020447808
 30
0.0
 40
0.01
 50
0.0
 51
89.9999982811187351
  0
ARC
  5
8242
  8
0
 10
3156.0185297176999484
 20
195.792110020447808
 30
0.0
 40
0.01
 50
90.0000017188812649
 51
180.0
  0
LINE
  5
8243
  8
0
 10
3156.6935297177010398
 20
195.8021149488477874
 30
0.0
 11
3156.6935297177010398
 21
200.5721149488479114
 31
0.0
  0
LINE
  5
8244
  8
0
 10
3157.5735297176997847
 20
200.5721149488479114
 30
0.0
 11
3157.5735297176997847
 21
195.8021149488477874
 31
0.0
  0
LINE
  5
8245
  8
0
 10
3152.7210319493010502
 20
201.0121149488479091
 30
0.0
 11
3156.2535297177009852
 21
201.0121149488479091
 31
0.0
  0
LINE
  5
8246
  8
0
 10
3156.2535297177009852
 20
201.8921149488479045
 30
0.0
 11
3152.7210319493010502
 21
201.8921149488479045
 31
0.0
  0
LINE
  5
8247
  8
0
 10
3151.4028409634038326
 20
200.6411984111159086
 30
0.0
 11
3151.383656081900881
 21
200.2751290649478051
 31
0.0
  0
LINE
  5
8248
  8
0
 10
3152.2816349540012197
 20
200.595142769547806
 30
0.0
 11
3152.2624500725019061
 21
200.2290734234875913
 31
0.0
  0
LINE
  5
8249
  8
0
 10
3152.2519402584011914
 20
200.2196104960478067
 30
0.0
 11
3151.3931191769011093
 21
200.2646194016477921
 31
0.0
  0
ARC
  5
824A
  8
0
 10
3151.3936423773438946
 20
200.2746057054384892
 30
0.0
 40
0.010000000092783
 50
177.000000332367506
 51
267.0009129318960959
  0
ARC
  5
824B
  8
0
 10
3152.2524637771998641
 20
200.2295967830478958
 30
0.0
 40
0.0100000000000062
 50
266.9990868480364838
 51
356.9999997707569719
  0
ARC
  5
824C
  8
0
 10
3152.7210319493051429
 20
200.5721149488377932
 30
0.0
 40
0.4400000000100531
 50
90.0000000005210836
 51
176.9999999975800051
  0
ARC
  5
824D
  8
0
 10
3152.7210319493169663
 20
200.5721149488080925
 30
0.0
 40
1.3200000000396901
 50
90.0000000006774314
 51
176.9999999971753084
  0
ARC
  5
824E
  8
0
 10
3156.2535297177009852
 20
200.5721149488479114
 30
0.0
 40
1.319999999999999
 50
0.0
 51
90.0
  0
ARC
  5
824F
  8
0
 10
3156.2535297177009852
 20
200.5721149488477977
 30
0.0
 40
0.4400000000000049
 50
0.0
 51
90.0
  0
ARC
  5
8250
  8
0
 10
3156.8617459454039818
 20
197.8940331384156082
 30
0.0
 40
0.0301227564886541
 50
90.1734049534874771
 51
171.4563225104753883
  0
ARC
  5
8251
  8
0
 10
3158.2189129329508432
 20
197.6994012638201923
 30
0.0
 40
1.4011741769446371
 50
171.8306109005121129
 51
180.728898923028197
  0
LINE
  5
8252
  8
0
 10
3156.8666414544009058
 20
196.9061100204478123
 30
0.0
 11
3157.3992681640997944
 21
196.9061100204478123
 31
0.0
  0
LINE
  5
8253
  8
0
 10
3156.8535297177008943
 20
195.8021100204477989
 30
0.0
 11
3156.8535297177008943
 21
196.8911100204477975
 31
0.0
  0
LINE
  5
8254
  8
0
 10
3157.4135297177008397
 20
195.8021100204477989
 30
0.0
 11
3157.4135297177008397
 21
196.8911100204477975
 31
0.0
  0
ARC
  5
8255
  8
0
 10
3157.3985288482222131
 20
196.8911091509689868
 30
0.0
 40
0.0150008695040487
 50
0.0033209720578389
 51
89.9966790279389102
  0
ARC
  5
8256
  8
0
 10
3157.3984351520912242
 20
196.9230658325539878
 30
0.0
 40
0.0169762620499822
 50
272.812588912097624
 51
353.4063952632819223
  0
ARC
  5
8257
  8
0
 10
3156.8667136986559854
 20
196.9211844937921114
 30
0.0
 40
0.0150746464582404
 50
180.2833991669660918
 51
269.7254126806762997
  0
ARC
  5
8258
  8
0
 10
3156.8685297177012217
 20
196.8911100204477975
 30
0.0
 40
0.0150000000000041
 50
90.0000000000260485
 51
179.9999999999870113
  0
ARC
  5
8259
  8
0
 10
3151.111834143690885
 20
196.9604856614732
 30
0.0
 40
5.7399401523647366
 50
359.6069504562674979
 51
1.5908505428700499
  0
ARC
  5
825A
  8
0
 10
3152.5646636614937961
 20
196.9366855398936025
 30
0.0
 40
4.2888107578222998
 50
2.4475438545666921
 51
5.0040225779396881
  0
ARC
  5
825B
  8
0
 10
3373.0468060658349714
 20
215.1871884194603979
 30
0.0
 40
216.9474380839542107
 50
184.6855796708323112
 51
184.7265152031635012
  0
ARC
  5
825C
  8
0
 10
3158.3957773509127946
 20
197.6038421198066999
 30
0.0
 40
1.5774654914750941
 50
180.5475056079482101
 51
185.0400811622043875
  0
ARC
  5
825D
  8
0
 10
3153.8332646313178884
 20
197.6180707767564115
 30
0.0
 40
2.985263063370752
 50
359.4375949538166992
 51
1.218948303883626
  0
LINE
  5
825E
  8
0
 10
3156.8616547794008511
 20
197.9241557569478118
 30
0.0
 11
3157.405283628496818
 21
197.9241557569478118
 31
0.0
  0
ARC
  5
825F
  8
0
 10
3157.1319707414859295
 20
197.509699252490492
 30
0.0
 40
0.2994136468844266
 50
209.3222053932595941
 51
235.0362212376103912
  0
ARC
  5
8260
  8
0
 10
3157.136869618072069
 20
197.4351001965939929
 30
0.0
 40
0.2404221674297535
 50
242.3486478825323047
 51
269.2587973408142261
  0
ARC
  5
8261
  8
0
 10
3157.186870790273133
 20
197.5417289383269974
 30
0.0
 40
0.3581153573614189
 50
230.7706407335473955
 51
243.1798234591670962
  0
ARC
  5
8262
  8
0
 10
3157.1978282224499708
 20
197.5366987898933075
 30
0.0
 40
0.3701581838915377
 50
194.6410135242990123
 51
207.9736658642362954
  0
ARC
  5
8263
  8
0
 10
3157.4692849879861569
 20
197.6015598158593036
 30
0.0
 40
0.6492211787908861
 50
188.6393401032273118
 51
194.1239258952352031
  0
ARC
  5
8264
  8
0
 10
3157.9762594135149811
 20
197.6540552240554973
 30
0.0
 40
1.1585826797409751
 50
184.090163052379495
 51
187.4397622151128076
  0
ARC
  5
8265
  8
0
 10
3153.0393996731249899
 20
197.4245941509659019
 30
0.0
 40
3.7840774051409691
 50
2.2236582735430628
 51
2.9307618426995079
  0
ARC
  5
8266
  8
0
 10
3157.1349676664121944
 20
197.509699252490492
 30
0.0
 40
0.2994136468844266
 50
304.9637787623896088
 51
330.6777946067404059
  0
ARC
  5
8267
  8
0
 10
3157.1300155518160864
 20
197.4352375712282139
 30
0.0
 40
0.2405685600379455
 50
270.8917256257395252
 51
297.6473993304447276
  0
ARC
  5
8268
  8
0
 10
3157.0800676176259003
 20
197.5417289383269974
 30
0.0
 40
0.3581153573614189
 50
296.8201765408330175
 51
309.2293592664526045
  0
ARC
  5
8269
  8
0
 10
3157.0691101854490626
 20
197.5366987898933075
 30
0.0
 40
0.3701581838915377
 50
332.0263341357637046
 51
345.3589864757009877
  0
ARC
  5
826A
  8
0
 10
3156.7976534199128764
 20
197.6015598158593036
 30
0.0
 40
0.6492211787908861
 50
345.8760741047648253
 51
351.3606598967726882
  0
ARC
  5
826B
  8
0
 10
3156.2906789943831427
 20
197.6540552240554973
 30
0.0
 40
1.1585826797409751
 50
352.5602377848870788
 51
355.9098369476204766
  0
ARC
  5
826C
  8
0
 10
3161.2275387347731339
 20
197.4245941509659019
 30
0.0
 40
3.7840774051409691
 50
177.0692381573005036
 51
177.7763417264569057
  0
ARC
  5
826D
  8
0
 10
3157.4051924624950516
 20
197.8940331384156082
 30
0.0
 40
0.0301227564886538
 50
8.5436774895245904
 51
89.8265950465125371
  0
ARC
  5
826E
  8
0
 10
3156.0480254749481901
 20
197.6994012638201923
 30
0.0
 40
1.4011741769446371
 50
359.2711010769717177
 51
8.1693890994879101
  0
ARC
  5
826F
  8
0
 10
3163.1551042642067841
 20
196.9604856614732
 30
0.0
 40
5.7399401523647366
 50
178.4091494571298995
 51
180.3930495437325021
  0
ARC
  5
8270
  8
0
 10
3161.702274746403873
 20
196.9366855398936025
 30
0.0
 40
4.2888107578222998
 50
174.9959774220602924
 51
177.5524561454332968
  0
ARC
  5
8271
  8
0
 10
2941.2201323420631525
 20
215.1871884194603979
 30
0.0
 40
216.9474380839542107
 50
355.2734847968366125
 51
355.3144203291676035
  0
ARC
  5
8272
  8
0
 10
3155.8711610569857839
 20
197.6038421198066999
 30
0.0
 40
1.5774654914750941
 50
354.9599188377956125
 51
359.4524943920517899
  0
ARC
  5
8273
  8
0
 10
3160.4336737765797807
 20
197.6180707767564115
 30
0.0
 40
2.985263063370752
 50
178.7810516961162932
 51
180.5624050461833008
  0
ENDSEC
  0
EOF
