  0
SECTION
  2
HEADER
  9
$ACADVER
  1
AC1009
  9
$INSBASE
 10
4699.5780733161964235
 20
483.1729596170291074
 30
0.0
  9
$EXTMIN
 10
4696.1225073332534521
 20
480.047959615321588
 30
0.0
  9
$EXTMAX
 10
4699.5894181023732017
 20
486.2979596170291074
 30
0.0
  9
$LIMMIN
 10
0.0
 20
0.0
  9
$LIMMAX
 10
11.6929133858000007
 20
8.2677165353999982
  9
$ORTHOMODE
 70
     0
  9
$REGENMODE
 70
     1
  9
$FILLMODE
 70
     1
  9
$QTEXTMODE
 70
     0
  9
$MIRRTEXT
 70
     0
  9
$DRAGMODE
 70
     2
  9
$LTSCALE
 40
0.6431102362
  9
$OSMODE
 70
  4095
  9
$ATTMODE
 70
     1
  9
$TEXTSIZE
 40
0.2
  9
$TRACEWID
 40
0.05
  9
$TEXTSTYLE
  7
STANDARD
  9
$CLAYER
  8
0
  9
$CELTYPE
  6
BYLAYER
  9
$CECOLOR
 62
   256
  9
$DIMSCALE
 40
1.0
  9
$DIMASZ
 40
0.1875
  9
$DIMEXO
 40
0.0625
  9
$DIMDLI
 40
0.4443307087
  9
$DIMRND
 40
0.0
  9
$DIMDLE
 40
0.0
  9
$DIMEXE
 40
0.125
  9
$DIMTP
 40
0.01
  9
$DIMTM
 40
0.01
  9
$DIMTXT
 40
2.0
  9
$DIMCEN
 40
0.1052362205
  9
$DIMTSZ
 40
0.0
  9
$DIMTOL
 70
     1
  9
$DIMLIM
 70
     0
  9
$DIMTIH
 70
     1
  9
$DIMTOH
 70
     1
  9
$DIMSE1
 70
     0
  9
$DIMSE2
 70
     0
  9
$DIMTAD
 70
     0
  9
$DIMZIN
 70
     0
  9
$DIMBLK
  1

  9
$DIMASO
 70
     1
  9
$DIMSHO
 70
     1
  9
$DIMPOST
  1
\X
  9
$DIMAPOST
  1

  9
$DIMALT
 70
     1
  9
$DIMALTD
 70
     2
  9
$DIMALTF
 40
25.3999999999999986
  9
$DIMLFAC
 40
1.0
  9
$DIMTOFL
 70
     0
  9
$DIMTVP
 40
0.0
  9
$DIMTIX
 70
     0
  9
$DIMSOXD
 70
     0
  9
$DIMSAH
 70
     0
  9
$DIMBLK1
  1

  9
$DIMBLK2
  1

  9
$DIMSTYLE
  2
STANDARD
  9
$DIMCLRD
 70
     0
  9
$DIMCLRE
 70
     0
  9
$DIMCLRT
 70
     0
  9
$DIMTFAC
 40
1.0
  9
$DIMGAP
 40
0.09
  9
$LUNITS
 70
     2
  9
$LUPREC
 70
     4
  9
$SKETCHINC
 40
0.1
  9
$FILLETRAD
 40
0.0
  9
$AUNITS
 70
     0
  9
$AUPREC
 70
     0
  9
$MENU
  1
.
  9
$ELEVATION
 40
0.0
  9
$PELEVATION
 40
0.0
  9
$THICKNESS
 40
0.0
  9
$LIMCHECK
 70
     0
  9
$BLIPMODE
 70
     0
  9
$CHAMFERA
 40
0.0
  9
$CHAMFERB
 40
0.0
  9
$SKPOLY
 70
     0
  9
$TDCREATE
 40
2458060.468368056230247
  9
$TDUPDATE
 40
2459691.6320370370522141
  9
$TDINDWG
 40
1.5228706019
  9
$TDUSRTIMER
 40
1.5228706019
  9
$USRTIMER
 70
     1
  9
$ANGBASE
 50
0.0
  9
$ANGDIR
 70
     0
  9
$PDMODE
 70
     0
  9
$PDSIZE
 40
0.3125
  9
$PLINEWID
 40
0.0
  9
$COORDS
 70
     1
  9
$SPLFRAME
 70
     0
  9
$SPLINETYPE
 70
     6
  9
$SPLINESEGS
 70
     8
  9
$ATTDIA
 70
     1
  9
$ATTREQ
 70
     1
  9
$HANDLING
 70
     1
  9
$HANDSEED
  5
1FD89
  9
$SURFTAB1
 70
     6
  9
$SURFTAB2
 70
     6
  9
$SURFTYPE
 70
     6
  9
$SURFU
 70
     6
  9
$SURFV
 70
     6
  9
$UCSNAME
  2

  9
$UCSORG
 10
0.0
 20
0.0
 30
0.0
  9
$UCSXDIR
 10
1.0
 20
0.0
 30
0.0
  9
$UCSYDIR
 10
0.0
 20
1.0
 30
0.0
  9
$PUCSNAME
  2

  9
$PUCSORG
 10
0.0
 20
0.0
 30
0.0
  9
$PUCSXDIR
 10
1.0
 20
0.0
 30
0.0
  9
$PUCSYDIR
 10
0.0
 20
1.0
 30
0.0
  9
$USERI1
 70
     0
  9
$USERI2
 70
     0
  9
$USERI3
 70
     0
  9
$USERI4
 70
     0
  9
$USERI5
 70
     0
  9
$USERR1
 40
0.0
  9
$USERR2
 40
0.0
  9
$USERR3
 40
0.0
  9
$USERR4
 40
0.0
  9
$USERR5
 40
0.0
  9
$WORLDVIEW
 70
     1
  9
$SHADEDGE
 70
     3
  9
$SHADEDIF
 70
    70
  9
$TILEMODE
 70
     1
  9
$MAXACTVP
 70
    64
  9
$PLIMCHECK
 70
     0
  9
$PEXTMIN
 10
1.0000000000000000E+20
 20
1.0000000000000000E+20
 30
1.0000000000000000E+20
  9
$PEXTMAX
 10
-1.0000000000000000E+20
 20
-1.0000000000000000E+20
 30
-1.0000000000000000E+20
  9
$PLIMMIN
 10
0.0
 20
0.0
  9
$PLIMMAX
 10
12.0
 20
9.0
  9
$UNITMODE
 70
     0
  9
$VISRETAIN
 70
     1
  9
$PLINEGEN
 70
     0
  9
$PSLTSCALE
 70
     1
  0
ENDSEC
  0
SECTION
  2
TABLES
  0
TABLE
  2
VPORT
 70
     1
  0
VPORT
  2
*ACTIVE
 70
     0
 10
0.0
 20
0.0
 11
1.0
 21
1.0
 12
786.4906062725008269
 22
350.5933545136364273
 13
0.0
 23
0.0
 14
1.0
 24
1.0
 15
0.0
 25
0.0
 16
0.0
 26
0.0
 36
60.4960186965801583
 17
3911.3653564453120453
 27
132.5796051025390057
 37
0.0
 40
6.2995376503339449
 41
1.67063492063492
 42
50.0
 43
0.0
 44
0.0
 50
0.0
 51
0.0
 71
     0
 72
   100
 73
     1
 74
     1
 75
     0
 76
     0
 77
     0
 78
     0
  0
ENDTAB
  0
TABLE
  2
LTYPE
 70
     2
  0
LTYPE
  2
CONTINUOUS
 70
     0
  3
Solid line
 72
    65
 73
     0
 40
0.0
  0
LTYPE
  2
PHANTOM2
 70
     0
  3
___ _ _ ___ _ _ ___ _ _ ___ _ _
 72
    65
 73
     6
 40
1.25
 49
0.625
 49
-0.125
 49
0.125
 49
-0.125
 49
0.125
 49
-0.125
  0
ENDTAB
  0
TABLE
  2
LAYER
 70
     2
  0
LAYER
  2
0
 70
     0
 62
   255
  6
CONTINUOUS
  0
LAYER
  2
DEFPOINTS
 70
     0
 62
     7
  6
CONTINUOUS
  0
ENDTAB
  0
TABLE
  2
STYLE
 70
     1
  0
STYLE
  2
STANDARD
 70
     0
 40
0.0
 41
0.8
 50
0.0
 71
     0
 42
0.2
  3
txt
  4

  0
ENDTAB
  0
TABLE
  2
VIEW
 70
     0
  0
ENDTAB
  0
TABLE
  2
UCS
 70
     0
  0
ENDTAB
  0
TABLE
  2
APPID
 70
    11
  0
APPID
  2
ACAD
 70
     0
  0
APPID
  2
ACAD_MLEADERVER
 70
     0
  0
APPID
  2
ACAD_EXEMPT_FROM_CAD_STANDARDS
 70
     0
  0
APPID
  2
ACAD_NAV_VCDISPLAY
 70
     0
  0
APPID
  2
ACAECLAYERSTANDARD
 70
     0
  0
APPID
  2
ACCMTRANSPARENCY
 70
     0
  0
APPID
  2
ACAD_DSTYLE_DIMJAG
 70
     0
  0
APPID
  2
ACAD_DSTYLE_DIMTALN
 70
     0
  0
APPID
  2
ACDBATTR
 70
     0
  0
APPID
  2
ACADANNOTATIVE
 70
     0
  0
APPID
  2
DCO15
 70
     0
  0
ENDTAB
  0
TABLE
  2
DIMSTYLE
 70
     1
  0
DIMSTYLE
  2
STANDARD
 70
     0
  3

  4

  5

  6

  7

 40
1.0
 41
0.1875
 42
0.0625
 43
0.38
 44
0.125
 45
0.0
 46
0.0
 47
0.01
 48
0.01
140
0.15625
141
0.09
142
0.0
143
25.3999999999999986
144
1.0
145
0.0
146
1.0
147
0.09
 71
     1
 72
     0
 73
     1
 74
     1
 75
     0
 76
     0
 77
     0
 78
     4
170
     0
171
     2
172
     0
173
     0
174
     0
175
     0
176
     0
177
     0
178
     0
  0
ENDTAB
  0
ENDSEC
  0
SECTION
  2
BLOCKS
  0
BLOCK
  8
0
  2
$MODEL_SPACE
 70
     0
 10
0.0
 20
0.0
 30
0.0
  3
$MODEL_SPACE
  1

  0
ENDBLK
  5
21
  8
0
  0
BLOCK
 67
     1
  8
0
  2
$PAPER_SPACE
 70
     0
 10
0.0
 20
0.0
 30
0.0
  3
$PAPER_SPACE
  1

  0
ENDBLK
  5
1D
 67
     1
  8
0
  0
ENDSEC
  0
SECTION
  2
ENTITIES
  0
ATTDEF
  5
159BF
  8
DEFPOINTS
 10
4699.5787514357043619
 20
483.1736575789731205
 30
0.0
 40
0.001
  1
P23333-LV
  3

  2
MODELNUMBER
 70
     0
1001
ACDBATTR
1070
     0
1070
     1
  0
ATTDEF
  5
159C0
  8
DEFPOINTS
 10
4699.5787514357043619
 20
483.1719907385938768
 30
0.0
 40
0.001
  1
ONE NAZARE
  3

  2
TRADENAME
 70
     0
1001
ACDBATTR
1070
     0
1070
     1
  0
ATTDEF
  5
159C1
  8
DEFPOINTS
 10
4699.5787514357043619
 20
483.1703242456397902
 30
0.0
 40
0.001
  1
VALVE TRIM
  3

  2
PRODUCT
 70
     0
1001
ACDBATTR
1070
     0
1070
     1
  0
ARC
  5
1FC86
  8
0
 10
4697.2077652491343542
 20
483.5077942115207748
 30
0.0
 40
0.0203187158899793
 50
1.8550660871809821
 51
85.0288382371105484
  0
ARC
  5
1FC87
  8
0
 10
4697.2095138580616549
 20
482.8384107151125022
 30
0.0
 40
0.0185911600285133
 50
270.1809673225552046
 51
356.9610485694075805
  0
LINE
  5
1FC88
  8
0
 10
4697.209525953740922
 20
483.528036497328003
 30
0.0
 11
4696.1604303047670328
 21
483.528036497328003
 31
0.0
  0
ARC
  5
1FC89
  8
0
 10
4696.1613306148619813
 20
483.4892228004645176
 30
0.0
 40
0.0388241371119429
 50
91.3287762944266461
 51
179.6077208481694072
  0
LINE
  5
1FC8A
  8
0
 10
4696.1225073876967144
 20
483.4894886102802047
 30
0.0
 11
4696.1225073876967144
 21
482.603138909191216
 31
0.0
  0
ARC
  5
1FC8B
  8
0
 10
4696.14172463891191
 20
482.6038523580261881
 30
0.0
 40
0.019230490204336
 50
182.1261543437213106
 51
269.3527027980366029
  0
LINE
  5
1FC8C
  8
0
 10
4696.1415073876969473
 20
482.5846230950290874
 30
0.0
 11
4696.9021778085952974
 21
482.5846230950290874
 31
0.0
  0
ARC
  5
1FC8D
  8
0
 10
4696.9017209639159773
 20
482.6041962242250065
 30
0.0
 40
0.0195784599389647
 50
271.337063693285927
 51
351.857060851860922
  0
ARC
  5
1FC8E
  8
0
 10
4697.2070071945681775
 20
482.5888586669854021
 30
0.0
 40
0.2861811097367447
 50
148.227235323906001
 51
177.4836958666620035
  0
ARC
  5
1FC8F
  8
0
 10
4697.1012550299255963
 20
482.6604599314983943
 30
0.0
 40
0.1586596896618327
 50
87.539515423270899
 51
150.100838348150404
  0
LINE
  5
1FC90
  8
0
 10
4697.1080663473958339
 20
482.8189733475800836
 30
0.0
 11
4697.2095725776907784
 21
482.8198196478163027
 31
0.0
  0
CIRCLE
  5
1FC91
  8
0
 10
4696.401906007996331
 20
482.7765007472801813
 30
0.0
 40
0.0584999999999996
  0
LINE
  5
1FC92
  8
0
 10
4696.8986011847973714
 20
482.5441404895801156
 30
0.0
 11
4696.1415083270967443
 21
482.5441404895801156
 31
0.0
  0
ARC
  5
1FC93
  8
0
 10
4696.1415145449818738
 20
482.5251332788686796
 30
0.0
 40
0.0190072117284596
 50
90.018743338836984
 51
180.0359566104357896
  0
LINE
  5
1FC94
  8
0
 10
4696.1225073369969323
 20
482.5251213506801946
 30
0.0
 11
4696.1225073627965685
 21
480.330681275480174
 31
0.0
  0
ARC
  5
1FC95
  8
0
 10
4696.160570978211581
 20
480.3307587736410937
 30
0.0
 40
0.0380636943084046
 50
180.1166550092956129
 51
264.6165332589475838
  0
ARC
  5
1FC96
  8
0
 10
4696.336926175094959
 20
482.2364050549016952
 30
0.0
 40
1.9518527901878471
 50
264.7108315762973234
 51
269.7334184827982995
  0
ARC
  5
1FC97
  8
0
 10
4696.3206085294241348
 20
482.0729093597117867
 30
0.0
 40
1.7883506084749661
 50
270.2318378494206854
 51
284.1252457034863141
  0
ARC
  5
1FC98
  8
0
 10
4696.6955795390613275
 20
480.5228470047658789
 30
0.0
 40
0.1941994023682979
 50
288.4508113175634207
 51
354.8435308359112241
  0
ARC
  5
1FC99
  8
0
 10
4692.2431312033613722
 20
480.9323016643236883
 30
0.0
 40
4.6654349002181403
 50
354.7498314712391903
 51
2.1685905794384719
  0
ARC
  5
1FC9A
  8
0
 10
4750.4057974361003289
 20
481.362136790162026
 30
0.0
 40
53.5011722697549317
 50
178.7553811289830037
 51
180.271261160629507
  0
ARC
  5
1FC9B
  8
0
 10
4696.8977778419457536
 20
482.5246829759904017
 30
0.0
 40
0.0194749256364578
 50
358.6823894971411164
 51
87.5769799920901875
  0
LINE
  5
1FC9C
  8
0
 10
4696.8806013433968474
 20
482.5846230950290874
 30
0.0
 11
4696.8806013433968474
 21
482.5441404895801156
 31
0.0
  0
LINE
  5
1FC9D
  8
0
 10
4696.1625073876957686
 20
482.5846230950290874
 30
0.0
 11
4696.1625073876957686
 21
482.5441404895801156
 31
0.0
  0
LINE
  5
1FC9E
  8
0
 10
4697.7130733161957323
 20
483.528036497328003
 30
0.0
 11
4697.238073316196278
 21
483.528036497328003
 31
0.0
  0
LINE
  5
1FC9F
  8
0
 10
4697.2280733161969692
 20
482.8274475327801269
 30
0.0
 11
4697.2280733161969692
 21
483.5174475327801815
 31
0.0
  0
LINE
  5
1FCA0
  8
0
 10
4699.5780733161964235
 20
480.0479596170291074
 30
0.0
 11
4699.5780733161964235
 21
486.2979596170291074
 31
0.0
  0
LINE
  5
1FCA1
  8
0
 10
4699.5780733161964235
 20
486.2979596170291074
 30
0.0
 11
4698.5880733161966418
 21
486.2979596170291074
 31
0.0
  0
ARC
  5
1FCA2
  8
0
 10
4698.5881175450585943
 20
486.2279153997341723
 30
0.0
 40
0.0700442312589163
 50
90.0361789587866355
 51
179.9850141854246033
  0
LINE
  5
1FCA3
  8
0
 10
4698.5180733161960234
 20
486.2279337199291263
 30
0.0
 11
4698.5180733161960234
 21
480.1179337199291126
 31
0.0
  0
ARC
  5
1FCA4
  8
0
 10
4698.5080288201315852
 20
484.1629150934517725
 30
0.0
 40
0.0100446221330226
 50
0.2870618743912102
 51
89.7461880620621457
  0
LINE
  5
1FCA5
  8
0
 10
4698.5080733161967146
 20
484.1729596170291074
 30
0.0
 11
4698.488073316196278
 21
484.1729596170291074
 31
0.0
  0
ARC
  5
1FCA6
  8
0
 10
4698.4881175617829285
 20
484.1429154023211936
 30
0.0
 40
0.0300442472877393
 50
90.084378427900802
 51
179.9807252739066996
  0
LINE
  5
1FCA7
  8
0
 10
4698.4580733161974422
 20
484.1429255094291193
 30
0.0
 11
4698.4580733161974422
 21
482.2029337199290921
 31
0.0
  0
LINE
  5
1FCA8
  8
0
 10
4698.4580733161974422
 20
483.9599596170290852
 30
0.0
 11
4697.738073316196278
 21
483.9599596170290852
 31
0.0
  0
ARC
  5
1FCA9
  8
0
 10
4697.7390040835925902
 20
483.9490617180870231
 30
0.0
 40
0.010937574196223
 50
94.8816692476575554
 51
177.9785120296197931
  0
LINE
  5
1FCAA
  8
0
 10
4697.7280733161969692
 20
483.9494475333780201
 30
0.0
 11
4697.7280733161969692
 21
482.3954475327801106
 31
0.0
  0
ARC
  5
1FCAB
  8
0
 10
4697.7130635700086714
 20
483.5430586770274886
 30
0.0
 40
0.0150221828610598
 50
270.0371727243650071
 51
357.668404607511377
  0
ARC
  5
1FCAC
  8
0
 10
4697.23915332782326
 20
483.5170001773120134
 30
0.0
 40
0.0110890389399946
 50
95.5891549867374835
 51
177.6879384272567961
  0
LINE
  5
1FCAD
  8
0
 10
4697.7130733161957323
 20
482.8174475327800792
 30
0.0
 11
4697.238073316196278
 21
482.8174475327800792
 31
0.0
  0
ARC
  5
1FCAE
  8
0
 10
4698.5080732802789498
 20
482.1829338068346829
 30
0.0
 40
0.0100000869056946
 50
270.0002057882657027
 51
359.8170331675671036
  0
LINE
  5
1FCAF
  8
0
 10
4698.5080733161967146
 20
482.1729337199291194
 30
0.0
 11
4698.488073316196278
 21
482.1729337199291194
 31
0.0
  0
ARC
  5
1FCB0
  8
0
 10
4698.4880733154013797
 20
482.2029337191345917
 30
0.0
 40
0.0299999992054954
 50
179.999998482599608
 51
270.0000015173972088
  0
LINE
  5
1FCB1
  8
0
 10
4698.4580733161974422
 20
482.3854475327801197
 30
0.0
 11
4697.9700733186027719
 21
482.3854475327801197
 31
0.0
  0
LINE
  5
1FCB2
  8
0
 10
4697.7760733137884017
 20
482.3854475327801197
 30
0.0
 11
4697.738073316196278
 21
482.3854475327801197
 31
0.0
  0
ARC
  5
1FCB3
  8
0
 10
4697.738073316196278
 20
482.3954475327801106
 30
0.0
 40
0.0099999999999998
 50
180.000003425698992
 51
270.0
  0
ARC
  5
1FCB4
  8
0
 10
4697.7130733161957323
 20
482.8024475327802065
 30
0.0
 40
0.0150000000000043
 50
0.0
 51
90.0
  0
ARC
  5
1FCB5
  8
0
 10
4697.238073316196278
 20
482.8274475327801269
 30
0.0
 40
0.0100000000000016
 50
180.0000002928071865
 51
270.0
  0
LINE
  5
1FCB6
  8
0
 10
4699.5780733161964235
 20
480.0479596170291074
 30
0.0
 11
4698.58804456188318
 21
480.0479596170291074
 31
0.0
  0
ARC
  5
1FCB7
  8
0
 10
4698.5880291059047522
 20
480.117915407426608
 30
0.0
 40
0.0699557921048891
 50
179.9850015404360022
 51
270.012658886374993
  0
LINE
  5
1FCB8
  8
0
 10
4698.1210733161960889
 20
481.1729596170291074
 30
0.0
 11
4697.7780729072956092
 21
481.1729596170291074
 31
0.0
  0
ARC
  5
1FCB9
  8
0
 10
4697.7780729072956092
 20
481.1629596170290029
 30
0.0
 40
0.0100000000000098
 50
90.0
 51
180.0000807869926973
  0
LINE
  5
1FCBA
  8
0
 10
4697.7680729072972099
 20
481.1629596029291065
 30
0.0
 11
4697.7680737250966558
 21
480.5829596310770739
 31
0.0
  0
ARC
  5
1FCBB
  8
0
 10
4697.7780737532802959
 20
480.582959645177084
 30
0.0
 40
0.0100000281837957
 50
180.0000807869926973
 51
269.9951528870889774
  0
LINE
  5
1FCBC
  8
0
 10
4697.7780733161962416
 20
480.5729807665489943
 30
0.0
 11
4698.1210733161960889
 21
480.5729517494078209
 31
0.0
  0
ARC
  5
1FCBE
  8
0
 10
4697.8730733161974058
 20
481.604448088741492
 30
0.0
 40
0.7870000838980979
 50
82.9201288175954545
 51
97.0798711824045455
  0
LINE
  5
1FCBF
  8
0
 10
4698.1460733161966346
 20
481.2474475330790824
 30
0.0
 11
4698.5180733161960234
 21
481.2474475330790824
 31
0.0
  0
LINE
  5
1FCC0
  8
0
 10
4698.1460733161966346
 20
480.4974475330790824
 30
0.0
 11
4698.5180733161960234
 21
480.4974475330790824
 31
0.0
  0
LINE
  5
1FCC1
  8
0
 10
4698.1210733161960889
 20
481.2224475330792188
 30
0.0
 11
4698.1210733161969983
 21
480.5224475330791165
 31
0.0
  0
ARC
  5
1FCC2
  8
0
 10
4698.1460733161966346
 20
481.2224475330792188
 30
0.0
 40
0.025
 50
90.0
 51
180.0
  0
ARC
  5
1FCC3
  8
0
 10
4698.1460733161966346
 20
480.5224475330791165
 30
0.0
 40
0.025
 50
180.0000000000065086
 51
270.0
  0
ENDSEC
  0
EOF
