  0
SECTION
  2
HEADER
  9
$ACADVER
  1
AC1009
  9
$INSBASE
 10
3063.593088844922022
 20
133.9520150824999973
 30
0.0
  9
$EXTMIN
 10
3056.8402828854568725
 20
130.8394130198433061
 30
-0.0015258207003583
  9
$EXTMAX
 10
3070.4287351179727921
 20
135.0799302396216888
 30
0.0000000349246037
  9
$LIMMIN
 10
0.0
 20
0.0
  9
$LIMMAX
 10
11.6929133858000007
 20
8.2677165353999982
  9
$ORTHOMODE
 70
     0
  9
$REGENMODE
 70
     1
  9
$FILLMODE
 70
     1
  9
$QTEXTMODE
 70
     0
  9
$MIRRTEXT
 70
     0
  9
$DRAGMODE
 70
     2
  9
$LTSCALE
 40
0.6431102362
  9
$OSMODE
 70
   575
  9
$ATTMODE
 70
     1
  9
$TEXTSIZE
 40
0.2
  9
$TRACEWID
 40
0.05
  9
$TEXTSTYLE
  7
STANDARD
  9
$CLAYER
  8
0
  9
$CELTYPE
  6
BYLAYER
  9
$CECOLOR
 62
   256
  9
$DIMSCALE
 40
1.0
  9
$DIMASZ
 40
0.1875
  9
$DIMEXO
 40
0.0625
  9
$DIMDLI
 40
0.4443307087
  9
$DIMRND
 40
0.0
  9
$DIMDLE
 40
0.0
  9
$DIMEXE
 40
0.125
  9
$DIMTP
 40
0.01
  9
$DIMTM
 40
0.01
  9
$DIMTXT
 40
2.0
  9
$DIMCEN
 40
0.1052362205
  9
$DIMTSZ
 40
0.0
  9
$DIMTOL
 70
     1
  9
$DIMLIM
 70
     0
  9
$DIMTIH
 70
     1
  9
$DIMTOH
 70
     1
  9
$DIMSE1
 70
     0
  9
$DIMSE2
 70
     0
  9
$DIMTAD
 70
     0
  9
$DIMZIN
 70
     0
  9
$DIMBLK
  1

  9
$DIMASO
 70
     1
  9
$DIMSHO
 70
     1
  9
$DIMPOST
  1
\X
  9
$DIMAPOST
  1

  9
$DIMALT
 70
     1
  9
$DIMALTD
 70
     2
  9
$DIMALTF
 40
25.3999999999999986
  9
$DIMLFAC
 40
1.0
  9
$DIMTOFL
 70
     0
  9
$DIMTVP
 40
0.0
  9
$DIMTIX
 70
     0
  9
$DIMSOXD
 70
     0
  9
$DIMSAH
 70
     0
  9
$DIMBLK1
  1

  9
$DIMBLK2
  1

  9
$DIMSTYLE
  2
STANDARD
  9
$DIMCLRD
 70
     0
  9
$DIMCLRE
 70
     0
  9
$DIMCLRT
 70
     0
  9
$DIMTFAC
 40
1.0
  9
$DIMGAP
 40
0.09
  9
$LUNITS
 70
     2
  9
$LUPREC
 70
     4
  9
$SKETCHINC
 40
0.1
  9
$FILLETRAD
 40
0.0
  9
$AUNITS
 70
     0
  9
$AUPREC
 70
     0
  9
$MENU
  1
.
  9
$ELEVATION
 40
0.0
  9
$PELEVATION
 40
0.0
  9
$THICKNESS
 40
0.0
  9
$LIMCHECK
 70
     0
  9
$BLIPMODE
 70
     0
  9
$CHAMFERA
 40
0.0
  9
$CHAMFERB
 40
0.0
  9
$SKPOLY
 70
     0
  9
$TDCREATE
 40
2458060.468368056230247
  9
$TDUPDATE
 40
2459522.7248379630036652
  9
$TDINDWG
 40
0.6658751157
  9
$TDUSRTIMER
 40
0.6658751157
  9
$USRTIMER
 70
     1
  9
$ANGBASE
 50
0.0
  9
$ANGDIR
 70
     0
  9
$PDMODE
 70
     0
  9
$PDSIZE
 40
0.3125
  9
$PLINEWID
 40
0.0
  9
$COORDS
 70
     1
  9
$SPLFRAME
 70
     0
  9
$SPLINETYPE
 70
     6
  9
$SPLINESEGS
 70
     8
  9
$ATTDIA
 70
     1
  9
$ATTREQ
 70
     1
  9
$HANDLING
 70
     1
  9
$HANDSEED
  5
2D3AB
  9
$SURFTAB1
 70
     6
  9
$SURFTAB2
 70
     6
  9
$SURFTYPE
 70
     6
  9
$SURFU
 70
     6
  9
$SURFV
 70
     6
  9
$UCSNAME
  2

  9
$UCSORG
 10
0.0
 20
0.0
 30
0.0
  9
$UCSXDIR
 10
1.0
 20
0.0
 30
0.0
  9
$UCSYDIR
 10
0.0
 20
1.0
 30
0.0
  9
$PUCSNAME
  2

  9
$PUCSORG
 10
0.0
 20
0.0
 30
0.0
  9
$PUCSXDIR
 10
1.0
 20
0.0
 30
0.0
  9
$PUCSYDIR
 10
0.0
 20
1.0
 30
0.0
  9
$USERI1
 70
     0
  9
$USERI2
 70
     0
  9
$USERI3
 70
     0
  9
$USERI4
 70
     0
  9
$USERI5
 70
     0
  9
$USERR1
 40
0.0
  9
$USERR2
 40
0.0
  9
$USERR3
 40
0.0
  9
$USERR4
 40
0.0
  9
$USERR5
 40
0.0
  9
$WORLDVIEW
 70
     1
  9
$SHADEDGE
 70
     3
  9
$SHADEDIF
 70
    70
  9
$TILEMODE
 70
     1
  9
$MAXACTVP
 70
    64
  9
$PLIMCHECK
 70
     0
  9
$PEXTMIN
 10
1.0000000000000000E+20
 20
1.0000000000000000E+20
 30
1.0000000000000000E+20
  9
$PEXTMAX
 10
-1.0000000000000000E+20
 20
-1.0000000000000000E+20
 30
-1.0000000000000000E+20
  9
$PLIMMIN
 10
0.0
 20
0.0
  9
$PLIMMAX
 10
12.0
 20
9.0
  9
$UNITMODE
 70
     0
  9
$VISRETAIN
 70
     1
  9
$PLINEGEN
 70
     0
  9
$PSLTSCALE
 70
     1
  0
ENDSEC
  0
SECTION
  2
TABLES
  0
TABLE
  2
VPORT
 70
     1
  0
VPORT
  2
*ACTIVE
 70
     0
 10
0.0
 20
0.0
 11
1.0
 21
1.0
 12
-240.0586062390437974
 22
-62.3018399205928475
 13
0.0
 23
0.0
 14
1.0
 24
1.0
 15
0.0
 25
0.0
 16
0.0
 26
0.0
 36
96.5995694866707311
 17
3303.693115234375
 27
195.2615115758877096
 37
0.0
 40
6.7918801575790724
 41
2.5105348460291732
 42
50.0
 43
0.0
 44
0.0
 50
0.0
 51
0.0
 71
     0
 72
   100
 73
     1
 74
     1
 75
     0
 76
     0
 77
     0
 78
     0
  0
ENDTAB
  0
TABLE
  2
LTYPE
 70
     2
  0
LTYPE
  2
CONTINUOUS
 70
     0
  3
Solid line
 72
    65
 73
     0
 40
0.0
  0
LTYPE
  2
PHANTOM2
 70
     0
  3
___ _ _ ___ _ _ ___ _ _ ___ _ _
 72
    65
 73
     6
 40
1.25
 49
0.625
 49
-0.125
 49
0.125
 49
-0.125
 49
0.125
 49
-0.125
  0
ENDTAB
  0
TABLE
  2
LAYER
 70
     2
  0
LAYER
  2
0
 70
     0
 62
   255
  6
CONTINUOUS
  0
LAYER
  2
DEFPOINTS
 70
     0
 62
     7
  6
CONTINUOUS
  0
ENDTAB
  0
TABLE
  2
STYLE
 70
     1
  0
STYLE
  2
STANDARD
 70
     0
 40
0.0
 41
0.8
 50
0.0
 71
     0
 42
0.2
  3
txt
  4

  0
ENDTAB
  0
TABLE
  2
VIEW
 70
     0
  0
ENDTAB
  0
TABLE
  2
UCS
 70
     0
  0
ENDTAB
  0
TABLE
  2
APPID
 70
     9
  0
APPID
  2
ACAD
 70
     0
  0
APPID
  2
ACAD_MLEADERVER
 70
     0
  0
APPID
  2
ACAD_EXEMPT_FROM_CAD_STANDARDS
 70
     0
  0
APPID
  2
ACAD_NAV_VCDISPLAY
 70
     0
  0
APPID
  2
ACAECLAYERSTANDARD
 70
     0
  0
APPID
  2
ACCMTRANSPARENCY
 70
     0
  0
APPID
  2
ACAD_DSTYLE_DIMJAG
 70
     0
  0
APPID
  2
ACAD_DSTYLE_DIMTALN
 70
     0
  0
APPID
  2
ACDBATTR
 70
     0
  0
ENDTAB
  0
TABLE
  2
DIMSTYLE
 70
     1
  0
DIMSTYLE
  2
STANDARD
 70
     0
  3

  4

  5

  6

  7

 40
1.0
 41
0.1875
 42
0.0625
 43
0.38
 44
0.125
 45
0.0
 46
0.0
 47
0.01
 48
0.01
140
0.15625
141
0.09
142
0.0
143
25.3999999999999986
144
1.0
145
0.0
146
1.0
147
0.09
 71
     1
 72
     0
 73
     1
 74
     1
 75
     0
 76
     0
 77
     0
 78
     4
170
     0
171
     2
172
     0
173
     0
174
     0
175
     0
176
     0
177
     0
178
     0
  0
ENDTAB
  0
ENDSEC
  0
SECTION
  2
BLOCKS
  0
BLOCK
  8
0
  2
$MODEL_SPACE
 70
     0
 10
0.0
 20
0.0
 30
0.0
  3
$MODEL_SPACE
  1

  0
ENDBLK
  5
21
  8
0
  0
BLOCK
 67
     1
  8
0
  2
$PAPER_SPACE
 70
     0
 10
0.0
 20
0.0
 30
0.0
  3
$PAPER_SPACE
  1

  0
ENDBLK
  5
1D
 67
     1
  8
0
  0
ENDSEC
  0
SECTION
  2
ENTITIES
  0
ATTDEF
  5
28FC7
  8
DEFPOINTS
 10
3063.5931449606191563
 20
133.9509560932224872
 30
0.0
 40
0.001
  1
P23347-LV
  3

  2
MODELNUMBER
 70
     0
1001
ACDBATTR
1070
     0
1070
     1
  0
ATTDEF
  5
28FC8
  8
DEFPOINTS
 10
3063.5931449606191563
 20
133.9492894265557936
 30
0.0
 40
0.001
  1
ONE NAZARE
  3

  2
TRADENAME
 70
     0
1001
ACDBATTR
1070
     0
1070
     1
  0
ATTDEF
  5
28FC9
  8
DEFPOINTS
 10
3063.5931449606191563
 20
133.9476227598891001
 30
0.0
 40
0.001
  1
BATHROOM SINK FAUCET
  3

  2
PRODUCT
 70
     0
1001
ACDBATTR
1070
     0
1070
     1
  0
LINE
  5
2D1FD
  8
0
 10
3059.0508583804207774
 20
133.6525504469881866
 30
0.0
 11
3059.0508583804207774
 21
134.251446999150005
 31
0.0
  0
LINE
  5
2D1FE
  8
0
 10
3059.0821083804207774
 20
133.6522797902327113
 30
0.0
 11
3059.0821083805208218
 21
134.2517176583500031
 31
0.0
  0
LINE
  5
2D1FF
  8
0
 10
3063.3892831415209912
 20
130.8795291345500118
 30
0.0
 11
3063.4174709614221683
 21
130.8819858648500087
 31
0.0
  0
LINE
  5
2D200
  8
0
 10
3063.3184760120220744
 20
130.8906138432500086
 30
0.0
 11
3063.2902881921208973
 21
130.8881571128499957
 31
0.0
  0
LINE
  5
2D201
  8
0
 10
3063.1870888449220729
 20
133.9520150828500107
 30
0.0
 11
3063.1870888449220729
 21
130.8909770298500064
 31
0.0
  0
LINE
  5
2D202
  8
0
 10
3063.3892831415209912
 20
130.9088638893686891
 30
0.0
 11
3063.3892831415209912
 21
130.8795291345500118
 31
0.0
  0
LINE
  5
2D203
  8
0
 10
3063.5230888449209488
 20
130.8746986026499997
 30
0.0
 11
3063.5230888449209488
 21
130.9133672878500079
 31
0.0
  0
LINE
  5
2D204
  8
0
 10
3063.3184760120220744
 20
130.8906138432500086
 30
0.0
 11
3063.3184853125590053
 21
130.9037724618063976
 31
0.0
  0
LINE
  5
2D205
  8
0
 10
3063.4174709614221683
 20
130.8819858648500087
 30
0.0
 11
3063.4174909651978851
 21
130.9102878077021046
 31
0.0
  0
LINE
  5
2D206
  8
0
 10
3063.999088844921971
 20
133.9520150828500107
 30
0.0
 11
3063.999088844921971
 21
130.8909770298500064
 31
0.0
  0
LINE
  5
2D207
  8
0
 10
3059.0821083805190028
 20
134.2364442367500033
 30
0.0
 11
3059.0508583804207774
 21
134.2364442367500033
 31
0.0
  0
LINE
  5
2D208
  8
0
 10
3059.0358348042709622
 20
134.2664297499999861
 30
0.0
 11
3057.2485294998277823
 21
134.267506092881888
 31
0.0
  0
LINE
  5
2D209
  8
0
 10
3059.4044431370662096
 20
134.2671845720576869
 30
0.0
 11
3059.09703345132084
 21
134.2667256323499885
 31
0.0
  0
ARC
  5
2D20A
  8
0
 10
3063.592909255341965
 20
126.4383096291334994
 30
0.0
 40
4.4772200710626526
 50
89.9972485975407039
 51
90.8945856722173033
  0
ARC
  5
2D20B
  8
0
 10
3063.5864742706908146
 20
127.9505839528906961
 30
0.0
 40
2.9634612874327
 50
89.8714285833580817
 51
91.2255919668098869
  0
ARC
  5
2D20C
  8
0
 10
3059.5930888449211125
 20
133.9520150828500107
 30
0.0
 40
1.125
 50
196.2475912432948064
 51
163.7541441597591074
  0
ARC
  5
2D20D
  8
0
 10
3059.587531860846866
 20
133.9498692976866892
 30
0.0
 40
0.2965646286781798
 50
0.4114048804400399
 51
83.4312629944267456
  0
ARC
  5
2D20E
  8
0
 10
3063.593088844922022
 20
133.9520150828500107
 30
0.0
 40
1.125
 50
291.1547957660379211
 51
248.8452042339621073
  0
ARC
  5
2D20F
  8
0
 10
3063.593088844922022
 20
133.9520150828500107
 30
0.0
 40
0.4160000000000001
 50
347.4117660524265148
 51
192.5882339475639924
  0
ARC
  5
2D210
  8
0
 10
3063.593088844922022
 20
133.9520150828500107
 30
0.0
 40
0.4060000000000001
 50
0.0
 51
180.0
  0
LINE
  5
2D211
  8
0
 10
3063.2234771615221689
 20
130.8934031567499972
 30
0.0
 11
3063.234995678721134
 21
130.8957505817500078
 31
0.0
  0
ARC
  5
2D212
  8
0
 10
3059.367019684782008
 20
132.8605708228326989
 30
0.0
 40
1.407111493197905
 50
79.5823157942368908
 51
88.475985205584351
  0
ARC
  5
2D213
  8
0
 10
3059.0977613981140166
 20
134.2510764069180027
 30
0.0
 40
0.015666147042379
 50
92.6632778444005112
 51
177.6540965726944137
  0
ARC
  5
2D214
  8
0
 10
3059.0351317102340545
 20
134.2507011083864938
 30
0.0
 40
0.0157443484537445
 50
2.715412156342063
 51
87.4404960255357793
  0
ARC
  5
2D215
  8
0
 10
3057.2624311969320843
 20
128.7259970666920026
 30
0.0
 40
5.5415264633966954
 50
90.1437346573864602
 51
92.4074598546722967
  0
ARC
  5
2D216
  8
0
 10
3057.0244443502938338
 20
134.0513903273188134
 30
0.0
 40
0.2113063444128622
 50
88.5869096437657646
 51
116.9853794446416941
  0
ARC
  5
2D217
  8
0
 10
3057.0066452827231842
 20
134.1422948230463135
 30
0.0
 40
0.1248316899764376
 50
128.7199171535465041
 51
158.2170166703953953
  0
ARC
  5
2D218
  8
0
 10
3057.4178101482248167
 20
134.0263860085366048
 30
0.0
 40
0.5514853389613985
 50
162.8919631487825086
 51
175.0659807019370078
  0
ARC
  5
2D219
  8
0
 10
3069.5371606830158271
 20
133.547354311165293
 30
0.0
 40
12.6797264405268901
 50
177.6203867159321987
 51
178.1085185602352965
  0
ARC
  5
2D21A
  8
0
 10
3063.2442397368167804
 20
130.9654383392924046
 30
0.0
 40
0.0993333434503469
 50
248.1926055162321916
 51
255.3422663585812984
  0
ARC
  5
2D21B
  8
0
 10
3063.2015066821491018
 20
130.8912583318000031
 30
0.0
 40
0.0144205811644527
 50
181.1177383675596104
 51
230.8960304418947942
  0
ARC
  5
2D21C
  8
0
 10
3063.2174749816990698
 20
130.9119523971349111
 30
0.0
 40
0.040556296277966
 50
231.8297777535823911
 51
252.873248641013987
  0
ARC
  5
2D21D
  8
0
 10
3063.2504418296948643
 20
131.0054296615909095
 30
0.0
 40
0.1396533068962068
 50
251.2413138720635004
 51
257.0325569923404032
  0
ARC
  5
2D21E
  8
0
 10
3063.3303204562880637
 20
131.3831096027649039
 30
0.0
 40
0.5256715080139553
 50
257.7856104379393969
 51
263.8906154767639123
  0
ARC
  5
2D21F
  8
0
 10
3063.4862378593611538
 20
132.8123863720092004
 30
0.0
 40
1.9634267164910579
 50
263.8054541133944895
 51
267.3242502025299245
  0
ARC
  5
2D220
  8
0
 10
3063.5707156948092234
 20
134.4058722925848883
 30
0.0
 40
3.559133068658042
 50
267.1633326313254884
 51
268.6011166875978233
  0
ARC
  5
2D221
  8
0
 10
3063.5924783283107899
 20
135.2629963331353906
 30
0.0
 40
4.41653301968263
 50
268.5903303918345273
 51
270.0083796349815088
  0
ARC
  5
2D222
  8
0
 10
3063.2158968097928664
 20
130.8994788095851902
 30
0.0
 40
0.0276244283260828
 50
232.3848099211371903
 51
251.952524247637399
  0
ARC
  5
2D223
  8
0
 10
3063.2021057530751023
 20
130.8817123100633069
 30
0.0
 40
0.0051342757138308
 50
197.2769664159997092
 51
233.2821229783644981
  0
ARC
  5
2D224
  8
0
 10
3063.2002584041861155
 20
130.8810198460805907
 30
0.0
 40
0.0031666247687225
 50
154.340212555589801
 51
195.2396605022406959
  0
ARC
  5
2D225
  8
0
 10
3063.2034363818379461
 20
130.879268311998004
 30
0.0
 40
0.0067926783287462
 50
127.659041016283993
 51
152.6306108373885024
  0
ARC
  5
2D226
  8
0
 10
3063.2133986638759779
 20
130.866315595932889
 30
0.0
 40
0.0231334159189127
 50
111.9255376767400065
 51
127.5925088090330064
  0
ARC
  5
2D227
  8
0
 10
3063.2453927018050308
 20
130.7865735590351051
 30
0.0
 40
0.10905436192035
 50
101.593089800076001
 51
111.8751668970487003
  0
ARC
  5
2D228
  8
0
 10
3063.4073435890009023
 20
129.8317503724651942
 30
0.0
 40
1.0778683813600081
 50
93.8762931610558837
 51
99.200917231457268
  0
ARC
  5
2D229
  8
0
 10
3063.5448710252808269
 20
127.9953987924162959
 30
0.0
 40
2.9193454626869002
 50
91.7868284488250055
 51
94.1328266123077242
  0
ARC
  5
2D22A
  8
0
 10
3063.5861386112778746
 20
126.8410475218658036
 30
0.0
 40
4.074425586695229
 50
90.8878084868516112
 51
91.8607077021844134
  0
ARC
  5
2D22B
  8
0
 10
3063.5635023350541815
 20
127.7154974861096974
 30
0.0
 40
3.1981251568797151
 50
90.7240442247375682
 51
92.6167657214729729
  0
ARC
  5
2D22C
  8
0
 10
3063.5381274212249991
 20
128.24036901976271
 30
0.0
 40
2.6726427910803681
 50
92.5870681368429871
 51
93.6023867005534811
  0
ARC
  5
2D22D
  8
0
 10
3063.4749078796080539
 20
129.2000309140437082
 30
0.0
 40
1.7109071515003229
 50
93.5087171601160776
 51
95.6648184678988542
  0
ARC
  5
2D22E
  8
0
 10
3063.3990128876857852
 20
129.9686086647481034
 30
0.0
 40
0.9385914150752359
 50
95.6856338675235207
 51
97.7121393186113636
  0
ARC
  5
2D22F
  8
0
 10
3063.3379183966158052
 20
130.4162902771610106
 30
0.0
 40
0.4867607537906407
 50
97.6574364001114077
 51
100.5980294588794948
  0
ARC
  5
2D230
  8
0
 10
3063.2829534660982063
 20
130.7040566079579946
 30
0.0
 40
0.1937973529331395
 50
100.2722107756751058
 51
106.0844411566560979
  0
ARC
  5
2D231
  8
0
 10
3063.2398941324318002
 20
130.8479251356654913
 30
0.0
 40
0.0436571674104852
 50
104.0964906110904025
 51
121.6868556506338024
  0
ARC
  5
2D232
  8
0
 10
3063.2207241690198316
 20
130.8790083506586939
 30
0.0
 40
0.0071379617221537
 50
121.8068782054723016
 51
154.0531511873018076
  0
ARC
  5
2D233
  8
0
 10
3063.2170996003828805
 20
130.8810120003940938
 30
0.0
 40
0.0030098233553107
 50
158.1646837473211065
 51
204.9751065008044861
  0
ARC
  5
2D234
  8
0
 10
3063.2204395710177778
 20
130.8828564788248912
 30
0.0
 40
0.0068212868904503
 50
207.1745361146678874
 51
235.8392903370719011
  0
ARC
  5
2D235
  8
0
 10
3063.2380168377330847
 20
130.9103688407886068
 30
0.0
 40
0.0394670996345562
 50
237.1518406999703927
 51
253.6288260250180997
  0
ARC
  5
2D236
  8
0
 10
3063.2736828466058796
 20
131.0214224222243047
 30
0.0
 40
0.1560981775639464
 50
252.5575161872068861
 51
258.3061483203119906
  0
ARC
  5
2D237
  8
0
 10
3063.3393024631150183
 20
131.3476979079154887
 30
0.0
 40
0.4889051892782974
 50
258.525600891631484
 51
262.9833672958931743
  0
ARC
  5
2D238
  8
0
 10
3063.4382685704058531
 20
132.1457378052189995
 30
0.0
 40
1.2930580117775561
 50
262.9506490686878806
 51
265.7956049717280962
  0
ARC
  5
2D239
  8
0
 10
3063.5278482020530646
 20
133.326072733234696
 30
0.0
 40
2.476785578356913
 50
265.7307706753102821
 51
267.3020022192877718
  0
ARC
  5
2D23A
  8
0
 10
3063.5725996622718412
 20
134.2780114702493961
 30
0.0
 40
3.4297756328146201
 50
267.3037959142023965
 51
268.5432579938179742
  0
ARC
  5
2D23B
  8
0
 10
3063.5920988288771696
 20
135.0371490772834875
 30
0.0
 40
4.1891636055440404
 50
268.5406058251584795
 51
270.0140249120261728
  0
ARC
  5
2D23C
  8
0
 10
3063.2351351387292198
 20
130.8980980784729127
 30
0.0
 40
0.0137951290310686
 50
221.7765313569823888
 51
244.2756311220470025
  0
ARC
  5
2D23D
  8
0
 10
3063.2563737790637788
 20
130.9420539384630047
 30
0.0
 40
0.0626131257486866
 50
244.2252747956896997
 51
255.5893964989840867
  0
ARC
  5
2D23E
  8
0
 10
3063.3105584169347821
 20
131.1484005073629078
 30
0.0
 40
0.2759546208305057
 50
255.3554948933818878
 51
261.513574568796912
  0
ARC
  5
2D23F
  8
0
 10
3063.4224379320521621
 20
131.91275170949109
 30
0.0
 40
1.048449653482191
 50
261.6307765792521991
 51
265.8104594648225998
  0
ARC
  5
2D240
  8
0
 10
3063.565597909520875
 20
133.8858946349155872
 30
0.0
 40
3.0267790321586072
 50
265.8364453742676119
 51
269.0959711582249838
  0
ARC
  5
2D241
  8
0
 10
3063.5928591224010233
 20
135.0191629091995082
 30
0.0
 40
4.1603469292958479
 50
268.9668247705542967
 51
270.0036513878562232
  0
ARC
  5
2D242
  8
0
 10
3063.336350220724853
 20
131.2762104702727868
 30
0.0
 40
0.3907775821182725
 50
257.2513485798846204
 51
263.2306511600011731
  0
ARC
  5
2D243
  8
0
 10
3063.3477875030621362
 20
131.1452517042330044
 30
0.0
 40
0.2563193394049577
 50
253.7830726268431931
 51
263.4335552325698018
  0
ARC
  5
2D244
  8
0
 10
3063.5754435649319021
 20
133.7981564106916039
 30
0.0
 40
2.9204461980824581
 50
266.899246716181608
 51
268.9728058707081004
  0
ARC
  5
2D245
  8
0
 10
3063.5751105402291614
 20
134.1713230764642901
 30
0.0
 40
3.2970349070238729
 50
266.7689845242526872
 51
269.0959309331001919
  0
LINE
  5
2D246
  8
0
 10
3059.0821083804239606
 20
133.6675532093881884
 30
0.0
 11
3059.0508583804207774
 21
133.6675532093881884
 31
0.0
  0
LINE
  5
2D247
  8
0
 10
3059.0358348042709622
 20
133.6375676961382055
 30
0.0
 11
3057.2485294998277823
 21
133.6364913532563037
 31
0.0
  0
LINE
  5
2D248
  8
0
 10
3059.4044431370662096
 20
133.6368128740805048
 30
0.0
 11
3059.09703345132084
 21
133.6372718137882032
 31
0.0
  0
ARC
  5
2D249
  8
0
 10
3059.587531860846866
 20
133.9541281484513888
 30
0.0
 40
0.2965646286781798
 50
276.5687370055733254
 51
359.5885951195600114
  0
ARC
  5
2D24A
  8
0
 10
3059.367019684782008
 20
135.0434266233054927
 30
0.0
 40
1.407111493197905
 50
271.5240147944156206
 51
280.4176842057631234
  0
ARC
  5
2D24B
  8
0
 10
3059.0977613981140166
 20
133.652921039220189
 30
0.0
 40
0.0156661470423794
 50
182.3458944794519994
 51
267.3367221555994888
  0
ARC
  5
2D24C
  8
0
 10
3059.0351317102340545
 20
133.6532963377516978
 30
0.0
 40
0.0157443484537445
 50
272.5595039744641781
 51
357.2845878436937141
  0
ARC
  5
2D24D
  8
0
 10
3057.2624311969320843
 20
139.1780003794461038
 30
0.0
 40
5.5415264633966954
 50
267.5925401453276891
 51
269.856265342613483
  0
ARC
  5
2D24E
  8
0
 10
3057.0244443502938338
 20
133.8526071188194067
 30
0.0
 40
0.2113063444128622
 50
243.0146205553583059
 51
271.4130903562343065
  0
ARC
  5
2D24F
  8
0
 10
3057.0066452827231842
 20
133.7617026230919066
 30
0.0
 40
0.1248316899764376
 50
201.7829833296046047
 51
231.2800828464534959
  0
ARC
  5
2D250
  8
0
 10
3057.4178101482248167
 20
133.8776114376017006
 30
0.0
 40
0.5514853389613985
 50
184.9340192980612869
 51
197.1080368512174914
  0
ARC
  5
2D251
  8
0
 10
3069.5371606830158271
 20
134.3566431349728134
 30
0.0
 40
12.6797264405268901
 50
181.8914814397647035
 51
182.3796132840678013
  0
ARC
  5
2D252
  8
0
 10
3057.077655497089836
 20
133.9519987230690958
 30
0.0
 40
0.2137629603148805
 50
176.2797445588010135
 51
183.7202554411989013
  0
LINE
  5
2D253
  8
0
 10
3063.7969653706209101
 20
130.8795291345500118
 30
0.0
 11
3063.7687775507210972
 21
130.8819858648500087
 31
0.0
  0
LINE
  5
2D254
  8
0
 10
3063.8677725001211911
 20
130.8906138432500086
 30
0.0
 11
3063.895960320021004
 21
130.8881571128499957
 31
0.0
  0
LINE
  5
2D255
  8
0
 10
3063.7969653706209101
 20
130.9088638893686891
 30
0.0
 11
3063.7969653706209101
 21
130.8795291345500118
 31
0.0
  0
LINE
  5
2D256
  8
0
 10
3063.6631596672209525
 20
130.8746986026499997
 30
0.0
 11
3063.6631596672209525
 21
130.9133672878500079
 31
0.0
  0
LINE
  5
2D257
  8
0
 10
3063.8677725001211911
 20
130.8906138432500086
 30
0.0
 11
3063.867763199582896
 21
130.9037724618063976
 31
0.0
  0
LINE
  5
2D258
  8
0
 10
3063.7687775507210972
 20
130.8819858648500087
 30
0.0
 11
3063.7687575469440162
 21
130.9102878077021046
 31
0.0
  0
ARC
  5
2D259
  8
0
 10
3063.5933392567999363
 20
126.438309629133002
 30
0.0
 40
4.4772200710631953
 50
89.1054143277826967
 51
90.0027514024592961
  0
ARC
  5
2D25A
  8
0
 10
3063.5997742414519962
 20
127.9505839528906961
 30
0.0
 40
2.9634612874327
 50
88.7744080331901273
 51
90.1285714166419325
  0
LINE
  5
2D25B
  8
0
 10
3063.9627713506210966
 20
130.8934031567499972
 30
0.0
 11
3063.951252833421222
 21
130.8957505817500078
 31
0.0
  0
ARC
  5
2D25C
  8
0
 10
3063.942008775325121
 20
130.9654383392924046
 30
0.0
 40
0.0993333434503469
 50
284.6577336414187016
 51
291.80739448376778
  0
ARC
  5
2D25D
  8
0
 10
3063.9847418299927995
 20
130.8912583318000031
 30
0.0
 40
0.0144205811644527
 50
309.1039695581051774
 51
358.8822616324403043
  0
ARC
  5
2D25E
  8
0
 10
3063.9687735304441958
 20
130.9119523971349111
 30
0.0
 40
0.040556296277966
 50
287.1267513589859846
 51
308.1702222464176089
  0
ARC
  5
2D25F
  8
0
 10
3063.9358066824479465
 20
131.0054296615909095
 30
0.0
 40
0.1396533068962068
 50
282.9674430076594831
 51
288.7586861279364143
  0
ARC
  5
2D260
  8
0
 10
3063.8559280558538376
 20
131.3831096027649039
 30
0.0
 40
0.5256715080139553
 50
276.1093845232362014
 51
282.2143895620604894
  0
ARC
  5
2D261
  8
0
 10
3063.7000106527812022
 20
132.8123863720092004
 30
0.0
 40
1.9634267164910579
 50
272.6757497974700755
 51
276.1945458866055105
  0
ARC
  5
2D262
  8
0
 10
3063.6155328173331327
 20
134.4058722925848883
 30
0.0
 40
3.559133068658042
 50
271.3988833124021767
 51
272.8366673686746253
  0
ARC
  5
2D263
  8
0
 10
3063.5937701838311114
 20
135.2629963331353906
 30
0.0
 40
4.41653301968263
 50
269.9916203650186048
 51
271.4096696081654727
  0
ARC
  5
2D264
  8
0
 10
3063.9703517023499444
 20
130.8994788095851902
 30
0.0
 40
0.0276244283260828
 50
288.0474757523625158
 51
307.6151900788627813
  0
ARC
  5
2D265
  8
0
 10
3063.984142759066799
 20
130.8817123100633069
 30
0.0
 40
0.0051342757138308
 50
306.7178770216353882
 51
342.7230335840001771
  0
ARC
  5
2D266
  8
0
 10
3063.9859901079557858
 20
130.8810198460805907
 30
0.0
 40
0.0031666247687225
 50
344.7603394977592757
 51
25.6597874444102416
  0
ARC
  5
2D267
  8
0
 10
3063.9828121303039552
 20
130.879268311998004
 30
0.0
 40
0.0067926783287462
 50
27.3693891626114301
 51
52.3409589837160212
  0
ARC
  5
2D268
  8
0
 10
3063.9728498482659234
 20
130.866315595932889
 30
0.0
 40
0.0231334159189127
 50
52.407491190967022
 51
68.0744623232600219
  0
ARC
  5
2D269
  8
0
 10
3063.9408558103368705
 20
130.7865735590351051
 30
0.0
 40
0.10905436192035
 50
68.1248331029512428
 51
78.406910199923928
  0
ARC
  5
2D26A
  8
0
 10
3063.7789049231419085
 20
129.8317503724651942
 30
0.0
 40
1.0778683813600081
 50
80.7990827685427462
 51
86.1237068389441305
  0
ARC
  5
2D26B
  8
0
 10
3063.6413774868610744
 20
127.9953987924162959
 30
0.0
 40
2.9193454626869002
 50
85.8671733876922758
 51
88.2131715511750087
  0
ARC
  5
2D26C
  8
0
 10
3063.6001099008640267
 20
126.8410475218658036
 30
0.0
 40
4.074425586695229
 50
88.1392922978155724
 51
89.112191513148403
  0
ARC
  5
2D26D
  8
0
 10
3063.6227461770890841
 20
127.7154974861096974
 30
0.0
 40
3.1981251568797151
 50
87.3832342785270129
 51
89.2759557752624318
  0
ARC
  5
2D26E
  8
0
 10
3063.6481210909169022
 20
128.24036901976271
 30
0.0
 40
2.6726427910803681
 50
86.3976132994465189
 51
87.4129318631570129
  0
ARC
  5
2D26F
  8
0
 10
3063.7113406325338474
 20
129.2000309140437082
 30
0.0
 40
1.7109071515003229
 50
84.3351815321011458
 51
86.4912828398839224
  0
ARC
  5
2D270
  8
0
 10
3063.7872356244561161
 20
129.9686086647481034
 30
0.0
 40
0.9385914150752359
 50
82.2878606813886364
 51
84.3143661324764651
  0
ARC
  5
2D271
  8
0
 10
3063.8483301155260961
 20
130.4162902771610106
 30
0.0
 40
0.4867607537906407
 50
79.4019705411204484
 51
82.3425635998886065
  0
ARC
  5
2D272
  8
0
 10
3063.9032950460441498
 20
130.7040566079579946
 30
0.0
 40
0.1937973529331395
 50
73.9155588433439021
 51
79.72778922432488
  0
ARC
  5
2D273
  8
0
 10
3063.9463543797101011
 20
130.8479251356654913
 30
0.0
 40
0.0436571674104852
 50
58.3131443493661905
 51
75.903509388909626
  0
ARC
  5
2D274
  8
0
 10
3063.9655243431229792
 20
130.8790083506586939
 30
0.0
 40
0.0071379617221537
 50
25.9468488126981498
 51
58.1931217945276771
  0
ARC
  5
2D275
  8
0
 10
3063.9691489117590208
 20
130.8810120003940938
 30
0.0
 40
0.0030098233553107
 50
335.0248934991955139
 51
21.8353162526788296
  0
ARC
  5
2D276
  8
0
 10
3063.9658089411241235
 20
130.8828564788248912
 30
0.0
 40
0.0068212868904503
 50
304.1607096629280136
 51
332.8254638853321126
  0
ARC
  5
2D277
  8
0
 10
3063.9482316744088166
 20
130.9103688407886068
 30
0.0
 40
0.0394670996345562
 50
286.3711739749819003
 51
302.8481593000296925
  0
ARC
  5
2D278
  8
0
 10
3063.9125656655351122
 20
131.0214224222243047
 30
0.0
 40
0.1560981775639464
 50
281.6938516796880094
 51
287.4424838127930002
  0
ARC
  5
2D279
  8
0
 10
3063.846946049026883
 20
131.3476979079154887
 30
0.0
 40
0.4889051892782974
 50
277.0166327041068257
 51
281.4743991083684023
  0
ARC
  5
2D27A
  8
0
 10
3063.7479799417360482
 20
132.1457378052189995
 30
0.0
 40
1.2930580117775561
 50
274.2043950282719038
 51
277.0493509313121194
  0
ARC
  5
2D27B
  8
0
 10
3063.6584003100888367
 20
133.326072733234696
 30
0.0
 40
2.476785578356913
 50
272.6979977807122282
 51
274.2692293246897179
  0
ARC
  5
2D27C
  8
0
 10
3063.6136488498700601
 20
134.2780114702493961
 30
0.0
 40
3.4297756328146201
 50
271.4567420061820258
 51
272.6962040857976035
  0
ARC
  5
2D27D
  8
0
 10
3063.5941496832651865
 20
135.0371490772834875
 30
0.0
 40
4.1891636055440404
 50
269.9859750879738272
 51
271.4593941748415205
  0
ARC
  5
2D27E
  8
0
 10
3063.9511133734131363
 20
130.8980980784729127
 30
0.0
 40
0.0137951290310686
 50
295.7243688779528838
 51
318.2234686430176112
  0
ARC
  5
2D27F
  8
0
 10
3063.929874733079032
 20
130.9420539384630047
 30
0.0
 40
0.0626131257486866
 50
284.4106035010158848
 51
295.7747252043103003
  0
ARC
  5
2D280
  8
0
 10
3063.8756900952071192
 20
131.1484005073629078
 30
0.0
 40
0.2759546208305057
 50
278.486425431203088
 51
284.6445051066181122
  0
ARC
  5
2D281
  8
0
 10
3063.7638105800911035
 20
131.91275170949109
 30
0.0
 40
1.048449653482191
 50
274.1895405351772865
 51
278.3692234207478009
  0
ARC
  5
2D282
  8
0
 10
3063.6206506026201168
 20
133.8858946349155872
 30
0.0
 40
3.0267790321586072
 50
270.9040288417750162
 51
274.1635546257323881
  0
ARC
  5
2D283
  8
0
 10
3063.593389389740878
 20
135.0191629091995082
 30
0.0
 40
4.1603469292958479
 50
269.9963486121437768
 51
271.0331752294455896
  0
ARC
  5
2D284
  8
0
 10
3063.8498982914170483
 20
131.2762104702727868
 30
0.0
 40
0.3907775821182725
 50
276.7693488399988269
 51
282.7486514201153796
  0
ARC
  5
2D285
  8
0
 10
3063.8384610090811293
 20
131.1452517042330044
 30
0.0
 40
0.2563193394049577
 50
276.5664447674300845
 51
286.2169273731568069
  0
ARC
  5
2D286
  8
0
 10
3063.6108049472099992
 20
133.7981564106916039
 30
0.0
 40
2.9204461980824581
 50
271.0271941292917859
 51
273.1007532838185057
  0
ARC
  5
2D287
  8
0
 10
3063.6111379719131946
 20
134.1713230764642901
 30
0.0
 40
3.2970349070238729
 50
270.9040690668996945
 51
273.2310154757473128
  0
LINE
  5
2D289
  8
0
 10
3068.1353193094209928
 20
133.6525504469881866
 30
0.0
 11
3068.1353193094209928
 21
134.251446999150005
 31
0.0
  0
LINE
  5
2D28A
  8
0
 10
3068.1040693094219023
 20
133.6522797902327113
 30
0.0
 11
3068.1040693093209484
 21
134.2517176583500031
 31
0.0
  0
LINE
  5
2D28B
  8
0
 10
3068.1040693093241316
 20
134.2364442367500033
 30
0.0
 11
3068.1353193094209928
 21
134.2364442367500033
 31
0.0
  0
LINE
  5
2D28C
  8
0
 10
3068.1503428855721722
 20
134.2664297499999861
 30
0.0
 11
3069.9376481900148974
 21
134.267506092881888
 31
0.0
  0
LINE
  5
2D28D
  8
0
 10
3067.7817345527760153
 20
134.2671845720576869
 30
0.0
 11
3068.0891442385209302
 21
134.2667256323499885
 31
0.0
  0
ARC
  5
2D28E
  8
0
 10
3067.5930888449211125
 20
133.9520150828500107
 30
0.0
 40
1.125
 50
16.2458558402408713
 51
343.752408756705222
  0
ARC
  5
2D28F
  8
0
 10
3067.5986458289958136
 20
133.9498692976866892
 30
0.0
 40
0.2965646286781798
 50
96.5687370055732544
 51
179.5885951195598977
  0
ARC
  5
2D290
  8
0
 10
3067.819158005060217
 20
132.8605708228326989
 30
0.0
 40
1.407111493197905
 50
91.5240147944156632
 51
100.417684205763095
  0
ARC
  5
2D291
  8
0
 10
3068.0884162917291178
 20
134.2510764069180027
 30
0.0
 40
0.015666147042379
 50
2.3459034273055779
 51
87.336722155599503
  0
ARC
  5
2D292
  8
0
 10
3068.15104597960908
 20
134.2507011083864938
 30
0.0
 40
0.0157443484537445
 50
92.5595039744641923
 51
177.2845878436579028
  0
ARC
  5
2D293
  8
0
 10
3069.9237464929101407
 20
128.7259970666920026
 30
0.0
 40
5.5415264633966954
 50
87.5925401453276891
 51
89.856265342613554
  0
ARC
  5
2D294
  8
0
 10
3070.1617333395479363
 20
134.0513903273188134
 30
0.0
 40
0.2113063444128622
 50
63.014620555358249
 51
91.4130903562342354
  0
ARC
  5
2D295
  8
0
 10
3070.1795324071199502
 20
134.1422948230463135
 30
0.0
 40
0.1248316899764376
 50
21.7829833296045692
 51
51.2800828464535172
  0
ARC
  5
2D296
  8
0
 10
3069.768367541617863
 20
134.0263860085366048
 30
0.0
 40
0.5514853389613985
 50
4.934019298062938
 51
17.1080368512175092
  0
ARC
  5
2D297
  8
0
 10
3057.6490170068268526
 20
133.547354311165293
 30
0.0
 40
12.6797264405268901
 50
1.8914814397647159
 51
2.3796132840678061
  0
LINE
  5
2D298
  8
0
 10
3068.1040693094191738
 20
133.6675532093881884
 30
0.0
 11
3068.1353193094209928
 21
133.6675532093881884
 31
0.0
  0
LINE
  5
2D299
  8
0
 10
3068.1503428855721722
 20
133.6375676961382055
 30
0.0
 11
3069.9376481900148974
 21
133.6364913532563037
 31
0.0
  0
LINE
  5
2D29A
  8
0
 10
3067.7817345527760153
 20
133.6368128740805048
 30
0.0
 11
3068.0891442385209302
 21
133.6372718137882032
 31
0.0
  0
ARC
  5
2D29B
  8
0
 10
3067.5986458289958136
 20
133.9541281484513888
 30
0.0
 40
0.2965646286781798
 50
180.4114048804399886
 51
263.4312629944266746
  0
ARC
  5
2D29C
  8
0
 10
3067.819158005060217
 20
135.0434266233054927
 30
0.0
 40
1.407111493197905
 50
259.5823157942368766
 51
268.4759852055843226
  0
ARC
  5
2D29D
  8
0
 10
3068.0884162917291178
 20
133.652921039220189
 30
0.0
 40
0.0156661470423794
 50
272.6632778444005112
 51
357.654105520546409
  0
ARC
  5
2D29E
  8
0
 10
3068.15104597960908
 20
133.6532963377516978
 30
0.0
 40
0.0157443484537445
 50
182.7154121563062859
 51
267.4404960255358219
  0
ARC
  5
2D29F
  8
0
 10
3069.9237464929101407
 20
139.1780003794461038
 30
0.0
 40
5.5415264633966954
 50
270.143734657386517
 51
272.4074598546723109
  0
ARC
  5
2D2A0
  8
0
 10
3070.1617333395479363
 20
133.8526071188194067
 30
0.0
 40
0.2113063444128622
 50
268.5869096437658072
 51
296.9853794446416941
  0
ARC
  5
2D2A1
  8
0
 10
3070.1795324071199502
 20
133.7617026230919066
 30
0.0
 40
0.1248316899764376
 50
308.7199171535464757
 51
338.2170166703954237
  0
ARC
  5
2D2A2
  8
0
 10
3069.768367541617863
 20
133.8776114376017006
 30
0.0
 40
0.5514853389613985
 50
342.8919631487825086
 51
355.0659807019371215
  0
ARC
  5
2D2A3
  8
0
 10
3057.6490170068268526
 20
134.3566431349728134
 30
0.0
 40
12.6797264405268901
 50
357.6203867159322272
 51
358.1085185602353249
  0
ARC
  5
2D2A4
  8
0
 10
3070.1085221927519342
 20
133.9519987230690958
 30
0.0
 40
0.2137629603148805
 50
356.2797445587993934
 51
3.7202554411989581
  0
ENDSEC
  0
EOF
