  0
SECTION
  2
HEADER
  9
$ACADVER
  1
AC1009
  9
$INSBASE
 10
6089.2364525049952135
 20
1008.4449751856840294
 30
0.0
  9
$EXTMIN
 10
6088.0632241585453812
 20
1007.2717468392339697
 30
0.0
  9
$EXTMAX
 10
6090.4096808514450458
 20
1009.6182035321339754
 30
0.0
  9
$LIMMIN
 10
0.0
 20
0.0
  9
$LIMMAX
 10
11.6929133858000007
 20
8.2677165353999982
  9
$ORTHOMODE
 70
     0
  9
$REGENMODE
 70
     1
  9
$FILLMODE
 70
     1
  9
$QTEXTMODE
 70
     0
  9
$MIRRTEXT
 70
     0
  9
$DRAGMODE
 70
     2
  9
$LTSCALE
 40
0.6431102362
  9
$OSMODE
 70
  2047
  9
$ATTMODE
 70
     1
  9
$TEXTSIZE
 40
0.2
  9
$TRACEWID
 40
0.05
  9
$TEXTSTYLE
  7
STANDARD
  9
$CLAYER
  8
0
  9
$CELTYPE
  6
BYLAYER
  9
$CECOLOR
 62
   256
  9
$DIMSCALE
 40
1.0
  9
$DIMASZ
 40
0.1875
  9
$DIMEXO
 40
0.0625
  9
$DIMDLI
 40
0.4443307087
  9
$DIMRND
 40
0.0
  9
$DIMDLE
 40
0.0
  9
$DIMEXE
 40
0.125
  9
$DIMTP
 40
0.01
  9
$DIMTM
 40
0.01
  9
$DIMTXT
 40
2.0
  9
$DIMCEN
 40
0.1052362205
  9
$DIMTSZ
 40
0.0
  9
$DIMTOL
 70
     1
  9
$DIMLIM
 70
     0
  9
$DIMTIH
 70
     1
  9
$DIMTOH
 70
     1
  9
$DIMSE1
 70
     0
  9
$DIMSE2
 70
     0
  9
$DIMTAD
 70
     0
  9
$DIMZIN
 70
     0
  9
$DIMBLK
  1

  9
$DIMASO
 70
     1
  9
$DIMSHO
 70
     1
  9
$DIMPOST
  1
\X
  9
$DIMAPOST
  1

  9
$DIMALT
 70
     1
  9
$DIMALTD
 70
     2
  9
$DIMALTF
 40
25.3999999999999986
  9
$DIMLFAC
 40
1.0
  9
$DIMTOFL
 70
     0
  9
$DIMTVP
 40
0.0
  9
$DIMTIX
 70
     0
  9
$DIMSOXD
 70
     0
  9
$DIMSAH
 70
     0
  9
$DIMBLK1
  1

  9
$DIMBLK2
  1

  9
$DIMSTYLE
  2
STANDARD
  9
$DIMCLRD
 70
     0
  9
$DIMCLRE
 70
     0
  9
$DIMCLRT
 70
     0
  9
$DIMTFAC
 40
1.0
  9
$DIMGAP
 40
0.09
  9
$LUNITS
 70
     2
  9
$LUPREC
 70
     4
  9
$SKETCHINC
 40
0.1
  9
$FILLETRAD
 40
0.0
  9
$AUNITS
 70
     0
  9
$AUPREC
 70
     0
  9
$MENU
  1
.
  9
$ELEVATION
 40
0.0
  9
$PELEVATION
 40
0.0
  9
$THICKNESS
 40
0.0
  9
$LIMCHECK
 70
     0
  9
$BLIPMODE
 70
     0
  9
$CHAMFERA
 40
0.0
  9
$CHAMFERB
 40
0.0
  9
$SKPOLY
 70
     0
  9
$TDCREATE
 40
2458060.468368056230247
  9
$TDUPDATE
 40
2460899.3850231477990746
  9
$TDINDWG
 40
1.5431946758999999
  9
$TDUSRTIMER
 40
1.5431946758999999
  9
$USRTIMER
 70
     1
  9
$ANGBASE
 50
0.0
  9
$ANGDIR
 70
     0
  9
$PDMODE
 70
     0
  9
$PDSIZE
 40
0.3125
  9
$PLINEWID
 40
0.0
  9
$COORDS
 70
     1
  9
$SPLFRAME
 70
     0
  9
$SPLINETYPE
 70
     6
  9
$SPLINESEGS
 70
     8
  9
$ATTDIA
 70
     1
  9
$ATTREQ
 70
     1
  9
$HANDLING
 70
     1
  9
$HANDSEED
  5
20E37
  9
$SURFTAB1
 70
     6
  9
$SURFTAB2
 70
     6
  9
$SURFTYPE
 70
     6
  9
$SURFU
 70
     6
  9
$SURFV
 70
     6
  9
$UCSNAME
  2

  9
$UCSORG
 10
0.0
 20
0.0
 30
0.0
  9
$UCSXDIR
 10
1.0
 20
0.0
 30
0.0
  9
$UCSYDIR
 10
0.0
 20
1.0
 30
0.0
  9
$PUCSNAME
  2

  9
$PUCSORG
 10
0.0
 20
0.0
 30
0.0
  9
$PUCSXDIR
 10
1.0
 20
0.0
 30
0.0
  9
$PUCSYDIR
 10
0.0
 20
1.0
 30
0.0
  9
$USERI1
 70
     0
  9
$USERI2
 70
     0
  9
$USERI3
 70
     0
  9
$USERI4
 70
     0
  9
$USERI5
 70
     0
  9
$USERR1
 40
0.0
  9
$USERR2
 40
0.0
  9
$USERR3
 40
0.0
  9
$USERR4
 40
0.0
  9
$USERR5
 40
0.0
  9
$WORLDVIEW
 70
     1
  9
$SHADEDGE
 70
     3
  9
$SHADEDIF
 70
    70
  9
$TILEMODE
 70
     1
  9
$MAXACTVP
 70
    64
  9
$PLIMCHECK
 70
     0
  9
$PEXTMIN
 10
1.0000000000000000E+20
 20
1.0000000000000000E+20
 30
1.0000000000000000E+20
  9
$PEXTMAX
 10
-1.0000000000000000E+20
 20
-1.0000000000000000E+20
 30
-1.0000000000000000E+20
  9
$PLIMMIN
 10
0.0
 20
0.0
  9
$PLIMMAX
 10
12.0
 20
9.0
  9
$UNITMODE
 70
     0
  9
$VISRETAIN
 70
     1
  9
$PLINEGEN
 70
     0
  9
$PSLTSCALE
 70
     1
  0
ENDSEC
  0
SECTION
  2
TABLES
  0
TABLE
  2
VPORT
 70
     1
  0
VPORT
  2
*ACTIVE
 70
     0
 10
0.0
 20
0.0
 11
1.0
 21
1.0
 12
2177.8710960596831683
 22
875.8653700831449669
 13
0.0
 23
0.0
 14
1.0
 24
1.0
 15
0.0
 25
0.0
 16
0.0
 26
0.0
 36
60.4960186965801583
 17
3911.3653564453120453
 27
132.5796051025390057
 37
0.0
 40
2.362851435345978
 41
2.2182448036951499
 42
50.0
 43
0.0
 44
0.0
 50
0.0
 51
0.0
 71
     0
 72
   100
 73
     1
 74
     1
 75
     0
 76
     0
 77
     0
 78
     0
  0
ENDTAB
  0
TABLE
  2
LTYPE
 70
     2
  0
LTYPE
  2
CONTINUOUS
 70
     0
  3
Solid line
 72
    65
 73
     0
 40
0.0
  0
LTYPE
  2
PHANTOM2
 70
     0
  3
___ _ _ ___ _ _ ___ _ _ ___ _ _
 72
    65
 73
     6
 40
1.25
 49
0.625
 49
-0.125
 49
0.125
 49
-0.125
 49
0.125
 49
-0.125
  0
ENDTAB
  0
TABLE
  2
LAYER
 70
     2
  0
LAYER
  2
0
 70
     0
 62
   255
  6
CONTINUOUS
  0
LAYER
  2
DEFPOINTS
 70
     0
 62
     7
  6
CONTINUOUS
  0
ENDTAB
  0
TABLE
  2
STYLE
 70
     1
  0
STYLE
  2
STANDARD
 70
     0
 40
0.0
 41
0.8
 50
0.0
 71
     0
 42
0.2
  3
txt
  4

  0
ENDTAB
  0
TABLE
  2
VIEW
 70
     0
  0
ENDTAB
  0
TABLE
  2
UCS
 70
     0
  0
ENDTAB
  0
TABLE
  2
APPID
 70
    11
  0
APPID
  2
ACAD
 70
     0
  0
APPID
  2
ACAD_MLEADERVER
 70
     0
  0
APPID
  2
ACAD_EXEMPT_FROM_CAD_STANDARDS
 70
     0
  0
APPID
  2
ACAD_NAV_VCDISPLAY
 70
     0
  0
APPID
  2
ACAECLAYERSTANDARD
 70
     0
  0
APPID
  2
ACCMTRANSPARENCY
 70
     0
  0
APPID
  2
ACAD_DSTYLE_DIMJAG
 70
     0
  0
APPID
  2
ACAD_DSTYLE_DIMTALN
 70
     0
  0
APPID
  2
ACDBATTR
 70
     0
  0
APPID
  2
ACADANNOTATIVE
 70
     0
  0
APPID
  2
DCO15
 70
     0
  0
ENDTAB
  0
TABLE
  2
DIMSTYLE
 70
     1
  0
DIMSTYLE
  2
STANDARD
 70
     0
  3

  4

  5

  6

  7

 40
1.0
 41
0.1875
 42
0.0625
 43
0.38
 44
0.125
 45
0.0
 46
0.0
 47
0.01
 48
0.01
140
0.15625
141
0.09
142
0.0
143
25.3999999999999986
144
1.0
145
0.0
146
1.0
147
0.09
 71
     1
 72
     0
 73
     1
 74
     1
 75
     0
 76
     0
 77
     0
 78
     4
170
     0
171
     2
172
     0
173
     0
174
     0
175
     0
176
     0
177
     0
178
     0
  0
ENDTAB
  0
ENDSEC
  0
SECTION
  2
BLOCKS
  0
BLOCK
  8
0
  2
$MODEL_SPACE
 70
     0
 10
0.0
 20
0.0
 30
0.0
  3
$MODEL_SPACE
  1

  0
ENDBLK
  5
21
  8
0
  0
BLOCK
 67
     1
  8
0
  2
$PAPER_SPACE
 70
     0
 10
0.0
 20
0.0
 30
0.0
  3
$PAPER_SPACE
  1

  0
ENDBLK
  5
1D
 67
     1
  8
0
  0
BLOCK
  8
0
  2
_FILLED
 70
     0
 10
0.0
 20
0.0
 30
0.0
  3
_FILLED
  1

  0
SOLID
  5
1FCD6
  8
0
  6
BYBLOCK
 62
     0
 10
0.0
 20
0.0
 30
0.0
 11
-1.0
 21
0.1666666667
 31
0.0
 12
-1.0
 22
-0.1666666667
 32
0.0
 13
-1.0
 23
-0.1666666667
 33
0.0
  0
ENDBLK
  5
1FCD7
  8
0
  6
BYBLOCK
 62
     0
  0
ENDSEC
  0
SECTION
  2
ENTITIES
  0
ATTDEF
  5
20569
  8
DEFPOINTS
 10
6089.233386947595136
 20
1008.4484967349809494
 30
0.0
 40
0.001
  1
P24040-00
  3

  2
MODELNUMBER
 70
     0
1001
ACDBATTR
1070
     0
1070
     1
  0
ATTDEF
  5
2056A
  8
DEFPOINTS
 10
6089.233386947595136
 20
1008.4468298946020468
 30
0.0
 40
0.001
  1
KALLISTA
  3

  2
BRANDNAME
 70
     0
1001
ACDBATTR
1070
     0
1070
     1
  0
ATTDEF
  5
2056B
  8
DEFPOINTS
 10
6089.233386947595136
 20
1008.4451634016470507
 30
0.0
 40
0.001
  1
WALL BRACKET
  3

  2
PRODUCT
 70
     0
1001
ACDBATTR
1070
     0
1070
     1
  0
CIRCLE
  5
20D55
  8
0
 10
6089.2364525049952135
 20
1008.4449751856840294
 30
0.0
 40
1.17322834645
  0
CIRCLE
  5
20D56
  8
0
 10
6089.2364525049952135
 20
1008.4449751856840294
 30
0.0
 40
0.845669291350001
  0
CIRCLE
  5
20D57
  8
0
 10
6089.2364525049952135
 20
1008.4449751857340516
 30
0.0
 40
0.7645669290999999
  0
ARC
  5
20D58
  8
0
 10
6089.2364525049952135
 20
1008.4449751857340516
 30
0.0
 40
0.6929133857999999
 50
166.9350167490578087
 51
193.064983250942106
  0
ARC
  5
20D59
  8
0
 10
6089.2364525049952135
 20
1008.4449751857340516
 30
0.0
 40
0.6929133857999999
 50
217.4417497822026917
 51
322.5582502177973083
  0
ARC
  5
20D5A
  8
0
 10
6089.2364525049952135
 20
1008.4449751857340516
 30
0.0
 40
0.6929133857999999
 50
346.9350167554164841
 51
13.0649832648713708
  0
ARC
  5
20D5B
  8
0
 10
6089.2364525049952135
 20
1008.4449751857340516
 30
0.0
 40
0.6929133857999999
 50
37.4417497822026775
 51
142.5582502177973083
  0
ARC
  5
20D5C
  8
0
 10
6089.2364525049952135
 20
1008.4449751857340516
 30
0.0
 40
0.6889763780000004
 50
169.8663445600080877
 51
190.1336554399917986
  0
ARC
  5
20D5D
  8
0
 10
6089.2364525049952135
 20
1008.4449751857340516
 30
0.0
 40
0.6889763780000004
 50
217.6928698064326113
 51
322.3071301935673887
  0
ARC
  5
20D5E
  8
0
 10
6089.2364525049952135
 20
1008.4449751857340516
 30
0.0
 40
0.6889763780000004
 50
349.8663445672303283
 51
10.1336554530528495
  0
ARC
  5
20D5F
  8
0
 10
6089.2364525049952135
 20
1008.4449751857340516
 30
0.0
 40
0.6889763780000004
 50
37.6928698064325829
 51
142.3071301935673887
  0
LINE
  5
20D60
  8
0
 10
6088.6204778650289882
 20
1008.866235028233973
 30
0.0
 11
6089.8524271448768559
 21
1008.866235028233973
 31
0.0
  0
LINE
  5
20D61
  8
0
 10
6088.6204778650289882
 20
1008.0237153432340165
 30
0.0
 11
6089.8524271449614389
 21
1008.0237153432340165
 31
0.0
  0
ARC
  5
20D62
  8
0
 10
6090.0730666781937543
 20
1008.4449751857340516
 30
0.0
 40
1.519685039400003
 50
164.1920156447681904
 51
195.8079843552318096
  0
ARC
  5
20D63
  8
0
 10
6088.6204778650289882
 20
1008.0337153432340074
 30
0.0
 40
0.01
 50
195.8079843552254999
 51
270.0
  0
ARC
  5
20D64
  8
0
 10
6088.6204778650289882
 20
1008.8562350282339821
 30
0.0
 40
0.01
 50
90.0
 51
164.1920156447681904
  0
ARC
  5
20D65
  8
0
 10
6088.3998383328607815
 20
1008.4449751855860313
 30
0.0
 40
1.5196850383330971
 50
344.1920156391545902
 51
15.8079843725289209
  0
ARC
  5
20D66
  8
0
 10
6089.8524271448768559
 20
1008.8562350282339821
 30
0.0
 40
0.01
 50
15.8079843725289209
 51
90.0
  0
ARC
  5
20D67
  8
0
 10
6089.8524271449614389
 20
1008.0337153432340074
 30
0.0
 40
0.01
 50
270.0
 51
344.1920156391545902
  0
LINE
  5
20D68
  8
0
 10
6088.8821217959948626
 20
1008.8565840232339497
 30
0.0
 11
6088.8821217962949959
 21
1008.0340643381340442
 31
0.0
  0
LINE
  5
20D69
  8
0
 10
6089.5907832135935678
 20
1008.0340643381340442
 30
0.0
 11
6089.5907832135935678
 21
1008.8565840232339497
 31
0.0
  0
ARC
  5
20D6A
  8
0
 10
6089.6007948471360578
 20
1008.8562199249009836
 30
0.0
 40
0.0100182520315745
 50
91.4365427777984792
 51
177.9172122118700088
  0
ARC
  5
20D6B
  8
0
 10
6089.6007956474359162
 20
1008.0337289804269858
 30
0.0
 40
0.0100180485235673
 50
178.0816451800932043
 51
268.2996168794113032
  0
ARC
  5
20D6C
  8
0
 10
6088.8721034794989464
 20
1008.0337317249790203
 30
0.0
 40
0.0100238367380116
 50
272.2098927007655789
 51
1.901550219800527
  0
ARC
  5
20D6D
  8
0
 10
6088.8721115321150137
 20
1008.8562208515510292
 30
0.0
 40
0.0100168496352448
 50
2.0777756349035919
 51
88.676337360694319
  0
ENDSEC
  0
EOF
