  0
SECTION
  2
HEADER
  9
$ACADVER
  1
AC1009
  9
$INSBASE
 10
3165.9165299490268808
 20
195.8081878398708113
 30
0.0
  9
$EXTMIN
 10
3153.7535802867300845
 20
188.7517033150122074
 30
0.0
  9
$EXTMAX
 10
3169.0415299490268808
 20
200.5784850609524028
 30
0.0
  9
$LIMMIN
 10
0.0
 20
0.0
  9
$LIMMAX
 10
11.6929133858000007
 20
8.2677165353999982
  9
$ORTHOMODE
 70
     0
  9
$REGENMODE
 70
     1
  9
$FILLMODE
 70
     1
  9
$QTEXTMODE
 70
     0
  9
$MIRRTEXT
 70
     0
  9
$DRAGMODE
 70
     2
  9
$LTSCALE
 40
0.6431102362
  9
$OSMODE
 70
  4095
  9
$ATTMODE
 70
     1
  9
$TEXTSIZE
 40
0.2
  9
$TRACEWID
 40
0.05
  9
$TEXTSTYLE
  7
STANDARD
  9
$CLAYER
  8
0
  9
$CELTYPE
  6
BYLAYER
  9
$CECOLOR
 62
   256
  9
$DIMSCALE
 40
1.0
  9
$DIMASZ
 40
0.1875
  9
$DIMEXO
 40
0.0625
  9
$DIMDLI
 40
0.4443307087
  9
$DIMRND
 40
0.0
  9
$DIMDLE
 40
0.0
  9
$DIMEXE
 40
0.125
  9
$DIMTP
 40
0.01
  9
$DIMTM
 40
0.01
  9
$DIMTXT
 40
2.0
  9
$DIMCEN
 40
0.1052362205
  9
$DIMTSZ
 40
0.0
  9
$DIMTOL
 70
     1
  9
$DIMLIM
 70
     0
  9
$DIMTIH
 70
     1
  9
$DIMTOH
 70
     1
  9
$DIMSE1
 70
     0
  9
$DIMSE2
 70
     0
  9
$DIMTAD
 70
     0
  9
$DIMZIN
 70
     0
  9
$DIMBLK
  1

  9
$DIMASO
 70
     1
  9
$DIMSHO
 70
     1
  9
$DIMPOST
  1
\X
  9
$DIMAPOST
  1

  9
$DIMALT
 70
     1
  9
$DIMALTD
 70
     2
  9
$DIMALTF
 40
25.3999999999999986
  9
$DIMLFAC
 40
1.0
  9
$DIMTOFL
 70
     0
  9
$DIMTVP
 40
0.0
  9
$DIMTIX
 70
     0
  9
$DIMSOXD
 70
     0
  9
$DIMSAH
 70
     0
  9
$DIMBLK1
  1

  9
$DIMBLK2
  1

  9
$DIMSTYLE
  2
STANDARD
  9
$DIMCLRD
 70
     0
  9
$DIMCLRE
 70
     0
  9
$DIMCLRT
 70
     0
  9
$DIMTFAC
 40
1.0
  9
$DIMGAP
 40
0.09
  9
$LUNITS
 70
     2
  9
$LUPREC
 70
     4
  9
$SKETCHINC
 40
0.1
  9
$FILLETRAD
 40
0.0
  9
$AUNITS
 70
     0
  9
$AUPREC
 70
     0
  9
$MENU
  1
.
  9
$ELEVATION
 40
0.0
  9
$PELEVATION
 40
0.0
  9
$THICKNESS
 40
0.0
  9
$LIMCHECK
 70
     0
  9
$BLIPMODE
 70
     0
  9
$CHAMFERA
 40
0.0
  9
$CHAMFERB
 40
0.0
  9
$SKPOLY
 70
     0
  9
$TDCREATE
 40
2458060.468368056230247
  9
$TDUPDATE
 40
2459485.8313078698702157
  9
$TDINDWG
 40
0.3919515046
  9
$TDUSRTIMER
 40
0.3919515046
  9
$USRTIMER
 70
     1
  9
$ANGBASE
 50
0.0
  9
$ANGDIR
 70
     0
  9
$PDMODE
 70
     0
  9
$PDSIZE
 40
0.3125
  9
$PLINEWID
 40
0.0
  9
$COORDS
 70
     1
  9
$SPLFRAME
 70
     0
  9
$SPLINETYPE
 70
     6
  9
$SPLINESEGS
 70
     8
  9
$ATTDIA
 70
     1
  9
$ATTREQ
 70
     1
  9
$HANDLING
 70
     1
  9
$HANDSEED
  5
8227
  9
$SURFTAB1
 70
     6
  9
$SURFTAB2
 70
     6
  9
$SURFTYPE
 70
     6
  9
$SURFU
 70
     6
  9
$SURFV
 70
     6
  9
$UCSNAME
  2

  9
$UCSORG
 10
0.0
 20
0.0
 30
0.0
  9
$UCSXDIR
 10
1.0
 20
0.0
 30
0.0
  9
$UCSYDIR
 10
0.0
 20
1.0
 30
0.0
  9
$PUCSNAME
  2

  9
$PUCSORG
 10
0.0
 20
0.0
 30
0.0
  9
$PUCSXDIR
 10
1.0
 20
0.0
 30
0.0
  9
$PUCSYDIR
 10
0.0
 20
1.0
 30
0.0
  9
$USERI1
 70
     0
  9
$USERI2
 70
     0
  9
$USERI3
 70
     0
  9
$USERI4
 70
     0
  9
$USERI5
 70
     0
  9
$USERR1
 40
0.0
  9
$USERR2
 40
0.0
  9
$USERR3
 40
0.0
  9
$USERR4
 40
0.0
  9
$USERR5
 40
0.0
  9
$WORLDVIEW
 70
     1
  9
$SHADEDGE
 70
     3
  9
$SHADEDIF
 70
    70
  9
$TILEMODE
 70
     1
  9
$MAXACTVP
 70
    64
  9
$PLIMCHECK
 70
     0
  9
$PEXTMIN
 10
1.0000000000000000E+20
 20
1.0000000000000000E+20
 30
1.0000000000000000E+20
  9
$PEXTMAX
 10
-1.0000000000000000E+20
 20
-1.0000000000000000E+20
 30
-1.0000000000000000E+20
  9
$PLIMMIN
 10
0.0
 20
0.0
  9
$PLIMMAX
 10
12.0
 20
9.0
  9
$UNITMODE
 70
     0
  9
$VISRETAIN
 70
     1
  9
$PLINEGEN
 70
     0
  9
$PSLTSCALE
 70
     1
  0
ENDSEC
  0
SECTION
  2
TABLES
  0
TABLE
  2
VPORT
 70
     1
  0
VPORT
  2
*ACTIVE
 70
     0
 10
0.0
 20
0.0
 11
1.0
 21
1.0
 12
86.4086316573108775
 22
-0.6442970591233959
 13
0.0
 23
0.0
 14
1.0
 24
1.0
 15
0.0
 25
0.0
 16
0.0
 26
0.0
 36
95.5902297660485658
 17
3089.811279296875
 27
197.161570589386713
 37
0.0
 40
60.9279607518212316
 41
2.5410052910052912
 42
50.0
 43
0.0
 44
0.0
 50
0.0
 51
0.0
 71
     0
 72
   100
 73
     1
 74
     1
 75
     0
 76
     0
 77
     0
 78
     0
  0
ENDTAB
  0
TABLE
  2
LTYPE
 70
     2
  0
LTYPE
  2
CONTINUOUS
 70
     0
  3
Solid line
 72
    65
 73
     0
 40
0.0
  0
LTYPE
  2
PHANTOM2
 70
     0
  3
___ _ _ ___ _ _ ___ _ _ ___ _ _
 72
    65
 73
     6
 40
1.25
 49
0.625
 49
-0.125
 49
0.125
 49
-0.125
 49
0.125
 49
-0.125
  0
ENDTAB
  0
TABLE
  2
LAYER
 70
     2
  0
LAYER
  2
0
 70
     0
 62
   255
  6
CONTINUOUS
  0
LAYER
  2
DEFPOINTS
 70
     0
 62
     7
  6
CONTINUOUS
  0
ENDTAB
  0
TABLE
  2
STYLE
 70
     1
  0
STYLE
  2
STANDARD
 70
     0
 40
0.0
 41
0.8
 50
0.0
 71
     0
 42
0.2
  3
txt
  4

  0
ENDTAB
  0
TABLE
  2
VIEW
 70
     0
  0
ENDTAB
  0
TABLE
  2
UCS
 70
     0
  0
ENDTAB
  0
TABLE
  2
APPID
 70
     9
  0
APPID
  2
ACAD
 70
     0
  0
APPID
  2
ACAD_MLEADERVER
 70
     0
  0
APPID
  2
ACAD_EXEMPT_FROM_CAD_STANDARDS
 70
     0
  0
APPID
  2
ACAD_NAV_VCDISPLAY
 70
     0
  0
APPID
  2
ACAECLAYERSTANDARD
 70
     0
  0
APPID
  2
ACCMTRANSPARENCY
 70
     0
  0
APPID
  2
ACAD_DSTYLE_DIMJAG
 70
     0
  0
APPID
  2
ACAD_DSTYLE_DIMTALN
 70
     0
  0
APPID
  2
ACDBATTR
 70
     0
  0
ENDTAB
  0
TABLE
  2
DIMSTYLE
 70
     1
  0
DIMSTYLE
  2
STANDARD
 70
     0
  3

  4

  5

  6

  7

 40
1.0
 41
0.1875
 42
0.0625
 43
0.38
 44
0.125
 45
0.0
 46
0.0
 47
0.01
 48
0.01
140
0.15625
141
0.09
142
0.0
143
25.3999999999999986
144
1.0
145
0.0
146
1.0
147
0.09
 71
     1
 72
     0
 73
     1
 74
     1
 75
     0
 76
     0
 77
     0
 78
     4
170
     0
171
     2
172
     0
173
     0
174
     0
175
     0
176
     0
177
     0
178
     0
  0
ENDTAB
  0
ENDSEC
  0
SECTION
  2
BLOCKS
  0
BLOCK
  8
0
  2
$MODEL_SPACE
 70
     0
 10
0.0
 20
0.0
 30
0.0
  3
$MODEL_SPACE
  1

  0
ENDBLK
  5
21
  8
0
  0
BLOCK
 67
     1
  8
0
  2
$PAPER_SPACE
 70
     0
 10
0.0
 20
0.0
 30
0.0
  3
$PAPER_SPACE
  1

  0
ENDBLK
  5
1D
 67
     1
  8
0
  0
BLOCK
  8
0
  2
_FILLED
 70
     0
 10
0.0
 20
0.0
 30
0.0
  3
_FILLED
  1

  0
SOLID
  5
7E7B
  8
0
  6
BYBLOCK
 62
     0
 10
0.0
 20
0.0
 30
0.0
 11
-1.0
 21
0.1666666667
 31
0.0
 12
-1.0
 22
-0.1666666667
 32
0.0
 13
-1.0
 23
-0.1666666667
 33
0.0
  0
ENDBLK
  5
7E7C
  8
0
  6
BYBLOCK
 62
     0
  0
ENDSEC
  0
SECTION
  2
ENTITIES
  0
ATTDEF
  5
3930
  8
DEFPOINTS
 10
3165.9192448959170179
 20
195.8130412879719984
 30
0.0
 40
0.001
  1
P24421-CR
  3

  2
MODELNUMBER
 70
     0
1001
ACDBATTR
1070
     0
1070
     1
  0
ATTDEF
  5
3931
  8
DEFPOINTS
 10
3165.9192448959170179
 20
195.8113746213053048
 30
0.0
 40
0.001
  1
ONE
  3

  2
TRADENAME
 70
     0
1001
ACDBATTR
1070
     0
1070
     1
  0
ATTDEF
  5
3932
  8
DEFPOINTS
 10
3165.9192448959170179
 20
195.8097079546386112
 30
0.0
 40
0.001
  1
VALVE TRIM
  3

  2
PRODUCT
 70
     0
1001
ACDBATTR
1070
     0
1070
     1
  0
CIRCLE
  5
80FB
  8
0
 10
3165.9165299490268808
 20
195.8081878398708113
 30
0.0
 40
3.125
  0
ARC
  5
80FC
  8
0
 10
3165.9165299490268808
 20
195.8081878398708113
 30
0.0
 40
0.9
 50
101.6954533680188035
 51
168.3045324010456056
  0
ARC
  5
80FD
  8
0
 10
3165.8814885112069533
 20
195.8418947601543039
 30
0.0
 40
0.3064258159057232
 50
121.8598916451956029
 51
147.8716937525871913
  0
LINE
  5
80FE
  8
0
 10
3165.7349993041980269
 20
197.268713400710908
 30
0.0
 11
3165.733209928731867
 21
196.1272583628073107
 31
0.0
  0
ARC
  5
80FF
  8
0
 10
3165.7030298455561024
 20
196.127284385014292
 30
0.0
 40
0.0301800943950433
 50
303.6279416378158089
 51
359.9505978079645274
  0
ARC
  5
8100
  8
0
 10
3165.5967307191449436
 20
196.022075227333886
 30
0.0
 40
0.0305685862745613
 50
270.4321260793104216
 51
325.7185872355584024
  0
ARC
  5
8101
  8
0
 10
3164.4560816230427918
 20
195.9597185900649947
 30
0.0
 40
0.0299999938841739
 50
90.1475076753046238
 51
174.0764069371784046
  0
LINE
  5
8102
  8
0
 10
3164.4560043883061553
 20
195.9897184845289075
 30
0.0
 11
3165.5969612659368977
 21
195.9915075104580922
 31
0.0
  0
ARC
  5
8103
  8
0
 10
3165.7649992048868626
 20
197.2686361601519138
 30
0.0
 40
0.030000000124538
 50
95.9236035163289387
 51
179.8524813915547895
  0
ARC
  5
8104
  8
0
 10
3165.9165299493001839
 20
195.8081878451563114
 30
0.0
 40
1.4982884075145519
 50
84.0763966405527015
 51
95.9236033785434046
  0
ARC
  5
8105
  8
0
 10
3165.9165299490268808
 20
195.8081878398708113
 30
0.0
 40
0.9
 50
11.6954675989543802
 51
78.3045466319811254
  0
ARC
  5
8106
  8
0
 10
3165.9515713868468083
 20
195.8418947601543039
 30
0.0
 40
0.3064258159057232
 50
32.1283062474127519
 51
58.1401083548044113
  0
LINE
  5
8107
  8
0
 10
3166.0980605938561894
 20
197.268713400710908
 30
0.0
 11
3166.0998499693209851
 21
196.1272583628073107
 31
0.0
  0
ARC
  5
8108
  8
0
 10
3166.1300300524981139
 20
196.127284385014292
 30
0.0
 40
0.0301800943950433
 50
180.049402192035501
 51
236.3720583621841911
  0
ARC
  5
8109
  8
0
 10
3166.2363291789079085
 20
196.022075227333886
 30
0.0
 40
0.0305685862745613
 50
214.2814127644415123
 51
269.5678739206896921
  0
ARC
  5
810A
  8
0
 10
3167.3769782750100603
 20
195.9597185900649947
 30
0.0
 40
0.0299999938841739
 50
5.9235930628215741
 51
89.8524923246953762
  0
LINE
  5
810B
  8
0
 10
3167.377055509748061
 20
195.9897184845289075
 30
0.0
 11
3166.2360986321168639
 21
195.9915075104580922
 31
0.0
  0
ARC
  5
810C
  8
0
 10
3166.0680606931659895
 20
197.2686361601519138
 30
0.0
 40
0.030000000124538
 50
0.1475186084451565
 51
84.0763964836710755
  0
ARC
  5
810D
  8
0
 10
3165.9165299490268808
 20
195.8081878398708113
 30
0.0
 40
0.9
 50
191.6954675989543091
 51
258.3045466319811112
  0
ARC
  5
810E
  8
0
 10
3165.8814885112069533
 20
195.7744809195874041
 30
0.0
 40
0.3064258159057232
 50
212.1283062474128087
 51
238.1401083548043971
  0
LINE
  5
810F
  8
0
 10
3165.7349993041980269
 20
194.3476622790307999
 30
0.0
 11
3165.733209928731867
 21
195.4891173169343972
 31
0.0
  0
ARC
  5
8110
  8
0
 10
3165.7030298455561024
 20
195.4890912947273875
 30
0.0
 40
0.0301800943950433
 50
0.049402192035507
 51
56.3720583621841982
  0
ARC
  5
8111
  8
0
 10
3165.5967307191449436
 20
195.5943004524077935
 30
0.0
 40
0.0305685862745613
 50
34.2814127644415692
 51
89.5678739206896637
  0
ARC
  5
8112
  8
0
 10
3164.4560816230427918
 20
195.6566570896767132
 30
0.0
 40
0.0299999938841739
 50
185.9235930628215954
 51
269.8524923246953904
  0
LINE
  5
8113
  8
0
 10
3164.4560043883061553
 20
195.6266571952128004
 30
0.0
 11
3165.5969612659368977
 21
195.624868169283701
 31
0.0
  0
ARC
  5
8114
  8
0
 10
3165.7649992048868626
 20
194.3477395195897941
 30
0.0
 40
0.030000000124538
 50
180.1475186084450968
 51
264.0763964836709761
  0
ARC
  5
8115
  8
0
 10
3165.9165299493001839
 20
195.8081878345853966
 30
0.0
 40
1.4982884075145519
 50
264.0763966214565812
 51
275.923603359447327
  0
ARC
  5
8116
  8
0
 10
3165.9165299490268808
 20
195.8081878398708113
 30
0.0
 40
0.9
 50
281.6954533680188888
 51
348.3045324010456056
  0
ARC
  5
8117
  8
0
 10
3165.9515713868468083
 20
195.7744809195874041
 30
0.0
 40
0.3064258159057232
 50
301.8598916451954892
 51
327.871693752587305
  0
LINE
  5
8118
  8
0
 10
3166.0980605938561894
 20
194.3476622790307999
 30
0.0
 11
3166.0998499693209851
 21
195.4891173169343972
 31
0.0
  0
ARC
  5
8119
  8
0
 10
3166.1300300524981139
 20
195.4890912947273875
 30
0.0
 40
0.0301800943950433
 50
123.6279416378157947
 51
179.950597807964499
  0
ARC
  5
811A
  8
0
 10
3166.2363291789079085
 20
195.5943004524077935
 30
0.0
 40
0.0305685862745613
 50
90.4321260793103221
 51
145.7185872355584024
  0
ARC
  5
811B
  8
0
 10
3167.3769782750100603
 20
195.6566570896767132
 30
0.0
 40
0.0299999938841739
 50
270.1475076753046096
 51
354.0764069371784899
  0
LINE
  5
811C
  8
0
 10
3167.377055509748061
 20
195.6266571952128004
 30
0.0
 11
3166.2360986321168639
 21
195.624868169283701
 31
0.0
  0
ARC
  5
811D
  8
0
 10
3166.0680606931659895
 20
194.3477395195897941
 30
0.0
 40
0.030000000124538
 50
275.9236035163290239
 51
359.8524813915548748
  0
ARC
  5
811E
  8
0
 10
3165.9165299384549144
 20
195.8081878398708113
 30
0.0
 40
1.4982884022290599
 50
174.0763966091338943
 51
185.9236033923901914
  0
ARC
  5
811F
  8
0
 10
3165.9165299490268808
 20
195.8081878398708966
 30
0.0
 40
1.4982884127999949
 50
354.0763966509989018
 51
5.923603346866364
  0
ENDSEC
  0
EOF
