  0
SECTION
  2
HEADER
  9
$ACADVER
  1
AC1009
  9
$INSBASE
 10
3159.8031101269712053
 20
192.8279442848651968
 30
0.0
  9
$EXTMIN
 10
3156.6781101269712053
 20
189.5483549366753095
 30
0.0
  9
$EXTMAX
 10
3162.9281101269712053
 20
192.8349525938351121
 30
0.0
  9
$LIMMIN
 10
0.0
 20
0.0
  9
$LIMMAX
 10
11.6929133858000007
 20
8.2677165353999982
  9
$ORTHOMODE
 70
     0
  9
$REGENMODE
 70
     1
  9
$FILLMODE
 70
     1
  9
$QTEXTMODE
 70
     0
  9
$MIRRTEXT
 70
     0
  9
$DRAGMODE
 70
     2
  9
$LTSCALE
 40
0.6431102362
  9
$OSMODE
 70
  4095
  9
$ATTMODE
 70
     1
  9
$TEXTSIZE
 40
0.2
  9
$TRACEWID
 40
0.05
  9
$TEXTSTYLE
  7
STANDARD
  9
$CLAYER
  8
0
  9
$CELTYPE
  6
BYLAYER
  9
$CECOLOR
 62
   256
  9
$DIMSCALE
 40
1.0
  9
$DIMASZ
 40
0.1875
  9
$DIMEXO
 40
0.0625
  9
$DIMDLI
 40
0.4443307087
  9
$DIMRND
 40
0.0
  9
$DIMDLE
 40
0.0
  9
$DIMEXE
 40
0.125
  9
$DIMTP
 40
0.01
  9
$DIMTM
 40
0.01
  9
$DIMTXT
 40
2.0
  9
$DIMCEN
 40
0.1052362205
  9
$DIMTSZ
 40
0.0
  9
$DIMTOL
 70
     1
  9
$DIMLIM
 70
     0
  9
$DIMTIH
 70
     1
  9
$DIMTOH
 70
     1
  9
$DIMSE1
 70
     0
  9
$DIMSE2
 70
     0
  9
$DIMTAD
 70
     0
  9
$DIMZIN
 70
     0
  9
$DIMBLK
  1

  9
$DIMASO
 70
     1
  9
$DIMSHO
 70
     1
  9
$DIMPOST
  1
\X
  9
$DIMAPOST
  1

  9
$DIMALT
 70
     1
  9
$DIMALTD
 70
     2
  9
$DIMALTF
 40
25.3999999999999986
  9
$DIMLFAC
 40
1.0
  9
$DIMTOFL
 70
     0
  9
$DIMTVP
 40
0.0
  9
$DIMTIX
 70
     0
  9
$DIMSOXD
 70
     0
  9
$DIMSAH
 70
     0
  9
$DIMBLK1
  1

  9
$DIMBLK2
  1

  9
$DIMSTYLE
  2
STANDARD
  9
$DIMCLRD
 70
     0
  9
$DIMCLRE
 70
     0
  9
$DIMCLRT
 70
     0
  9
$DIMTFAC
 40
1.0
  9
$DIMGAP
 40
0.09
  9
$LUNITS
 70
     2
  9
$LUPREC
 70
     4
  9
$SKETCHINC
 40
0.1
  9
$FILLETRAD
 40
0.0
  9
$AUNITS
 70
     0
  9
$AUPREC
 70
     0
  9
$MENU
  1
.
  9
$ELEVATION
 40
0.0
  9
$PELEVATION
 40
0.0
  9
$THICKNESS
 40
0.0
  9
$LIMCHECK
 70
     0
  9
$BLIPMODE
 70
     0
  9
$CHAMFERA
 40
0.0
  9
$CHAMFERB
 40
0.0
  9
$SKPOLY
 70
     0
  9
$TDCREATE
 40
2458060.468368056230247
  9
$TDUPDATE
 40
2459485.8314814809709787
  9
$TDINDWG
 40
0.3917084491
  9
$TDUSRTIMER
 40
0.3917084491
  9
$USRTIMER
 70
     1
  9
$ANGBASE
 50
0.0
  9
$ANGDIR
 70
     0
  9
$PDMODE
 70
     0
  9
$PDSIZE
 40
0.3125
  9
$PLINEWID
 40
0.0
  9
$COORDS
 70
     1
  9
$SPLFRAME
 70
     0
  9
$SPLINETYPE
 70
     6
  9
$SPLINESEGS
 70
     8
  9
$ATTDIA
 70
     1
  9
$ATTREQ
 70
     1
  9
$HANDLING
 70
     1
  9
$HANDSEED
  5
818F
  9
$SURFTAB1
 70
     6
  9
$SURFTAB2
 70
     6
  9
$SURFTYPE
 70
     6
  9
$SURFU
 70
     6
  9
$SURFV
 70
     6
  9
$UCSNAME
  2

  9
$UCSORG
 10
0.0
 20
0.0
 30
0.0
  9
$UCSXDIR
 10
1.0
 20
0.0
 30
0.0
  9
$UCSYDIR
 10
0.0
 20
1.0
 30
0.0
  9
$PUCSNAME
  2

  9
$PUCSORG
 10
0.0
 20
0.0
 30
0.0
  9
$PUCSXDIR
 10
1.0
 20
0.0
 30
0.0
  9
$PUCSYDIR
 10
0.0
 20
1.0
 30
0.0
  9
$USERI1
 70
     0
  9
$USERI2
 70
     0
  9
$USERI3
 70
     0
  9
$USERI4
 70
     0
  9
$USERI5
 70
     0
  9
$USERR1
 40
0.0
  9
$USERR2
 40
0.0
  9
$USERR3
 40
0.0
  9
$USERR4
 40
0.0
  9
$USERR5
 40
0.0
  9
$WORLDVIEW
 70
     1
  9
$SHADEDGE
 70
     3
  9
$SHADEDIF
 70
    70
  9
$TILEMODE
 70
     1
  9
$MAXACTVP
 70
    64
  9
$PLIMCHECK
 70
     0
  9
$PEXTMIN
 10
1.0000000000000000E+20
 20
1.0000000000000000E+20
 30
1.0000000000000000E+20
  9
$PEXTMAX
 10
-1.0000000000000000E+20
 20
-1.0000000000000000E+20
 30
-1.0000000000000000E+20
  9
$PLIMMIN
 10
0.0
 20
0.0
  9
$PLIMMAX
 10
12.0
 20
9.0
  9
$UNITMODE
 70
     0
  9
$VISRETAIN
 70
     1
  9
$PLINEGEN
 70
     0
  9
$PSLTSCALE
 70
     1
  0
ENDSEC
  0
SECTION
  2
TABLES
  0
TABLE
  2
VPORT
 70
     1
  0
VPORT
  2
*ACTIVE
 70
     0
 10
0.0
 20
0.0
 11
1.0
 21
1.0
 12
104.3963090968188965
 22
-9.8201491909848748
 13
0.0
 23
0.0
 14
1.0
 24
1.0
 15
0.0
 25
0.0
 16
0.0
 26
0.0
 36
95.5902297660485658
 17
3089.811279296875
 27
197.161570589386713
 37
0.0
 40
34.586312877164147
 41
2.5410052910052912
 42
50.0
 43
0.0
 44
0.0
 50
0.0
 51
0.0
 71
     0
 72
   100
 73
     1
 74
     1
 75
     0
 76
     0
 77
     0
 78
     0
  0
ENDTAB
  0
TABLE
  2
LTYPE
 70
     2
  0
LTYPE
  2
CONTINUOUS
 70
     0
  3
Solid line
 72
    65
 73
     0
 40
0.0
  0
LTYPE
  2
PHANTOM2
 70
     0
  3
___ _ _ ___ _ _ ___ _ _ ___ _ _
 72
    65
 73
     6
 40
1.25
 49
0.625
 49
-0.125
 49
0.125
 49
-0.125
 49
0.125
 49
-0.125
  0
ENDTAB
  0
TABLE
  2
LAYER
 70
     2
  0
LAYER
  2
0
 70
     0
 62
   255
  6
CONTINUOUS
  0
LAYER
  2
DEFPOINTS
 70
     0
 62
     7
  6
CONTINUOUS
  0
ENDTAB
  0
TABLE
  2
STYLE
 70
     1
  0
STYLE
  2
STANDARD
 70
     0
 40
0.0
 41
0.8
 50
0.0
 71
     0
 42
0.2
  3
txt
  4

  0
ENDTAB
  0
TABLE
  2
VIEW
 70
     0
  0
ENDTAB
  0
TABLE
  2
UCS
 70
     0
  0
ENDTAB
  0
TABLE
  2
APPID
 70
     9
  0
APPID
  2
ACAD
 70
     0
  0
APPID
  2
ACAD_MLEADERVER
 70
     0
  0
APPID
  2
ACAD_EXEMPT_FROM_CAD_STANDARDS
 70
     0
  0
APPID
  2
ACAD_NAV_VCDISPLAY
 70
     0
  0
APPID
  2
ACAECLAYERSTANDARD
 70
     0
  0
APPID
  2
ACCMTRANSPARENCY
 70
     0
  0
APPID
  2
ACAD_DSTYLE_DIMJAG
 70
     0
  0
APPID
  2
ACAD_DSTYLE_DIMTALN
 70
     0
  0
APPID
  2
ACDBATTR
 70
     0
  0
ENDTAB
  0
TABLE
  2
DIMSTYLE
 70
     1
  0
DIMSTYLE
  2
STANDARD
 70
     0
  3

  4

  5

  6

  7

 40
1.0
 41
0.1875
 42
0.0625
 43
0.38
 44
0.125
 45
0.0
 46
0.0
 47
0.01
 48
0.01
140
0.15625
141
0.09
142
0.0
143
25.3999999999999986
144
1.0
145
0.0
146
1.0
147
0.09
 71
     1
 72
     0
 73
     1
 74
     1
 75
     0
 76
     0
 77
     0
 78
     4
170
     0
171
     2
172
     0
173
     0
174
     0
175
     0
176
     0
177
     0
178
     0
  0
ENDTAB
  0
ENDSEC
  0
SECTION
  2
BLOCKS
  0
BLOCK
  8
0
  2
$MODEL_SPACE
 70
     0
 10
0.0
 20
0.0
 30
0.0
  3
$MODEL_SPACE
  1

  0
ENDBLK
  5
21
  8
0
  0
BLOCK
 67
     1
  8
0
  2
$PAPER_SPACE
 70
     0
 10
0.0
 20
0.0
 30
0.0
  3
$PAPER_SPACE
  1

  0
ENDBLK
  5
1D
 67
     1
  8
0
  0
BLOCK
  8
0
  2
_FILLED
 70
     0
 10
0.0
 20
0.0
 30
0.0
  3
_FILLED
  1

  0
SOLID
  5
7E7B
  8
0
  6
BYBLOCK
 62
     0
 10
0.0
 20
0.0
 30
0.0
 11
-1.0
 21
0.1666666667
 31
0.0
 12
-1.0
 22
-0.1666666667
 32
0.0
 13
-1.0
 23
-0.1666666667
 33
0.0
  0
ENDBLK
  5
7E7C
  8
0
  6
BYBLOCK
 62
     0
  0
ENDSEC
  0
SECTION
  2
ENTITIES
  0
ATTDEF
  5
3930
  8
DEFPOINTS
 10
3159.8083268020700416
 20
192.8339525938349936
 30
0.0
 40
0.001
  1
P24421-CR
  3

  2
MODELNUMBER
 70
     0
1001
ACDBATTR
1070
     0
1070
     1
  0
ATTDEF
  5
3931
  8
DEFPOINTS
 10
3159.8083268020700416
 20
192.8322859271683001
 30
0.0
 40
0.001
  1
ONE
  3

  2
TRADENAME
 70
     0
1001
ACDBATTR
1070
     0
1070
     1
  0
ATTDEF
  5
3932
  8
DEFPOINTS
 10
3159.8083268020700416
 20
192.8306192605016065
 30
0.0
 40
0.001
  1
VALVE TRIM
  3

  2
PRODUCT
 70
     0
1001
ACDBATTR
1070
     0
1070
     1
  0
LINE
  5
8095
  8
0
 10
3156.6891282999122268
 20
192.1967180827176094
 30
0.0
 11
3156.6781101269712053
 21
192.827939816997997
 31
0.0
  0
LINE
  5
8096
  8
0
 10
3156.6781101269712053
 20
192.827939816997997
 30
0.0
 11
3162.9281101269712053
 21
192.8279487527323113
 31
0.0
  0
LINE
  5
8097
  8
0
 10
3162.9281101269712053
 20
192.8279487527323113
 30
0.0
 11
3162.9170921117311082
 21
192.1967270842324069
 31
0.0
  0
LINE
  5
8098
  8
0
 10
3162.847614857021199
 20
192.1279487527322942
 30
0.0
 11
3156.7596295647208535
 21
192.1279487527322942
 31
0.0
  0
ARC
  5
8099
  8
0
 10
3156.7591206945689919
 20
192.1979501407346049
 30
0.0
 40
0.0700032375757027
 50
181.0084586756958061
 51
270.4165002915439118
  0
ARC
  5
809A
  8
0
 10
3162.8470995014467917
 20
192.1979501512612956
 30
0.0
 40
0.0700032955465048
 50
270.4218082284467073
 51
358.9989021665342079
  0
LINE
  5
809B
  8
0
 10
3160.7036222108208676
 20
192.1279487527322942
 30
0.0
 11
3160.7031101269722058
 21
190.8879487527323988
 31
0.0
  0
LINE
  5
809C
  8
0
 10
3160.6736222108211223
 20
190.8579487527323124
 30
0.0
 11
3158.9336222108217953
 21
190.8579487527323124
 31
0.0
  0
LINE
  5
809D
  8
0
 10
3158.9031101269711144
 20
190.8879487527323988
 30
0.0
 11
3158.9031101269711144
 21
192.1279487527322942
 31
0.0
  0
ARC
  5
809E
  8
0
 10
3158.9331174375829505
 20
190.8879518176343879
 30
0.0
 40
0.0300073107682518
 50
180.0058521057551957
 51
270.9638564593686851
  0
ARC
  5
809F
  8
0
 10
3160.6731024421328584
 20
190.8879519358964956
 30
0.0
 40
0.0300076850068283
 50
270.9924804756985282
 51
359.9939221612744973
  0
ARC
  5
80A0
  8
0
 10
3159.4781101269709325
 20
190.5779487527323965
 30
0.0
 40
0.0300000000000011
 50
180.0000000000032117
 51
270.0
  0
ARC
  5
80A1
  8
0
 10
3160.1281101269710234
 20
190.5779487527323965
 30
0.0
 40
0.0300000000000011
 50
270.0
 51
0.0
  0
LINE
  5
80A2
  8
0
 10
3160.158110126972133
 20
190.5779487527323965
 30
0.0
 11
3160.158110126972133
 21
190.8579487527323124
 31
0.0
  0
LINE
  5
80A3
  8
0
 10
3160.158110126972133
 20
190.8579487527323124
 30
0.0
 11
3160.158110126972133
 21
190.5779487527323965
 31
0.0
  0
LINE
  5
80A4
  8
0
 10
3160.1281101269710234
 20
190.5479487527323101
 30
0.0
 11
3159.4781101269709325
 21
190.5479487527323101
 31
0.0
  0
LINE
  5
80A5
  8
0
 10
3159.4481101269711871
 20
190.5779487527323965
 30
0.0
 11
3159.4481101269711871
 21
190.8579487527323124
 31
0.0
  0
LINE
  5
80A6
  8
0
 10
3158.3864081902711405
 20
190.5279487527322999
 30
0.0
 11
3161.219997879129096
 21
190.5279487527322999
 31
0.0
  0
LINE
  5
80A7
  8
0
 10
3159.5031101269710234
 20
190.5279487527322999
 30
0.0
 11
3159.5031101269710234
 21
190.5479487527323101
 31
0.0
  0
LINE
  5
80A8
  8
0
 10
3160.103110126971842
 20
190.5279487527322999
 30
0.0
 11
3160.103110126971842
 21
190.5479487527323101
 31
0.0
  0
LINE
  5
80A9
  8
0
 10
3158.3048217141717942
 20
189.6151813576323946
 30
0.0
 11
3158.3564592830871334
 21
190.4996988837322931
 31
0.0
  0
ARC
  5
80AA
  8
0
 10
3158.3864081902711405
 20
190.4979487527324125
 30
0.0
 40
0.0299999999999976
 50
90.0
 51
176.6555971810981021
  0
ARC
  5
80AB
  8
0
 10
3161.2198110228368932
 20
190.4979482671282938
 30
0.0
 40
0.0300010675102338
 50
3.34521267050058
 51
89.6431411600354693
  0
ARC
  5
80AC
  8
0
 10
3159.6515636394578905
 20
189.6152027251791026
 30
0.0
 40
0.0299831434785907
 50
177.1162381364468956
 51
269.7302350953327164
  0
ARC
  5
80AD
  8
0
 10
3159.6529275231469001
 20
189.5812895025673015
 30
0.0
 40
0.0330999989474522
 50
179.3824572886092881
 51
264.2691923077151159
  0
ARC
  5
80AE
  8
0
 10
3159.5396473052010151
 20
189.5791500168107859
 30
0.0
 40
0.0305111303574754
 50
178.854807165874405
 51
259.0045198916254776
  0
ARC
  5
80AF
  8
0
 10
3159.6966186433792245
 20
190.4979484705069979
 30
0.0
 40
0.0300002822255398
 50
90.0002057044724637
 51
177.0787469138869028
  0
ARC
  5
80B0
  8
0
 10
3159.5134460080312238
 20
190.4990921018458891
 30
0.0
 40
0.0289148392616303
 50
93.6575787249353056
 51
182.2664548697107989
  0
ARC
  5
80B1
  8
0
 10
3264.4206364532601583
 20
192.8486429741361974
 30
0.0
 40
104.9624085520774059
 50
181.2832796905800024
 51
181.7846722541081874
  0
LINE
  5
80B2
  8
0
 10
3159.6198294467722008
 20
189.5816462525322947
 30
0.0
 11
3159.666657345871954
 21
190.4994773868324103
 31
0.0
  0
ARC
  5
80B3
  8
0
 10
3158.3348217143520742
 20
189.615181357809206
 30
0.0
 40
0.0300000001807286
 50
180.0000003377930113
 51
267.0948284245318973
  0
ARC
  5
80B4
  8
0
 10
3159.803110126978936
 20
218.5479487538848957
 30
0.0
 40
29.000000001152511
 50
269.467966946246122
 51
269.696750206373224
  0
ARC
  5
80B5
  8
0
 10
3159.8031101269730243
 20
218.5479487527661888
 30
0.0
 40
29.0000000000338609
 50
267.0948295503087024
 51
267.9693565143522278
  0
ARC
  5
80B6
  8
0
 10
3159.8031101269712053
 20
218.5479487527454978
 30
0.0
 40
29.0000000000131308
 50
267.9693565143522278
 51
269.4679669462200877
  0
LINE
  5
80B7
  8
0
 10
3161.3013985397710712
 20
189.6151680373203021
 30
0.0
 11
3161.2497610003551927
 21
190.4996988837322931
 31
0.0
  0
ARC
  5
80B8
  8
0
 10
3161.2198120931711856
 20
190.4979487527324125
 30
0.0
 40
0.0299999999999976
 50
3.3444028189018589
 51
90.0
  0
ARC
  5
80B9
  8
0
 10
3159.9546566439839808
 20
189.6152027251791026
 30
0.0
 40
0.0299831434785907
 50
270.2697649046672836
 51
2.8837618635530751
  0
ARC
  5
80BA
  8
0
 10
3159.9532927602958807
 20
189.5812895025673015
 30
0.0
 40
0.0330999989474522
 50
275.7308076922848841
 51
0.6175427113906867
  0
ARC
  5
80BB
  8
0
 10
3160.0665729782422204
 20
189.5791500168107859
 30
0.0
 40
0.0305111303574754
 50
280.9954801083745224
 51
1.1451928341255899
  0
ARC
  5
80BC
  8
0
 10
3159.909601640064011
 20
190.4979484705069979
 30
0.0
 40
0.0300002822255398
 50
2.9212530861130439
 51
89.9997942955275221
  0
ARC
  5
80BD
  8
0
 10
3160.0927742754120118
 20
190.4990921018458891
 30
0.0
 40
0.0289148392616303
 50
357.7335451302892011
 51
86.3424212750647371
  0
ARC
  5
80BE
  8
0
 10
3055.1855838301821677
 20
192.8486429741363111
 30
0.0
 40
104.9624085520774059
 50
358.2153277458917842
 51
358.7167203094199976
  0
LINE
  5
80BF
  8
0
 10
3159.9863908366710348
 20
189.5816462525322947
 30
0.0
 11
3159.939562937572191
 21
190.4994773868324103
 31
0.0
  0
ARC
  5
80C0
  8
0
 10
3161.2713985923228392
 20
189.6151813091273084
 30
0.0
 40
0.0299999503838521
 50
272.9051319738102279
 51
359.9746526730201026
  0
ARC
  5
80C1
  8
0
 10
3159.8031101564638448
 20
218.5479487538848957
 30
0.0
 40
29.000000001152511
 50
270.303249793626776
 51
270.5320330537538212
  0
ARC
  5
80C2
  8
0
 10
3159.803110156468847
 20
218.5479487527661888
 30
0.0
 40
29.0000000000338609
 50
272.0306434856477154
 51
272.9051704496912976
  0
ARC
  5
80C3
  8
0
 10
3159.8031101564711207
 20
218.5479487527454978
 30
0.0
 40
29.0000000000131308
 50
270.5320330537797986
 51
272.0306434856477154
  0
LINE
  5
80C4
  8
0
 10
3159.9565979530689219
 20
189.5483549366753095
 30
0.0
 11
3159.6496223302851831
 21
189.5483549366757074
 31
0.0
  0
LINE
  5
80C5
  8
0
 10
3159.9547978126711314
 20
189.585219914032308
 30
0.0
 11
3159.6514224707648282
 21
189.585219914032308
 31
0.0
  0
ENDSEC
  0
EOF
