  0
SECTION
  2
HEADER
  9
$ACADVER
  1
AC1009
  9
$INSBASE
 10
3179.7121616058698237
 20
193.5692276925344117
 30
0.0
  9
$EXTMIN
 10
3176.4325677898132199
 20
190.4442276925344117
 30
0.0
  9
$EXTMAX
 10
3179.7238247541158671
 20
196.6942276925344117
 30
0.0
  9
$LIMMIN
 10
0.0
 20
0.0
  9
$LIMMAX
 10
11.6929133858000007
 20
8.2677165353999982
  9
$ORTHOMODE
 70
     0
  9
$REGENMODE
 70
     1
  9
$FILLMODE
 70
     1
  9
$QTEXTMODE
 70
     0
  9
$MIRRTEXT
 70
     0
  9
$DRAGMODE
 70
     2
  9
$LTSCALE
 40
0.6431102362
  9
$OSMODE
 70
  4095
  9
$ATTMODE
 70
     1
  9
$TEXTSIZE
 40
0.2
  9
$TRACEWID
 40
0.05
  9
$TEXTSTYLE
  7
STANDARD
  9
$CLAYER
  8
0
  9
$CELTYPE
  6
BYLAYER
  9
$CECOLOR
 62
   256
  9
$DIMSCALE
 40
1.0
  9
$DIMASZ
 40
0.1875
  9
$DIMEXO
 40
0.0625
  9
$DIMDLI
 40
0.4443307087
  9
$DIMRND
 40
0.0
  9
$DIMDLE
 40
0.0
  9
$DIMEXE
 40
0.125
  9
$DIMTP
 40
0.01
  9
$DIMTM
 40
0.01
  9
$DIMTXT
 40
2.0
  9
$DIMCEN
 40
0.1052362205
  9
$DIMTSZ
 40
0.0
  9
$DIMTOL
 70
     1
  9
$DIMLIM
 70
     0
  9
$DIMTIH
 70
     1
  9
$DIMTOH
 70
     1
  9
$DIMSE1
 70
     0
  9
$DIMSE2
 70
     0
  9
$DIMTAD
 70
     0
  9
$DIMZIN
 70
     0
  9
$DIMBLK
  1

  9
$DIMASO
 70
     1
  9
$DIMSHO
 70
     1
  9
$DIMPOST
  1
\X
  9
$DIMAPOST
  1

  9
$DIMALT
 70
     1
  9
$DIMALTD
 70
     2
  9
$DIMALTF
 40
25.3999999999999986
  9
$DIMLFAC
 40
1.0
  9
$DIMTOFL
 70
     0
  9
$DIMTVP
 40
0.0
  9
$DIMTIX
 70
     0
  9
$DIMSOXD
 70
     0
  9
$DIMSAH
 70
     0
  9
$DIMBLK1
  1

  9
$DIMBLK2
  1

  9
$DIMSTYLE
  2
STANDARD
  9
$DIMCLRD
 70
     0
  9
$DIMCLRE
 70
     0
  9
$DIMCLRT
 70
     0
  9
$DIMTFAC
 40
1.0
  9
$DIMGAP
 40
0.09
  9
$LUNITS
 70
     2
  9
$LUPREC
 70
     4
  9
$SKETCHINC
 40
0.1
  9
$FILLETRAD
 40
0.0
  9
$AUNITS
 70
     0
  9
$AUPREC
 70
     0
  9
$MENU
  1
.
  9
$ELEVATION
 40
0.0
  9
$PELEVATION
 40
0.0
  9
$THICKNESS
 40
0.0
  9
$LIMCHECK
 70
     0
  9
$BLIPMODE
 70
     0
  9
$CHAMFERA
 40
0.0
  9
$CHAMFERB
 40
0.0
  9
$SKPOLY
 70
     0
  9
$TDCREATE
 40
2458060.468368056230247
  9
$TDUPDATE
 40
2459485.8313773148693144
  9
$TDINDWG
 40
0.3922061343
  9
$TDUSRTIMER
 40
0.3922061343
  9
$USRTIMER
 70
     1
  9
$ANGBASE
 50
0.0
  9
$ANGDIR
 70
     0
  9
$PDMODE
 70
     0
  9
$PDSIZE
 40
0.3125
  9
$PLINEWID
 40
0.0
  9
$COORDS
 70
     1
  9
$SPLFRAME
 70
     0
  9
$SPLINETYPE
 70
     6
  9
$SPLINESEGS
 70
     8
  9
$ATTDIA
 70
     1
  9
$ATTREQ
 70
     1
  9
$HANDLING
 70
     1
  9
$HANDSEED
  5
8197
  9
$SURFTAB1
 70
     6
  9
$SURFTAB2
 70
     6
  9
$SURFTYPE
 70
     6
  9
$SURFU
 70
     6
  9
$SURFV
 70
     6
  9
$UCSNAME
  2

  9
$UCSORG
 10
0.0
 20
0.0
 30
0.0
  9
$UCSXDIR
 10
1.0
 20
0.0
 30
0.0
  9
$UCSYDIR
 10
0.0
 20
1.0
 30
0.0
  9
$PUCSNAME
  2

  9
$PUCSORG
 10
0.0
 20
0.0
 30
0.0
  9
$PUCSXDIR
 10
1.0
 20
0.0
 30
0.0
  9
$PUCSYDIR
 10
0.0
 20
1.0
 30
0.0
  9
$USERI1
 70
     0
  9
$USERI2
 70
     0
  9
$USERI3
 70
     0
  9
$USERI4
 70
     0
  9
$USERI5
 70
     0
  9
$USERR1
 40
0.0
  9
$USERR2
 40
0.0
  9
$USERR3
 40
0.0
  9
$USERR4
 40
0.0
  9
$USERR5
 40
0.0
  9
$WORLDVIEW
 70
     1
  9
$SHADEDGE
 70
     3
  9
$SHADEDIF
 70
    70
  9
$TILEMODE
 70
     1
  9
$MAXACTVP
 70
    64
  9
$PLIMCHECK
 70
     0
  9
$PEXTMIN
 10
1.0000000000000000E+20
 20
1.0000000000000000E+20
 30
1.0000000000000000E+20
  9
$PEXTMAX
 10
-1.0000000000000000E+20
 20
-1.0000000000000000E+20
 30
-1.0000000000000000E+20
  9
$PLIMMIN
 10
0.0
 20
0.0
  9
$PLIMMAX
 10
12.0
 20
9.0
  9
$UNITMODE
 70
     0
  9
$VISRETAIN
 70
     1
  9
$PLINEGEN
 70
     0
  9
$PSLTSCALE
 70
     1
  0
ENDSEC
  0
SECTION
  2
TABLES
  0
TABLE
  2
VPORT
 70
     1
  0
VPORT
  2
*ACTIVE
 70
     0
 10
0.0
 20
0.0
 11
1.0
 21
1.0
 12
98.3198267327530715
 22
-5.676325196121609
 13
0.0
 23
0.0
 14
1.0
 24
1.0
 15
0.0
 25
0.0
 16
0.0
 26
0.0
 36
95.5902297660485658
 17
3089.811279296875
 27
197.161570589386713
 37
0.0
 40
22.0669729668739798
 41
2.5410052910052912
 42
50.0
 43
0.0
 44
0.0
 50
0.0
 51
0.0
 71
     0
 72
   100
 73
     1
 74
     1
 75
     0
 76
     0
 77
     0
 78
     0
  0
ENDTAB
  0
TABLE
  2
LTYPE
 70
     2
  0
LTYPE
  2
CONTINUOUS
 70
     0
  3
Solid line
 72
    65
 73
     0
 40
0.0
  0
LTYPE
  2
PHANTOM2
 70
     0
  3
___ _ _ ___ _ _ ___ _ _ ___ _ _
 72
    65
 73
     6
 40
1.25
 49
0.625
 49
-0.125
 49
0.125
 49
-0.125
 49
0.125
 49
-0.125
  0
ENDTAB
  0
TABLE
  2
LAYER
 70
     2
  0
LAYER
  2
0
 70
     0
 62
   255
  6
CONTINUOUS
  0
LAYER
  2
DEFPOINTS
 70
     0
 62
     7
  6
CONTINUOUS
  0
ENDTAB
  0
TABLE
  2
STYLE
 70
     1
  0
STYLE
  2
STANDARD
 70
     0
 40
0.0
 41
0.8
 50
0.0
 71
     0
 42
0.2
  3
txt
  4

  0
ENDTAB
  0
TABLE
  2
VIEW
 70
     0
  0
ENDTAB
  0
TABLE
  2
UCS
 70
     0
  0
ENDTAB
  0
TABLE
  2
APPID
 70
     9
  0
APPID
  2
ACAD
 70
     0
  0
APPID
  2
ACAD_MLEADERVER
 70
     0
  0
APPID
  2
ACAD_EXEMPT_FROM_CAD_STANDARDS
 70
     0
  0
APPID
  2
ACAD_NAV_VCDISPLAY
 70
     0
  0
APPID
  2
ACAECLAYERSTANDARD
 70
     0
  0
APPID
  2
ACCMTRANSPARENCY
 70
     0
  0
APPID
  2
ACAD_DSTYLE_DIMJAG
 70
     0
  0
APPID
  2
ACAD_DSTYLE_DIMTALN
 70
     0
  0
APPID
  2
ACDBATTR
 70
     0
  0
ENDTAB
  0
TABLE
  2
DIMSTYLE
 70
     1
  0
DIMSTYLE
  2
STANDARD
 70
     0
  3

  4

  5

  6

  7

 40
1.0
 41
0.1875
 42
0.0625
 43
0.38
 44
0.125
 45
0.0
 46
0.0
 47
0.01
 48
0.01
140
0.15625
141
0.09
142
0.0
143
25.3999999999999986
144
1.0
145
0.0
146
1.0
147
0.09
 71
     1
 72
     0
 73
     1
 74
     1
 75
     0
 76
     0
 77
     0
 78
     4
170
     0
171
     2
172
     0
173
     0
174
     0
175
     0
176
     0
177
     0
178
     0
  0
ENDTAB
  0
ENDSEC
  0
SECTION
  2
BLOCKS
  0
BLOCK
  8
0
  2
$MODEL_SPACE
 70
     0
 10
0.0
 20
0.0
 30
0.0
  3
$MODEL_SPACE
  1

  0
ENDBLK
  5
21
  8
0
  0
BLOCK
 67
     1
  8
0
  2
$PAPER_SPACE
 70
     0
 10
0.0
 20
0.0
 30
0.0
  3
$PAPER_SPACE
  1

  0
ENDBLK
  5
1D
 67
     1
  8
0
  0
BLOCK
  8
0
  2
_FILLED
 70
     0
 10
0.0
 20
0.0
 30
0.0
  3
_FILLED
  1

  0
SOLID
  5
7E7B
  8
0
  6
BYBLOCK
 62
     0
 10
0.0
 20
0.0
 30
0.0
 11
-1.0
 21
0.1666666667
 31
0.0
 12
-1.0
 22
-0.1666666667
 32
0.0
 13
-1.0
 23
-0.1666666667
 33
0.0
  0
ENDBLK
  5
7E7C
  8
0
  6
BYBLOCK
 62
     0
  0
ENDSEC
  0
SECTION
  2
ENTITIES
  0
ATTDEF
  5
3930
  8
DEFPOINTS
 10
3179.7131580874470274
 20
193.5729493329824891
 30
0.0
 40
0.001
  1
P24421-CR
  3

  2
MODELNUMBER
 70
     0
1001
ACDBATTR
1070
     0
1070
     1
  0
ATTDEF
  5
3931
  8
DEFPOINTS
 10
3179.7131580874470274
 20
193.5712826663157955
 30
0.0
 40
0.001
  1
ONE
  3

  2
TRADENAME
 70
     0
1001
ACDBATTR
1070
     0
1070
     1
  0
ATTDEF
  5
3932
  8
DEFPOINTS
 10
3179.7131580874470274
 20
193.5696159996491019
 30
0.0
 40
0.001
  1
VALVE TRIM
  3

  2
PRODUCT
 70
     0
1001
ACDBATTR
1070
     0
1070
     1
  0
LINE
  5
809B
  8
0
 10
3179.0809399374188615
 20
196.6832096773352987
 30
0.0
 11
3179.7121616058698237
 21
196.6942276925344117
 31
0.0
  0
LINE
  5
809C
  8
0
 10
3179.7121616058698237
 20
196.6942276925344117
 30
0.0
 11
3179.7121616058698237
 21
190.4442276925344117
 31
0.0
  0
LINE
  5
809D
  8
0
 10
3179.7121616058698237
 20
190.4442276925344117
 30
0.0
 11
3179.6321616058698964
 21
190.4466487235343948
 31
0.0
  0
LINE
  5
809E
  8
0
 10
3179.6321616058698964
 20
190.4466487235343948
 30
0.0
 11
3179.6321616058698964
 21
190.4456240977343953
 31
0.0
  0
LINE
  5
809F
  8
0
 10
3179.6321616058698964
 20
190.4456240977343953
 30
0.0
 11
3179.0809399374220447
 21
190.4552457077334964
 31
0.0
  0
LINE
  5
80A0
  8
0
 10
3179.0121616058700056
 20
190.5252350463343873
 30
0.0
 11
3179.0121616058700056
 21
196.6132203386343917
 31
0.0
  0
ARC
  5
80A1
  8
0
 10
3179.0821616058701693
 20
196.6132203386343917
 30
0.0
 40
0.0700000000000019
 50
91.0000000404454568
 51
179.9999999999984084
  0
ARC
  5
80A2
  8
0
 10
3179.0821616057651227
 20
190.525235046291499
 30
0.0
 40
0.0699999998952485
 50
179.9999999649232905
 51
269.0000000438295729
  0
LINE
  5
80A3
  8
0
 10
3179.0121616058700056
 20
192.6692276925344061
 30
0.0
 11
3177.7721616058702239
 21
192.6692276925344061
 31
0.0
  0
LINE
  5
80A4
  8
0
 10
3177.7421616058700238
 20
192.6992276925344072
 30
0.0
 11
3177.7421616058700238
 21
194.4392276925343879
 31
0.0
  0
LINE
  5
80A5
  8
0
 10
3177.7721616058702239
 20
194.469227692534389
 30
0.0
 11
3179.0121616058700056
 21
194.469227692534389
 31
0.0
  0
ARC
  5
80A6
  8
0
 10
3177.7721616058702239
 20
194.4392276925343879
 30
0.0
 40
0.0300000000000011
 50
90.0
 51
180.0000000000015916
  0
ARC
  5
80A7
  8
0
 10
3177.7721616058702239
 20
192.6992276925344072
 30
0.0
 40
0.0299999999999976
 50
179.9999999999967031
 51
270.0
  0
ARC
  5
80A8
  8
0
 10
3177.4621616058698237
 20
193.8942276925344004
 30
0.0
 40
0.0300000000000011
 50
90.0
 51
179.9999999999984084
  0
ARC
  5
80A9
  8
0
 10
3177.4621616058698237
 20
193.2442276925343947
 30
0.0
 40
0.0300000000000011
 50
180.0000000000032117
 51
270.0
  0
LINE
  5
80AA
  8
0
 10
3177.4621616058698237
 20
193.2142276925343936
 30
0.0
 11
3177.7421616058700238
 21
193.2142276925343936
 31
0.0
  0
LINE
  5
80AB
  8
0
 10
3177.7421616058700238
 20
193.2142276925343936
 30
0.0
 11
3177.4621616058698237
 21
193.2142276925343936
 31
0.0
  0
LINE
  5
80AC
  8
0
 10
3177.4321616058700783
 20
193.2442276925343947
 30
0.0
 11
3177.4321616058700783
 21
193.8942276925344004
 31
0.0
  0
LINE
  5
80AD
  8
0
 10
3177.4621616058698237
 20
193.9242276925344015
 30
0.0
 11
3177.7421616058700238
 21
193.9242276925344015
 31
0.0
  0
LINE
  5
80AE
  8
0
 10
3177.4121616058700965
 20
194.9859296292343913
 30
0.0
 11
3177.4121616058700965
 21
192.1523399403764927
 31
0.0
  0
LINE
  5
80AF
  8
0
 10
3177.4121616058700965
 20
193.8692276925343947
 30
0.0
 11
3177.4321616058700783
 21
193.8692276925343947
 31
0.0
  0
LINE
  5
80B0
  8
0
 10
3177.4121616058700965
 20
193.2692276925344004
 30
0.0
 11
3177.4321616058700783
 21
193.2692276925344004
 31
0.0
  0
LINE
  5
80B1
  8
0
 10
3176.4993942107698786
 20
195.0675161053343913
 30
0.0
 11
3177.3839117368697771
 21
195.0158785364178016
 31
0.0
  0
ARC
  5
80B2
  8
0
 10
3177.3821616058698964
 20
194.9859296292343913
 30
0.0
 40
0.0299999999999976
 50
359.9999999999951115
 51
86.6555971811049091
  0
ARC
  5
80B3
  8
0
 10
3177.3821611202661188
 20
192.1525267966688943
 30
0.0
 40
0.0300010675102338
 50
273.3452126705100227
 51
359.6431411600240153
  0
ARC
  5
80B4
  8
0
 10
3176.4994155783169845
 20
193.7207741800474992
 30
0.0
 40
0.0299831434785907
 50
87.116238136443755
 51
179.7302350953326879
  0
ARC
  5
80B5
  8
0
 10
3176.4655023557052118
 20
193.7194102963584896
 30
0.0
 40
0.0330999989474522
 50
89.3824572886027511
 51
174.2691923077281899
  0
ARC
  5
80B6
  8
0
 10
3176.4633628699489236
 20
193.8326905143048862
 30
0.0
 40
0.0305111303574754
 50
88.8548071658648269
 51
169.0045198916299114
  0
ARC
  5
80B7
  8
0
 10
3177.3821613236450503
 20
193.6757191761267904
 30
0.0
 40
0.0300002822255398
 50
0.0002057044643355
 51
87.0787469138872865
  0
ARC
  5
80B8
  8
0
 10
3177.3833049549839416
 20
193.8588918114749049
 30
0.0
 40
0.0289148392616303
 50
3.6575787249328289
 51
92.2664548696989755
  0
ARC
  5
80B9
  8
0
 10
3179.7328558272738519
 20
88.9517013662453024
 30
0.0
 40
104.9624085520774059
 50
91.2832796905865536
 51
91.7846722541179076
  0
LINE
  5
80BA
  8
0
 10
3176.4658591056700061
 20
193.7525083727344111
 30
0.0
 11
3177.3836902399698374
 21
193.705680473634402
 31
0.0
  0
ARC
  5
80BB
  8
0
 10
3176.4993942109531417
 20
195.0375161051468922
 30
0.0
 40
0.0300000001874743
 50
90.0000003500242656
 51
177.0948284122713119
  0
ARC
  5
80BC
  8
0
 10
3205.4321616070228629
 20
193.5692276925265105
 30
0.0
 40
29.000000001152511
 50
179.4679669462379081
 51
179.6967502063648965
  0
ARC
  5
80BD
  8
0
 10
3205.4321616059041844
 20
193.5692276925325928
 30
0.0
 40
29.0000000000338609
 50
177.0948295503052066
 51
177.9693565143456908
  0
ARC
  5
80BE
  8
0
 10
3205.4321616058828113
 20
193.5692276925342128
 30
0.0
 40
29.0000000000131308
 50
177.9693565143473961
 51
179.4679669462329912
  0
LINE
  5
80BF
  8
0
 10
3176.4993808904528123
 20
192.0709392797344037
 30
0.0
 11
3177.3839117368697771
 21
192.1225768191509076
 31
0.0
  0
ARC
  5
80C0
  8
0
 10
3177.3821616058698964
 20
192.1525257263344031
 30
0.0
 40
0.0299999999999976
 50
273.3444028188951052
 51
0.0000000000048853
  0
ARC
  5
80C1
  8
0
 10
3176.4994155783169845
 20
193.4176811755212952
 30
0.0
 40
0.0299831434785907
 50
180.2697649046671984
 51
272.8837618635561739
  0
ARC
  5
80C2
  8
0
 10
3176.4655023557052118
 20
193.4190450592103048
 30
0.0
 40
0.0330999989474522
 50
185.7308076922718101
 51
270.6175427113972205
  0
ARC
  5
80C3
  8
0
 10
3176.4633628699489236
 20
193.3057648412639082
 30
0.0
 40
0.0305111303574754
 50
190.9954801083700886
 51
271.1451928341351731
  0
ARC
  5
80C4
  8
0
 10
3177.3821613236450503
 20
193.462736179442004
 30
0.0
 40
0.0300002822255398
 50
272.9212530861126993
 51
359.9997942955357075
  0
ARC
  5
80C5
  8
0
 10
3177.3833049549839416
 20
193.2795635440938895
 30
0.0
 40
0.0289148392616303
 50
267.7335451303010245
 51
356.3424212750671245
  0
ARC
  5
80C6
  8
0
 10
3179.7328558272738519
 20
298.1867539893235062
 30
0.0
 40
104.9624085520774059
 50
268.2153277458821208
 51
268.7167203094134038
  0
LINE
  5
80C7
  8
0
 10
3176.4658591056700061
 20
193.3859469828344118
 30
0.0
 11
3177.3836902399698374
 21
193.4327748819343924
 31
0.0
  0
ARC
  5
80C8
  8
0
 10
3176.4993941622660714
 20
192.1009392271834884
 30
0.0
 40
0.0299999503848146
 50
182.9051319755510008
 51
269.9746526693544979
  0
ARC
  5
80C9
  8
0
 10
3205.4321616070228629
 20
193.5692276630423123
 30
0.0
 40
29.000000001152511
 50
180.3032497936349898
 51
180.5320330537620919
  0
ARC
  5
80CA
  8
0
 10
3205.4321616059041844
 20
193.569227663036088
 30
0.0
 40
29.0000000000338609
 50
182.0306434856541955
 51
182.9051704496947934
  0
ARC
  5
80CB
  8
0
 10
3205.4321616058828113
 20
193.5692276630344963
 30
0.0
 40
29.0000000000131308
 50
180.5320330537670088
 51
182.0306434856526039
  0
LINE
  5
80CC
  8
0
 10
3176.4325677898132199
 20
193.4157398664364109
 30
0.0
 11
3176.4325677898132199
 21
193.7227154892206897
 31
0.0
  0
LINE
  5
80CD
  8
0
 10
3176.4694327671700194
 20
193.4175400068344004
 30
0.0
 11
3176.4694327671700194
 21
193.7209153487405899
 31
0.0
  0
ENDSEC
  0
EOF
