  0
SECTION
  2
HEADER
  9
$ACADVER
  1
AC1009
  9
$INSBASE
 10
37.2666232955247807
 20
1.27454070779433
 30
0.0
  9
$EXTMIN
 10
33.9862530983754993
 20
-0.6008605984320213
 30
-0.0000000000000058
  9
$EXTMAX
 10
37.2786587838835288
 20
3.1495771130996242
 30
0.0000000000000104
  9
$LIMMIN
 10
0.0
 20
0.0
  9
$LIMMAX
 10
11.6929133858000007
 20
8.2677165353999982
  9
$ORTHOMODE
 70
     0
  9
$REGENMODE
 70
     1
  9
$FILLMODE
 70
     1
  9
$QTEXTMODE
 70
     0
  9
$MIRRTEXT
 70
     0
  9
$DRAGMODE
 70
     2
  9
$LTSCALE
 40
0.6431102362
  9
$OSMODE
 70
  4095
  9
$ATTMODE
 70
     1
  9
$TEXTSIZE
 40
0.2
  9
$TRACEWID
 40
0.05
  9
$TEXTSTYLE
  7
STANDARD
  9
$CLAYER
  8
0
  9
$CELTYPE
  6
BYLAYER
  9
$CECOLOR
 62
   256
  9
$DIMSCALE
 40
1.0
  9
$DIMASZ
 40
0.1875
  9
$DIMEXO
 40
0.0625
  9
$DIMDLI
 40
0.4443307087
  9
$DIMRND
 40
0.0
  9
$DIMDLE
 40
0.0
  9
$DIMEXE
 40
0.125
  9
$DIMTP
 40
0.0
  9
$DIMTM
 40
0.0
  9
$DIMTXT
 40
0.15625
  9
$DIMCEN
 40
0.1052362205
  9
$DIMTSZ
 40
0.0
  9
$DIMTOL
 70
     0
  9
$DIMLIM
 70
     0
  9
$DIMTIH
 70
     1
  9
$DIMTOH
 70
     1
  9
$DIMSE1
 70
     0
  9
$DIMSE2
 70
     0
  9
$DIMTAD
 70
     0
  9
$DIMZIN
 70
     0
  9
$DIMBLK
  1

  9
$DIMASO
 70
     1
  9
$DIMSHO
 70
     1
  9
$DIMPOST
  1

  9
$DIMAPOST
  1

  9
$DIMALT
 70
     0
  9
$DIMALTD
 70
     2
  9
$DIMALTF
 40
25.3999999999999986
  9
$DIMLFAC
 40
1.0
  9
$DIMTOFL
 70
     0
  9
$DIMTVP
 40
0.0
  9
$DIMTIX
 70
     0
  9
$DIMSOXD
 70
     0
  9
$DIMSAH
 70
     0
  9
$DIMBLK1
  1

  9
$DIMBLK2
  1

  9
$DIMSTYLE
  2
STANDARD
  9
$DIMCLRD
 70
     0
  9
$DIMCLRE
 70
     0
  9
$DIMCLRT
 70
     0
  9
$DIMTFAC
 40
1.0
  9
$DIMGAP
 40
0.09
  9
$LUNITS
 70
     2
  9
$LUPREC
 70
     4
  9
$SKETCHINC
 40
0.1
  9
$FILLETRAD
 40
0.0
  9
$AUNITS
 70
     0
  9
$AUPREC
 70
     0
  9
$MENU
  1
.
  9
$ELEVATION
 40
0.0
  9
$PELEVATION
 40
0.0
  9
$THICKNESS
 40
0.0
  9
$LIMCHECK
 70
     0
  9
$BLIPMODE
 70
     0
  9
$CHAMFERA
 40
0.0
  9
$CHAMFERB
 40
0.0
  9
$SKPOLY
 70
     0
  9
$TDCREATE
 40
2457869.6357754631899297
  9
$TDUPDATE
 40
2459894.4901388888247311
  9
$TDINDWG
 40
0.1013349074
  9
$TDUSRTIMER
 40
0.1013349074
  9
$USRTIMER
 70
     1
  9
$ANGBASE
 50
0.0
  9
$ANGDIR
 70
     0
  9
$PDMODE
 70
     0
  9
$PDSIZE
 40
0.3125
  9
$PLINEWID
 40
0.0
  9
$COORDS
 70
     1
  9
$SPLFRAME
 70
     0
  9
$SPLINETYPE
 70
     6
  9
$SPLINESEGS
 70
     8
  9
$ATTDIA
 70
     1
  9
$ATTREQ
 70
     1
  9
$HANDLING
 70
     1
  9
$HANDSEED
  5
3DE
  9
$SURFTAB1
 70
     6
  9
$SURFTAB2
 70
     6
  9
$SURFTYPE
 70
     6
  9
$SURFU
 70
     6
  9
$SURFV
 70
     6
  9
$UCSNAME
  2

  9
$UCSORG
 10
0.0
 20
0.0
 30
0.0
  9
$UCSXDIR
 10
1.0
 20
0.0
 30
0.0
  9
$UCSYDIR
 10
0.0
 20
1.0
 30
0.0
  9
$PUCSNAME
  2

  9
$PUCSORG
 10
0.0
 20
0.0
 30
0.0
  9
$PUCSXDIR
 10
1.0
 20
0.0
 30
0.0
  9
$PUCSYDIR
 10
0.0
 20
1.0
 30
0.0
  9
$USERI1
 70
     0
  9
$USERI2
 70
     0
  9
$USERI3
 70
     0
  9
$USERI4
 70
     0
  9
$USERI5
 70
     0
  9
$USERR1
 40
0.0
  9
$USERR2
 40
0.0
  9
$USERR3
 40
0.0
  9
$USERR4
 40
0.0
  9
$USERR5
 40
0.0
  9
$WORLDVIEW
 70
     1
  9
$SHADEDGE
 70
     3
  9
$SHADEDIF
 70
    70
  9
$TILEMODE
 70
     1
  9
$MAXACTVP
 70
    48
  9
$PLIMCHECK
 70
     0
  9
$PEXTMIN
 10
1.0000000000000000E+20
 20
1.0000000000000000E+20
 30
1.0000000000000000E+20
  9
$PEXTMAX
 10
-1.0000000000000000E+20
 20
-1.0000000000000000E+20
 30
-1.0000000000000000E+20
  9
$PLIMMIN
 10
0.0
 20
0.0
  9
$PLIMMAX
 10
12.0
 20
9.0
  9
$UNITMODE
 70
     0
  9
$VISRETAIN
 70
     1
  9
$PLINEGEN
 70
     0
  9
$PSLTSCALE
 70
     1
  0
ENDSEC
  0
SECTION
  2
TABLES
  0
TABLE
  2
VPORT
 70
     1
  0
VPORT
  2
*ACTIVE
 70
     0
 10
0.0
 20
0.0
 11
1.0
 21
1.0
 12
25.1025770962520198
 22
-5.7414005023094097
 13
0.0
 23
0.0
 14
1.0
 24
1.0
 15
0.0
 25
0.0
 16
-0.0000000000000142
 26
0.0
 36
62.4982449722281501
 17
10.5298788448774907
 27
7.0157587596432123
 37
0.0
 40
3.7796999043394339
 41
2.095052083333333
 42
50.0
 43
0.0
 44
0.0
 50
0.0
 51
0.0
 71
     0
 72
   100
 73
     1
 74
     1
 75
     0
 76
     0
 77
     0
 78
     0
  0
ENDTAB
  0
TABLE
  2
LTYPE
 70
     1
  0
LTYPE
  2
CONTINUOUS
 70
     0
  3
Solid line
 72
    65
 73
     0
 40
0.0
  0
ENDTAB
  0
TABLE
  2
LAYER
 70
     2
  0
LAYER
  2
0
 70
     0
 62
     7
  6
CONTINUOUS
  0
LAYER
  2
DEFPOINTS
 70
     0
 62
     7
  6
CONTINUOUS
  0
ENDTAB
  0
TABLE
  2
STYLE
 70
     1
  0
STYLE
  2
STANDARD
 70
     0
 40
0.0
 41
0.8
 50
0.0
 71
     0
 42
0.2
  3
txt
  4

  0
ENDTAB
  0
TABLE
  2
VIEW
 70
     0
  0
ENDTAB
  0
TABLE
  2
UCS
 70
     0
  0
ENDTAB
  0
TABLE
  2
APPID
 70
     5
  0
APPID
  2
ACAD
 70
     0
  0
APPID
  2
ACAD_NAV_VCDISPLAY
 70
     0
  0
APPID
  2
ACADANNOTATIVE
 70
     0
  0
APPID
  2
ACDBATTR
 70
     0
  0
APPID
  2
ACAD_MLEADERVER
 70
     0
  0
ENDTAB
  0
TABLE
  2
DIMSTYLE
 70
     1
  0
DIMSTYLE
  2
STANDARD
 70
     0
  3

  4

  5

  6

  7

 40
1.0
 41
0.1875
 42
0.0625
 43
0.38
 44
0.125
 45
0.0
 46
0.0
 47
1.5
 48
1.5
140
0.15625
141
0.09
142
0.0
143
25.3999999999999986
144
1.0
145
0.0
146
1.0
147
0.09
 71
     0
 72
     0
 73
     1
 74
     1
 75
     0
 76
     0
 77
     0
 78
     4
170
     0
171
     2
172
     0
173
     0
174
     0
175
     0
176
     0
177
     0
178
     0
  0
ENDTAB
  0
ENDSEC
  0
SECTION
  2
BLOCKS
  0
BLOCK
  8
0
  2
$MODEL_SPACE
 70
     2
 10
0.0
 20
0.0
 30
0.0
  3
$MODEL_SPACE
  1

  0
ENDBLK
  5
16
  8
0
  0
BLOCK
 67
     1
  8
0
  2
$PAPER_SPACE
 70
     0
 10
0.0
 20
0.0
 30
0.0
  3
$PAPER_SPACE
  1

  0
ENDBLK
  5
1D
 67
     1
  8
0
  0
ENDSEC
  0
SECTION
  2
ENTITIES
  0
ATTDEF
  5
209
  8
DEFPOINTS
 10
37.2677131613938428
 20
1.274938774861833
 30
0.0
 40
0.001
  1
P24483-CR
  3

  2
MODELNUMBER
 70
     0
1001
ACDBATTR
1070
     0
1070
     1
  0
ATTDEF
  5
20A
  8
DEFPOINTS
 10
37.2677131613938428
 20
1.2732721081951679
 30
0.0
 40
0.001
  1
ONE
  3

  2
TRADENAME
 70
     0
1001
ACDBATTR
1070
     0
1070
     1
  0
ATTDEF
  5
20B
  8
DEFPOINTS
 10
37.2677131613938428
 20
1.271605441528503
 30
0.0
 40
0.001
  1
VALVE TRIM
  3

  2
PRODUCT
 70
     0
1001
ACDBATTR
1070
     0
1070
     1
  0
LINE
  5
32C
  8
0
 10
37.2666232955247807
 20
3.1495407077943298
 30
0.0
 11
37.2666232955247807
 21
-0.6004592922056698
 31
0.0
  0
LINE
  5
32D
  8
0
 10
36.5666232955247779
 20
3.0676796318443289
 30
0.0
 11
36.5666232955247779
 21
-0.5185982162556706
 31
0.0
  0
LINE
  5
32E
  8
0
 10
35.0166232955247807
 20
1.62954070779433
 30
0.0
 11
35.2966232955247818
 21
1.62954070779433
 31
0.0
  0
LINE
  5
32F
  8
0
 10
35.326623295524783
 20
2.1745407077943302
 30
0.0
 11
36.5666232955247779
 21
2.1745407077943302
 31
0.0
  0
LINE
  5
330
  8
0
 10
34.9666232955247835
 20
2.6903889225443312
 30
0.0
 11
34.9666232955247835
 21
-0.1413075069556711
 31
0.0
  0
LINE
  5
331
  8
0
 10
34.9866232955247867
 20
1.5986869857443291
 30
0.0
 11
34.9866232955247867
 21
0.9503944298443304
 31
0.0
  0
LINE
  5
332
  8
0
 10
36.6354016270706069
 20
3.1385226925552141
 30
0.0
 11
37.2666232955247807
 21
3.1495407077943298
 31
0.0
  0
LINE
  5
333
  8
0
 10
34.0560504269140196
 20
2.772752058555576
 30
0.0
 11
34.9383734265227375
 21
2.7211915517778991
 31
0.0
  0
ARC
  5
334
  8
0
 10
61.9155976602653269
 20
1.2932414514374571
 30
0.0
 40
27.9289806255822306
 50
177.0217126367043932
 51
180.0383642274285876
  0
ARC
  5
335
  8
0
 10
34.0543002959160575
 20
2.742803151372009
 30
0.0
 40
0.03
 50
86.655597181091494
 51
177.0217126619990893
  0
ARC
  5
336
  8
0
 10
36.6366270870962865
 20
3.0685245287726461
 30
0.0
 40
0.0700088900440936
 50
91.0029765289577881
 51
180.6914865135886998
  0
ARC
  5
337
  8
0
 10
35.0166314870590583
 20
1.5995209316812129
 30
0.0
 40
0.0300197772307334
 50
90.0156343714229763
 51
181.5918749155351009
  0
ARC
  5
338
  8
0
 10
34.9366136500714077
 20
2.6912219676755238
 30
0.0
 40
0.0300212055791907
 50
358.4099207020544782
 51
86.6395222141109258
  0
LINE
  5
339
  8
0
 10
35.2966232955247818
 20
2.1436869857443281
 30
0.0
 11
35.2966232955247818
 21
0.4053944298443311
 31
0.0
  0
ARC
  5
33A
  8
0
 10
35.3266314870590605
 20
2.1445209316812108
 30
0.0
 40
0.0300197772307343
 50
90.0156343714192957
 51
181.5918749155335092
  0
LINE
  5
33B
  8
0
 10
35.0166232955247807
 20
0.9212481518943302
 30
0.0
 11
35.2966232955247818
 21
0.9212481518943302
 31
0.0
  0
LINE
  5
33C
  8
0
 10
35.326623295524783
 20
0.3762481518943304
 30
0.0
 11
36.5666232955247779
 21
0.3762481518943304
 31
0.0
  0
LINE
  5
33D
  8
0
 10
36.6354016270706069
 20
-0.5877338328665545
 30
0.0
 11
37.2666232955247807
 21
-0.6004592922056702
 31
0.0
  0
LINE
  5
33E
  8
0
 10
34.0560504269140196
 20
-0.2219631988669164
 30
0.0
 11
34.9383734265227375
 21
-0.1704026920892385
 31
0.0
  0
ARC
  5
33F
  8
0
 10
61.9140197425700975
 20
1.2574861133155431
 30
0.0
 40
27.9274016544617503
 50
179.9650108392550862
 51
182.9783299801759995
  0
ARC
  5
340
  8
0
 10
34.0543002959160575
 20
-0.1920142916833489
 30
0.0
 40
0.03
 50
182.9782873380009107
 51
273.3444028189085202
  0
ARC
  5
341
  8
0
 10
36.6366272506358683
 20
-0.5177352884353011
 30
0.0
 40
0.0700092734972892
 50
180.7062403548511043
 51
268.9968951033312123
  0
ARC
  5
342
  8
0
 10
35.0166323235838632
 20
0.9512699475569728
 30
0.0
 40
0.0300217970200848
 50
181.6711385695057004
 51
269.982770195622777
  0
ARC
  5
343
  8
0
 10
34.9366126153915815
 20
-0.1404308899479534
 30
0.0
 40
0.0300234804683937
 50
273.3622008190623092
 51
358.3268564089245842
  0
ARC
  5
344
  8
0
 10
35.3266323235838513
 20
0.4062699475569689
 30
0.0
 40
0.0300217970200828
 50
181.6711385694974012
 51
269.982770195622777
  0
LINE
  5
345
  8
0
 10
34.9866232955247867
 20
1.5745407077943301
 30
0.0
 11
34.9666232955247835
 21
1.5745407077943301
 31
0.0
  0
LINE
  5
346
  8
0
 10
34.9866232955247867
 20
0.9745407077943306
 30
0.0
 11
34.9666232955247835
 21
0.9745407077943299
 31
0.0
  0
LINE
  5
347
  8
0
 10
34.0184344984247815
 20
1.5690811085943299
 30
0.0
 11
34.9366233566247928
 21
1.5939295469943291
 31
0.0
  0
LINE
  5
348
  8
0
 10
34.0203152737247905
 20
1.4578607279886091
 30
0.0
 11
34.938151637299967
 21
1.410993508810475
 31
0.0
  0
ARC
  5
349
  8
0
 10
34.021011516025581
 20
1.4232930731392599
 30
0.0
 40
0.0345746657991829
 50
91.1538634149453344
 51
170.1352374989776877
  0
ARC
  5
34A
  8
0
 10
34.937583135863612
 20
1.564226067431062
 30
0.0
 40
0.0297189817179652
 50
12.2695541210326908
 51
91.8506981084664318
  0
ARC
  5
34B
  8
0
 10
34.0159634922972529
 20
1.54151068479965
 30
0.0
 40
0.0276827764388725
 50
84.8730500840210738
 51
173.8630804743596912
  0
ARC
  5
34C
  8
0
 10
34.9366227808137708
 20
1.3810320516332371
 30
0.0
 40
0.0300005147120348
 50
0.0004727987472529
 51
87.0821431192445488
  0
LINE
  5
34D
  8
0
 10
34.0184344984247815
 20
0.9817077510943317
 30
0.0
 11
34.9366233566247928
 21
0.9568593126943323
 31
0.0
  0
LINE
  5
34E
  8
0
 10
34.0203152737247905
 20
1.0929281317000521
 30
0.0
 11
34.938151637299967
 21
1.139795350878186
 31
0.0
  0
ARC
  5
34F
  8
0
 10
34.021011516025581
 20
1.127495786549402
 30
0.0
 40
0.0345746657991829
 50
189.8647625010221986
 51
268.8461365850545803
  0
ARC
  5
350
  8
0
 10
34.937583135863612
 20
0.9865627922576001
 30
0.0
 40
0.0297189817179652
 50
268.1493018915335824
 51
347.7304458789673163
  0
ARC
  5
351
  8
0
 10
34.0159634922972529
 20
1.0092781748890109
 30
0.0
 40
0.0276827764388725
 50
186.1369195256401952
 51
275.1269499159790257
  0
ARC
  5
352
  8
0
 10
34.9366227808137708
 20
1.1697568080554239
 30
0.0
 40
0.0300005147120348
 50
272.9178568807549823
 51
359.9995272012528176
  0
LINE
  5
354
  8
0
 10
34.0238944568247916
 20
1.4262283617943301
 30
0.0
 11
34.0238944568247916
 21
1.1228530452943299
 31
0.0
  0
ARC
  5
355
  8
0
 10
34.0539383738199035
 20
1.4260605589303861
 30
0.0
 40
0.030044385602152
 50
86.8447771598743401
 51
179.6799919290237142
  0
ARC
  5
356
  8
0
 10
34.0524788592696694
 20
1.1225060356705969
 30
0.0
 40
0.0285865086852084
 50
179.3044734693903024
 51
260.3336397541581277
  0
ENDSEC
  0
EOF
