  0
SECTION
  2
HEADER
  9
$ACADVER
  1
AC1009
  9
$INSBASE
 10
3211.9133712976749848
 20
204.6619955463168878
 30
0.0
  9
$EXTMIN
 10
3205.3510180547659729
 20
198.9018499121411878
 30
-0.0015258207003583
  9
$EXTMAX
 10
3218.364327895742008
 20
205.7943170250098888
 30
0.0000000349246037
  9
$LIMMIN
 10
0.0
 20
0.0
  9
$LIMMAX
 10
11.6929133858000007
 20
8.2677165353999982
  9
$ORTHOMODE
 70
     0
  9
$REGENMODE
 70
     1
  9
$FILLMODE
 70
     1
  9
$QTEXTMODE
 70
     0
  9
$MIRRTEXT
 70
     0
  9
$DRAGMODE
 70
     2
  9
$LTSCALE
 40
0.6431102362
  9
$OSMODE
 70
  4095
  9
$ATTMODE
 70
     1
  9
$TEXTSIZE
 40
0.2
  9
$TRACEWID
 40
0.05
  9
$TEXTSTYLE
  7
STANDARD
  9
$CLAYER
  8
0
  9
$CELTYPE
  6
BYLAYER
  9
$CECOLOR
 62
   256
  9
$DIMSCALE
 40
1.0
  9
$DIMASZ
 40
0.1875
  9
$DIMEXO
 40
0.0625
  9
$DIMDLI
 40
0.4443307087
  9
$DIMRND
 40
0.0
  9
$DIMDLE
 40
0.0
  9
$DIMEXE
 40
0.125
  9
$DIMTP
 40
0.01
  9
$DIMTM
 40
0.01
  9
$DIMTXT
 40
2.0
  9
$DIMCEN
 40
0.1052362205
  9
$DIMTSZ
 40
0.0
  9
$DIMTOL
 70
     1
  9
$DIMLIM
 70
     0
  9
$DIMTIH
 70
     1
  9
$DIMTOH
 70
     1
  9
$DIMSE1
 70
     0
  9
$DIMSE2
 70
     0
  9
$DIMTAD
 70
     0
  9
$DIMZIN
 70
     0
  9
$DIMBLK
  1

  9
$DIMASO
 70
     1
  9
$DIMSHO
 70
     1
  9
$DIMPOST
  1
\X
  9
$DIMAPOST
  1

  9
$DIMALT
 70
     1
  9
$DIMALTD
 70
     2
  9
$DIMALTF
 40
25.3999999999999986
  9
$DIMLFAC
 40
1.0
  9
$DIMTOFL
 70
     0
  9
$DIMTVP
 40
0.0
  9
$DIMTIX
 70
     0
  9
$DIMSOXD
 70
     0
  9
$DIMSAH
 70
     0
  9
$DIMBLK1
  1

  9
$DIMBLK2
  1

  9
$DIMSTYLE
  2
STANDARD
  9
$DIMCLRD
 70
     0
  9
$DIMCLRE
 70
     0
  9
$DIMCLRT
 70
     0
  9
$DIMTFAC
 40
1.0
  9
$DIMGAP
 40
0.09
  9
$LUNITS
 70
     2
  9
$LUPREC
 70
     4
  9
$SKETCHINC
 40
0.1
  9
$FILLETRAD
 40
0.0
  9
$AUNITS
 70
     0
  9
$AUPREC
 70
     0
  9
$MENU
  1
.
  9
$ELEVATION
 40
0.0
  9
$PELEVATION
 40
0.0
  9
$THICKNESS
 40
0.0
  9
$LIMCHECK
 70
     0
  9
$BLIPMODE
 70
     0
  9
$CHAMFERA
 40
0.0
  9
$CHAMFERB
 40
0.0
  9
$SKPOLY
 70
     0
  9
$TDCREATE
 40
2458060.468368056230247
  9
$TDUPDATE
 40
2459731.7524421298876405
  9
$TDINDWG
 40
0.3959445602
  9
$TDUSRTIMER
 40
0.3959445602
  9
$USRTIMER
 70
     1
  9
$ANGBASE
 50
0.0
  9
$ANGDIR
 70
     0
  9
$PDMODE
 70
     0
  9
$PDSIZE
 40
0.3125
  9
$PLINEWID
 40
0.0
  9
$COORDS
 70
     1
  9
$SPLFRAME
 70
     0
  9
$SPLINETYPE
 70
     6
  9
$SPLINESEGS
 70
     8
  9
$ATTDIA
 70
     1
  9
$ATTREQ
 70
     1
  9
$HANDLING
 70
     1
  9
$HANDSEED
  5
8E9E
  9
$SURFTAB1
 70
     6
  9
$SURFTAB2
 70
     6
  9
$SURFTYPE
 70
     6
  9
$SURFU
 70
     6
  9
$SURFV
 70
     6
  9
$UCSNAME
  2

  9
$UCSORG
 10
0.0
 20
0.0
 30
0.0
  9
$UCSXDIR
 10
1.0
 20
0.0
 30
0.0
  9
$UCSYDIR
 10
0.0
 20
1.0
 30
0.0
  9
$PUCSNAME
  2

  9
$PUCSORG
 10
0.0
 20
0.0
 30
0.0
  9
$PUCSXDIR
 10
1.0
 20
0.0
 30
0.0
  9
$PUCSYDIR
 10
0.0
 20
1.0
 30
0.0
  9
$USERI1
 70
     0
  9
$USERI2
 70
     0
  9
$USERI3
 70
     0
  9
$USERI4
 70
     0
  9
$USERI5
 70
     0
  9
$USERR1
 40
0.0
  9
$USERR2
 40
0.0
  9
$USERR3
 40
0.0
  9
$USERR4
 40
0.0
  9
$USERR5
 40
0.0
  9
$WORLDVIEW
 70
     1
  9
$SHADEDGE
 70
     3
  9
$SHADEDIF
 70
    70
  9
$TILEMODE
 70
     1
  9
$MAXACTVP
 70
    64
  9
$PLIMCHECK
 70
     0
  9
$PEXTMIN
 10
1.0000000000000000E+20
 20
1.0000000000000000E+20
 30
1.0000000000000000E+20
  9
$PEXTMAX
 10
-1.0000000000000000E+20
 20
-1.0000000000000000E+20
 30
-1.0000000000000000E+20
  9
$PLIMMIN
 10
0.0
 20
0.0
  9
$PLIMMAX
 10
12.0
 20
9.0
  9
$UNITMODE
 70
     0
  9
$VISRETAIN
 70
     1
  9
$PLINEGEN
 70
     0
  9
$PSLTSCALE
 70
     1
  0
ENDSEC
  0
SECTION
  2
TABLES
  0
TABLE
  2
VPORT
 70
     1
  0
VPORT
  2
*ACTIVE
 70
     0
 10
0.0
 20
0.0
 11
1.0
 21
1.0
 12
122.0463936783790047
 22
5.1865128791888253
 13
0.0
 23
0.0
 14
1.0
 24
1.0
 15
0.0
 25
0.0
 16
0.0
 26
0.0
 36
95.5902297660485658
 17
3089.811279296875
 27
197.161570589386713
 37
0.0
 40
6.9418165194046964
 41
2.2831541218637992
 42
50.0
 43
0.0
 44
0.0
 50
0.0
 51
0.0
 71
     0
 72
   100
 73
     1
 74
     1
 75
     0
 76
     0
 77
     0
 78
     0
  0
ENDTAB
  0
TABLE
  2
LTYPE
 70
     2
  0
LTYPE
  2
CONTINUOUS
 70
     0
  3
Solid line
 72
    65
 73
     0
 40
0.0
  0
LTYPE
  2
PHANTOM2
 70
     0
  3
___ _ _ ___ _ _ ___ _ _ ___ _ _
 72
    65
 73
     6
 40
1.25
 49
0.625
 49
-0.125
 49
0.125
 49
-0.125
 49
0.125
 49
-0.125
  0
ENDTAB
  0
TABLE
  2
LAYER
 70
     2
  0
LAYER
  2
0
 70
     0
 62
   255
  6
CONTINUOUS
  0
LAYER
  2
DEFPOINTS
 70
     0
 62
     7
  6
CONTINUOUS
  0
ENDTAB
  0
TABLE
  2
STYLE
 70
     1
  0
STYLE
  2
STANDARD
 70
     0
 40
0.0
 41
0.8
 50
0.0
 71
     0
 42
0.2
  3
txt
  4

  0
ENDTAB
  0
TABLE
  2
VIEW
 70
     0
  0
ENDTAB
  0
TABLE
  2
UCS
 70
     0
  0
ENDTAB
  0
TABLE
  2
APPID
 70
    10
  0
APPID
  2
ACAD
 70
     0
  0
APPID
  2
ACAD_MLEADERVER
 70
     0
  0
APPID
  2
ACAD_EXEMPT_FROM_CAD_STANDARDS
 70
     0
  0
APPID
  2
ACAD_NAV_VCDISPLAY
 70
     0
  0
APPID
  2
ACAECLAYERSTANDARD
 70
     0
  0
APPID
  2
ACCMTRANSPARENCY
 70
     0
  0
APPID
  2
ACAD_DSTYLE_DIMJAG
 70
     0
  0
APPID
  2
ACAD_DSTYLE_DIMTALN
 70
     0
  0
APPID
  2
ACDBATTR
 70
     0
  0
APPID
  2
DCO15
 70
     0
  0
ENDTAB
  0
TABLE
  2
DIMSTYLE
 70
     1
  0
DIMSTYLE
  2
STANDARD
 70
     0
  3

  4

  5

  6

  7

 40
1.0
 41
0.1875
 42
0.0625
 43
0.38
 44
0.125
 45
0.0
 46
0.0
 47
0.01
 48
0.01
140
0.15625
141
0.09
142
0.0
143
25.3999999999999986
144
1.0
145
0.0
146
1.0
147
0.09
 71
     1
 72
     0
 73
     1
 74
     1
 75
     0
 76
     0
 77
     0
 78
     4
170
     0
171
     2
172
     0
173
     0
174
     0
175
     0
176
     0
177
     0
178
     0
  0
ENDTAB
  0
ENDSEC
  0
SECTION
  2
BLOCKS
  0
BLOCK
  8
0
  2
$MODEL_SPACE
 70
     0
 10
0.0
 20
0.0
 30
0.0
  3
$MODEL_SPACE
  1

  0
ENDBLK
  5
21
  8
0
  0
BLOCK
 67
     1
  8
0
  2
$PAPER_SPACE
 70
     0
 10
0.0
 20
0.0
 30
0.0
  3
$PAPER_SPACE
  1

  0
ENDBLK
  5
1D
 67
     1
  8
0
  0
ENDSEC
  0
SECTION
  2
ENTITIES
  0
ATTDEF
  5
8C32
  8
DEFPOINTS
 10
3211.9142384393539942
 20
204.6668557425097958
 30
0.0
 40
0.001
  1
P24491-WC
  3

  2
MODELNUMBER
 70
     0
1001
ACDBATTR
1070
     0
1070
     1
  0
ATTDEF
  5
8C33
  8
DEFPOINTS
 10
3211.9142384393539942
 20
204.6651890758431875
 30
0.0
 40
0.001
  1
ONE 
  3

  2
TRADENAME
 70
     0
1001
ACDBATTR
1070
     0
1070
     1
  0
ATTDEF
  5
8C34
  8
DEFPOINTS
 10
3211.9142384393539942
 20
204.663522409176494
 30
0.0
 40
0.001
  1
BATHROOM SINK FAUCET
  3

  2
PRODUCT
 70
     0
1001
ACDBATTR
1070
     0
1070
     1
  0
ARC
  5
8DB8
  8
0
 10
3211.9133707077839972
 20
204.6619954396894911
 30
0.0
 40
0.4400001066276662
 50
0.056396781704569
 51
179.9436032182954079
  0
ARC
  5
8DB9
  8
0
 10
3211.912892808657034
 20
199.3515253916966969
 30
0.0
 40
0.439403741614318
 50
216.7022772537887079
 51
270.0623933626009148
  0
ARC
  5
8DBA
  8
0
 10
3211.9124385718569101
 20
199.3515792990592104
 30
0.0
 40
0.4390718872924478
 50
189.0891750438960912
 51
216.7433431406849991
  0
ARC
  5
8DBB
  8
0
 10
3211.9128507883729071
 20
199.3515859293148083
 30
0.0
 40
0.4394799791764202
 50
180.0087379585613974
 51
189.0815389791229961
  0
LINE
  5
8DBC
  8
0
 10
3211.4733708143071453
 20
199.3515189059168904
 30
0.0
 11
3211.4733708143080548
 21
204.662428535916888
 31
0.0
  0
ARC
  5
8DBD
  8
0
 10
3211.91384978674796
 20
199.3515253916312986
 30
0.0
 40
0.4394037415310647
 50
269.937608770714121
 51
323.2977227487451728
  0
ARC
  5
8DBE
  8
0
 10
3211.9143040234930595
 20
199.3515792990592104
 30
0.0
 40
0.4390718872924478
 50
323.2566568593136935
 51
350.9108249561037951
  0
ARC
  5
8DBF
  8
0
 10
3211.9140788438708114
 20
199.3515635823484899
 30
0.0
 40
0.4392917596632275
 50
350.9174886770106809
 51
359.9941729592565025
  0
LINE
  5
8DC0
  8
0
 10
3212.3533706012622133
 20
199.3515189059168904
 30
0.0
 11
3212.3533706012622133
 21
204.662428535916888
 31
0.0
  0
ARC
  5
8DC1
  8
0
 10
3211.9133712976749848
 20
204.6619955463168878
 30
0.0
 40
1.125
 50
293.0236536600605177
 51
246.9763463399395107
  0
ARC
  5
8DC2
  8
0
 10
3207.9133712976749848
 20
204.6619955463168878
 30
0.0
 40
1.1249999999999989
 50
190.0851608230956913
 51
169.9148757963081096
  0
ARC
  5
8DC3
  8
0
 10
3207.9133712976749848
 20
204.6619955463168878
 30
0.0
 40
0.28
 50
227.0757145800903061
 51
132.9242854152421103
  0
ARC
  5
8DC4
  8
0
 10
3207.7024626024999634
 20
204.8884619741766073
 30
0.0
 40
0.0294671744139653
 50
269.5921504693642987
 51
313.328864188864884
  0
LINE
  5
8DC5
  8
0
 10
3207.7022528475781655
 20
204.8589955463168906
 30
0.0
 11
3205.5952610614749574
 21
204.8589955487315137
 31
0.0
  0
ARC
  5
8DC6
  8
0
 10
3205.5952610614299374
 20
204.8196254700766872
 30
0.0
 40
0.0393700786548816
 50
89.9999999343411332
 51
180.0000037252821983
  0
LINE
  5
8DC7
  8
0
 10
3205.555890982775054
 20
204.8196254675168859
 30
0.0
 11
3205.5558910032718813
 21
204.5043656250169022
 31
0.0
  0
ARC
  5
8DC8
  8
0
 10
3205.5952610845320123
 20
204.5043656275767034
 30
0.0
 40
0.0393700812597898
 50
180.0000037252821983
 51
269.999966444126585
  0
LINE
  5
8DC9
  8
0
 10
3205.5952610614749574
 20
204.4649955463169135
 30
0.0
 11
3207.7022528475749823
 21
204.4649943123351932
 31
0.0
  0
ARC
  5
8DCA
  8
0
 10
3207.7017534260630782
 20
204.4337203183870031
 30
0.0
 40
0.0312779813817528
 50
47.9998720890456525
 51
89.085108452220112
  0
ARC
  5
8DCB
  8
0
 10
3207.9133712976749848
 20
204.6619955463168878
 30
0.0
 40
0.2910000000000004
 50
222.6081119229017986
 51
137.3922177070463135
  0
ARC
  5
8DCC
  8
0
 10
3215.9133712976749848
 20
204.6619955463168878
 30
0.0
 40
1.1249999999999989
 50
10.0851242036918993
 51
349.914839176904195
  0
ARC
  5
8DCD
  8
0
 10
3215.9133712976749848
 20
204.6619955463168878
 30
0.0
 40
0.28
 50
47.0757145847578187
 51
312.9242854199097223
  0
ARC
  5
8DCE
  8
0
 10
3216.1242799928490967
 20
204.8884619741766073
 30
0.0
 40
0.0294671744139653
 50
226.6711358111352013
 51
270.407849530635815
  0
LINE
  5
8DCF
  8
0
 10
3216.1244897477718041
 20
204.8589955463168906
 30
0.0
 11
3218.2314815338750122
 21
204.8589955487315137
 31
0.0
  0
ARC
  5
8DD0
  8
0
 10
3218.2314815339200322
 20
204.8196254700766872
 30
0.0
 40
0.0393700786548816
 50
359.9999962747161248
 51
90.0000000656588668
  0
LINE
  5
8DD1
  8
0
 10
3218.2708516125749156
 20
204.8196254675168859
 30
0.0
 11
3218.2708515920771788
 21
204.5043656250169022
 31
0.0
  0
ARC
  5
8DD2
  8
0
 10
3218.2314815108170478
 20
204.5043656275767034
 30
0.0
 40
0.0393700812597898
 50
270.0000335558733013
 51
359.9999962747161248
  0
LINE
  5
8DD3
  8
0
 10
3218.2314815338750122
 20
204.4649955463169135
 30
0.0
 11
3216.1244897477749873
 21
204.4649943123351932
 31
0.0
  0
ARC
  5
8DD4
  8
0
 10
3216.1249891692859819
 20
204.4337203183870031
 30
0.0
 40
0.0312779813817528
 50
90.9148915477799164
 51
132.0001279109542907
  0
ARC
  5
8DD5
  8
0
 10
3215.9133712976749848
 20
204.6619955463168878
 30
0.0
 40
0.2910000000000004
 50
42.6077822929536083
 51
317.3918880770982014
  0
ENDSEC
  0
EOF
