  0
SECTION
  2
HEADER
  9
$ACADVER
  1
AC1009
  9
$INSBASE
 10
5823.6265620571739419
 20
-6.8311868172778381
 30
0.0
  9
$EXTMIN
 10
5817.1215309173530841
 20
-6.8370155148498091
 30
-0.0000000349181948
  9
$EXTMAX
 10
5829.9798829434766958
 20
-0.3399564435927189
 30
0.0000000814935746
  9
$LIMMIN
 10
0.0
 20
0.0
  9
$LIMMAX
 10
11.6929133858000007
 20
8.2677165353999982
  9
$ORTHOMODE
 70
     0
  9
$REGENMODE
 70
     1
  9
$FILLMODE
 70
     1
  9
$QTEXTMODE
 70
     0
  9
$MIRRTEXT
 70
     0
  9
$DRAGMODE
 70
     2
  9
$LTSCALE
 40
0.6431102362
  9
$OSMODE
 70
  4095
  9
$ATTMODE
 70
     1
  9
$TEXTSIZE
 40
0.2
  9
$TRACEWID
 40
0.05
  9
$TEXTSTYLE
  7
STANDARD
  9
$CLAYER
  8
0
  9
$CELTYPE
  6
BYLAYER
  9
$CECOLOR
 62
   256
  9
$DIMSCALE
 40
1.0
  9
$DIMASZ
 40
0.1875
  9
$DIMEXO
 40
0.0625
  9
$DIMDLI
 40
0.4443307087
  9
$DIMRND
 40
0.0
  9
$DIMDLE
 40
0.0
  9
$DIMEXE
 40
0.125
  9
$DIMTP
 40
0.01
  9
$DIMTM
 40
0.01
  9
$DIMTXT
 40
2.0
  9
$DIMCEN
 40
0.1052362205
  9
$DIMTSZ
 40
0.0
  9
$DIMTOL
 70
     1
  9
$DIMLIM
 70
     0
  9
$DIMTIH
 70
     1
  9
$DIMTOH
 70
     1
  9
$DIMSE1
 70
     0
  9
$DIMSE2
 70
     0
  9
$DIMTAD
 70
     0
  9
$DIMZIN
 70
     0
  9
$DIMBLK
  1

  9
$DIMASO
 70
     1
  9
$DIMSHO
 70
     1
  9
$DIMPOST
  1
\X
  9
$DIMAPOST
  1

  9
$DIMALT
 70
     1
  9
$DIMALTD
 70
     2
  9
$DIMALTF
 40
25.3999999999999986
  9
$DIMLFAC
 40
1.0
  9
$DIMTOFL
 70
     0
  9
$DIMTVP
 40
0.0
  9
$DIMTIX
 70
     0
  9
$DIMSOXD
 70
     0
  9
$DIMSAH
 70
     0
  9
$DIMBLK1
  1

  9
$DIMBLK2
  1

  9
$DIMSTYLE
  2
STANDARD
  9
$DIMCLRD
 70
     0
  9
$DIMCLRE
 70
     0
  9
$DIMCLRT
 70
     0
  9
$DIMTFAC
 40
1.0
  9
$DIMGAP
 40
0.09
  9
$LUNITS
 70
     2
  9
$LUPREC
 70
     4
  9
$SKETCHINC
 40
0.1
  9
$FILLETRAD
 40
0.0
  9
$AUNITS
 70
     0
  9
$AUPREC
 70
     0
  9
$MENU
  1
.
  9
$ELEVATION
 40
0.0
  9
$PELEVATION
 40
0.0
  9
$THICKNESS
 40
0.0
  9
$LIMCHECK
 70
     0
  9
$BLIPMODE
 70
     0
  9
$CHAMFERA
 40
0.0
  9
$CHAMFERB
 40
0.0
  9
$SKPOLY
 70
     0
  9
$TDCREATE
 40
2458060.468368056230247
  9
$TDUPDATE
 40
2460124.7298842598684132
  9
$TDINDWG
 40
0.617009375
  9
$TDUSRTIMER
 40
0.617009375
  9
$USRTIMER
 70
     1
  9
$ANGBASE
 50
0.0
  9
$ANGDIR
 70
     0
  9
$PDMODE
 70
     0
  9
$PDSIZE
 40
0.3125
  9
$PLINEWID
 40
0.0
  9
$COORDS
 70
     1
  9
$SPLFRAME
 70
     0
  9
$SPLINETYPE
 70
     6
  9
$SPLINESEGS
 70
     8
  9
$ATTDIA
 70
     1
  9
$ATTREQ
 70
     1
  9
$HANDLING
 70
     1
  9
$HANDSEED
  5
24C20
  9
$SURFTAB1
 70
     6
  9
$SURFTAB2
 70
     6
  9
$SURFTYPE
 70
     6
  9
$SURFU
 70
     6
  9
$SURFV
 70
     6
  9
$UCSNAME
  2

  9
$UCSORG
 10
0.0
 20
0.0
 30
0.0
  9
$UCSXDIR
 10
1.0
 20
0.0
 30
0.0
  9
$UCSYDIR
 10
0.0
 20
1.0
 30
0.0
  9
$PUCSNAME
  2

  9
$PUCSORG
 10
0.0
 20
0.0
 30
0.0
  9
$PUCSXDIR
 10
1.0
 20
0.0
 30
0.0
  9
$PUCSYDIR
 10
0.0
 20
1.0
 30
0.0
  9
$USERI1
 70
     0
  9
$USERI2
 70
     0
  9
$USERI3
 70
     0
  9
$USERI4
 70
     0
  9
$USERI5
 70
     0
  9
$USERR1
 40
0.0
  9
$USERR2
 40
0.0
  9
$USERR3
 40
0.0
  9
$USERR4
 40
0.0
  9
$USERR5
 40
0.0
  9
$WORLDVIEW
 70
     1
  9
$SHADEDGE
 70
     3
  9
$SHADEDIF
 70
    70
  9
$TILEMODE
 70
     1
  9
$MAXACTVP
 70
    64
  9
$PLIMCHECK
 70
     0
  9
$PEXTMIN
 10
1.0000000000000000E+20
 20
1.0000000000000000E+20
 30
1.0000000000000000E+20
  9
$PEXTMAX
 10
-1.0000000000000000E+20
 20
-1.0000000000000000E+20
 30
-1.0000000000000000E+20
  9
$PLIMMIN
 10
0.0
 20
0.0
  9
$PLIMMAX
 10
12.0
 20
9.0
  9
$UNITMODE
 70
     0
  9
$VISRETAIN
 70
     1
  9
$PLINEGEN
 70
     0
  9
$PSLTSCALE
 70
     1
  0
ENDSEC
  0
SECTION
  2
TABLES
  0
TABLE
  2
VPORT
 70
     1
  0
VPORT
  2
*ACTIVE
 70
     0
 10
0.0
 20
0.0
 11
1.0
 21
1.0
 12
2031.1927967741648899
 22
-123.7691424123267012
 13
0.0
 23
0.0
 14
1.0
 24
1.0
 15
0.0
 25
0.0
 16
0.0
 26
0.0
 36
5.1040778033513332
 17
3792.35791015625
 27
120.1806564331053977
 37
0.0
 40
6.5553286593401188
 41
2.8398203592814371
 42
50.0
 43
0.0
 44
0.0
 50
0.0
 51
0.0
 71
     0
 72
   100
 73
     1
 74
     1
 75
     0
 76
     0
 77
     0
 78
     0
  0
ENDTAB
  0
TABLE
  2
LTYPE
 70
     2
  0
LTYPE
  2
CONTINUOUS
 70
     0
  3
Solid line
 72
    65
 73
     0
 40
0.0
  0
LTYPE
  2
PHANTOM2
 70
     0
  3
___ _ _ ___ _ _ ___ _ _ ___ _ _
 72
    65
 73
     6
 40
1.25
 49
0.625
 49
-0.125
 49
0.125
 49
-0.125
 49
0.125
 49
-0.125
  0
ENDTAB
  0
TABLE
  2
LAYER
 70
     2
  0
LAYER
  2
0
 70
     0
 62
   255
  6
CONTINUOUS
  0
LAYER
  2
DEFPOINTS
 70
     0
 62
     7
  6
CONTINUOUS
  0
ENDTAB
  0
TABLE
  2
STYLE
 70
     1
  0
STYLE
  2
STANDARD
 70
     0
 40
0.0
 41
0.8
 50
0.0
 71
     0
 42
0.2
  3
txt
  4

  0
ENDTAB
  0
TABLE
  2
VIEW
 70
     0
  0
ENDTAB
  0
TABLE
  2
UCS
 70
     0
  0
ENDTAB
  0
TABLE
  2
APPID
 70
     9
  0
APPID
  2
ACAD
 70
     0
  0
APPID
  2
ACAD_MLEADERVER
 70
     0
  0
APPID
  2
ACAD_EXEMPT_FROM_CAD_STANDARDS
 70
     0
  0
APPID
  2
ACAD_NAV_VCDISPLAY
 70
     0
  0
APPID
  2
ACAECLAYERSTANDARD
 70
     0
  0
APPID
  2
ACCMTRANSPARENCY
 70
     0
  0
APPID
  2
ACAD_DSTYLE_DIMJAG
 70
     0
  0
APPID
  2
ACAD_DSTYLE_DIMTALN
 70
     0
  0
APPID
  2
ACDBATTR
 70
     0
  0
ENDTAB
  0
TABLE
  2
DIMSTYLE
 70
     1
  0
DIMSTYLE
  2
STANDARD
 70
     0
  3

  4

  5

  6

  7

 40
1.0
 41
0.1875
 42
0.0625
 43
0.38
 44
0.125
 45
0.0
 46
0.0
 47
0.01
 48
0.01
140
0.15625
141
0.09
142
0.0
143
25.3999999999999986
144
1.0
145
0.0
146
1.0
147
0.09
 71
     1
 72
     0
 73
     1
 74
     1
 75
     0
 76
     0
 77
     0
 78
     4
170
     0
171
     2
172
     0
173
     0
174
     0
175
     0
176
     0
177
     0
178
     0
  0
ENDTAB
  0
ENDSEC
  0
SECTION
  2
BLOCKS
  0
BLOCK
  8
0
  2
$MODEL_SPACE
 70
     0
 10
0.0
 20
0.0
 30
0.0
  3
$MODEL_SPACE
  1

  0
ENDBLK
  5
21
  8
0
  0
BLOCK
 67
     1
  8
0
  2
$PAPER_SPACE
 70
     0
 10
0.0
 20
0.0
 30
0.0
  3
$PAPER_SPACE
  1

  0
ENDBLK
  5
1D
 67
     1
  8
0
  0
BLOCK
  8
0
  2
_FILLED
 70
     0
 10
0.0
 20
0.0
 30
0.0
  3
_FILLED
  1

  0
SOLID
  5
1D213
  8
0
  6
BYBLOCK
 62
     0
 10
0.0
 20
0.0
 30
0.0
 11
-1.0
 21
0.1666666667
 31
0.0
 12
-1.0
 22
-0.1666666667
 32
0.0
 13
-1.0
 23
-0.1666666667
 33
0.0
  0
ENDBLK
  5
1D214
  8
0
  6
BYBLOCK
 62
     0
  0
ENDSEC
  0
SECTION
  2
ENTITIES
  0
ATTDEF
  5
3930
  8
DEFPOINTS
 10
5823.6266841585093061
 20
-6.8327317792667506
 30
0.0
 40
0.001
  1
P24492-LV
  3

  2
MODELNUMBER
 70
     0
1001
ACDBATTR
1070
     0
1070
     1
  0
ATTDEF
  5
3931
  8
DEFPOINTS
 10
5823.6266841585093061
 20
-6.8343984459334157
 30
0.0
 40
0.001
  1
ONE
  3

  2
TRADENAME
 70
     0
1001
ACDBATTR
1070
     0
1070
     1
  0
ATTDEF
  5
3932
  8
DEFPOINTS
 10
5823.6266841585093061
 20
-6.8360651126000809
 30
0.0
 40
0.001
  1
BATHROOM SINK FAUCET
  3

  2
PRODUCT
 70
     0
1001
ACDBATTR
1070
     0
1070
     1
  0
LINE
  5
249F8
  8
0
 10
5823.18656216369709
 20
-0.7811867107550868
 30
0.0
 11
5823.18656216369709
 21
-6.4311868172778333
 31
0.0
  0
ARC
  5
249F9
  8
0
 10
5823.7916548447428795
 20
-21.4987020379053106
 30
0.0
 40
19.5412271324765285
 50
90.4840654284912631
 51
91.1324354382278301
  0
ARC
  5
249FA
  8
0
 10
5823.471542735445837
 20
-4.7367938190025001
 30
0.0
 40
2.7762889493694991
 50
91.3640591204672177
 51
94.7413778787478122
  0
ARC
  5
249FB
  8
0
 10
5823.2726522939974529
 20
-2.3541081277640208
 30
0.0
 40
0.3853190520868824
 50
94.5538371096042169
 51
101.5778088895633999
  0
ARC
  5
249FC
  8
0
 10
5823.6509746546926181
 20
6.3238470306171299
 30
0.0
 40
8.3375873586192633
 50
267.8264327919633274
 51
269.8322367438863125
  0
ARC
  5
249FD
  8
0
 10
5823.3854484195453551
 20
-0.6587398533680613
 30
0.0
 40
1.349953840736396
 50
262.9634806849607003
 51
267.8479927630052089
  0
ARC
  5
249FE
  8
0
 10
5823.2213235846811585
 20
-1.9399564281629289
 30
0.0
 40
0.0585830580867203
 50
237.7076847863490912
 51
268.780169065081509
  0
ARC
  5
249FF
  8
0
 10
5823.1982854652378592
 20
-1.9811587382799161
 30
0.0
 40
0.0117233040567029
 50
180.0375377004394011
 51
225.2096949935360897
  0
ARC
  5
24A00
  8
0
 10
5823.2007586591425934
 20
-2.0020490800658872
 30
0.0
 40
0.0259953754149042
 50
102.0779351493574012
 51
123.1009733713663934
  0
LINE
  5
24A01
  8
0
 10
5824.0665619506507937
 20
-0.7811867107550868
 30
0.0
 11
5824.0665619506507937
 21
-6.4311868172778333
 31
0.0
  0
ARC
  5
24A02
  8
0
 10
5823.7367462652791801
 20
-17.2359248439182196
 30
0.0
 40
15.2649668822838809
 50
90.4135708228827468
 51
91.0726618499946028
  0
ARC
  5
24A03
  8
0
 10
5823.5196521803300129
 20
-4.9169452936461084
 30
0.0
 40
2.9441132745073748
 50
91.3365563084854131
 51
94.1418235744196608
  0
ARC
  5
24A04
  8
0
 10
5823.3455830310558667
 20
-2.5002603189365109
 30
0.0
 40
0.5211684895204809
 50
94.2442611052953367
 51
98.8120486901623281
  0
ARC
  5
24A05
  8
0
 10
5823.3076259546351139
 20
-1.757565389233064
 30
0.0
 40
0.2432736968603925
 50
257.4072911190178274
 51
264.6999007044307746
  0
ARC
  5
24A06
  8
0
 10
5823.2732922068862536
 20
-2.053165972422021
 30
0.0
 40
0.0683405711408232
 50
96.3418145252030484
 51
109.6815774350170045
  0
ARC
  5
24A07
  8
0
 10
5823.2586806039089424
 20
-1.975660822327455
 30
0.0
 40
0.0197548504003596
 50
239.2701113516438056
 51
258.0424417247872952
  0
ARC
  5
24A08
  8
0
 10
5823.252660070363163
 20
-1.9951260672897599
 30
0.0
 40
0.0067437515146345
 50
110.7064535517650938
 51
134.7508652377825911
  0
ARC
  5
24A09
  8
0
 10
5823.2498907579665683
 20
-1.990532777031887
 30
0.0
 40
0.0024799803350029
 50
204.2360030475350925
 51
238.2578123960877008
  0
ARC
  5
24A0A
  8
0
 10
5823.2488065499919685
 20
-1.991185207699828
 30
0.0
 40
0.0012326556417803
 50
136.5078002336591112
 51
197.2528201522538041
  0
ARC
  5
24A0B
  8
0
 10
5823.435939953754314
 20
-0.4767410988653041
 30
0.0
 40
1.5305037238147201
 50
264.3460283335834902
 51
267.7673763297490837
  0
ARC
  5
24A0C
  8
0
 10
5823.6771255804596876
 20
6.9188571458023906
 30
0.0
 40
8.9300080039096041
 50
268.0696149728495925
 51
269.6755778985835832
  0
ARC
  5
24A0D
  8
0
 10
5823.6070745618017099
 20
3.397424799980171
 30
0.0
 40
5.3846279744325152
 50
268.0405827120940785
 51
269.4608501515314174
  0
LINE
  5
24A0E
  8
0
 10
5823.4229654215041592
 20
-1.984054759351096
 30
0.0
 11
5823.4227569437643979
 21
-1.974426935799996
 31
0.0
  0
LINE
  5
24A0F
  8
0
 10
5823.5564062833063872
 20
-1.9869647799625341
 30
0.0
 11
5823.5565594591271292
 21
-1.972021456117566
 31
0.0
  0
LINE
  5
24A10
  8
0
 10
5823.4229654215041592
 20
-1.984054759351096
 30
0.0
 11
5823.4509199808735502
 21
-1.9825917292778279
 31
0.0
  0
LINE
  5
24A11
  8
0
 10
5823.4509199808735502
 20
-1.9825917292778279
 30
0.0
 11
5823.5564276803015673
 21
-1.9848773602218719
 31
0.0
  0
LINE
  5
24A12
  8
0
 10
5823.4509199808735502
 20
-1.9825917292778279
 30
0.0
 11
5823.450980171064657
 21
-1.973633022025254
 31
0.0
  0
LINE
  5
24A13
  8
0
 10
5822.5015620571739419
 20
-6.8311868172778381
 30
0.0
 11
5824.7515620571739419
 21
-6.8311868172778381
 31
0.0
  0
LINE
  5
24A14
  8
0
 10
5822.5115620572241824
 20
-6.4311868172778333
 30
0.0
 11
5824.7415620571746331
 21
-6.4311868172778333
 31
0.0
  0
LINE
  5
24A15
  8
0
 10
5828.7415620571737236
 20
-6.4311868172778333
 30
0.0
 11
5826.5115620562746699
 21
-6.4311868172778333
 31
0.0
  0
LINE
  5
24A16
  8
0
 10
5826.5015620571739419
 20
-6.4411868172778384
 30
0.0
 11
5826.5015620571739419
 21
-6.8311868172778381
 31
0.0
  0
LINE
  5
24A17
  8
0
 10
5826.5015620571739419
 20
-6.8311868172778381
 30
0.0
 11
5828.7515620571739419
 21
-6.8311868172778381
 31
0.0
  0
LINE
  5
24A18
  8
0
 10
5828.7515620571739419
 20
-6.8311868172778381
 30
0.0
 11
5828.7515620571739419
 21
-6.4411868172778384
 31
0.0
  0
ARC
  5
24A19
  8
0
 10
5828.7415620571737236
 20
-6.4411868172778384
 30
0.0
 40
0.0099999999999996
 50
359.9999999999968168
 51
90.0
  0
ARC
  5
24A1A
  8
0
 10
5826.5115620571741601
 20
-6.4411868172778384
 30
0.0
 40
0.0100000000000014
 50
90.0000051565656065
 51
179.9999999999934914
  0
LINE
  5
24A1B
  8
0
 10
5827.3465638255593149
 20
-6.4311868172778333
 30
0.0
 11
5827.3465638255593149
 21
-5.3421869422720496
 31
0.0
  0
ARC
  5
24A1C
  8
0
 10
5827.3615638255587328
 20
-5.3421869422720434
 30
0.0
 40
0.015
 50
90.0
 51
180.0
  0
LINE
  5
24A1D
  8
0
 10
5827.9065620571745967
 20
-6.4311868172778333
 30
0.0
 11
5827.9065620571745967
 21
-5.3421869422720496
 31
0.0
  0
LINE
  5
24A1E
  8
0
 10
5829.876562059641401
 20
-4.560186236388069
 30
0.0
 11
5829.876562059641401
 21
-5.2941869422720478
 31
0.0
  0
LINE
  5
24A1F
  8
0
 10
5827.3465638255593149
 20
-4.560186236388069
 30
0.0
 11
5827.3465638255593149
 21
-5.2941869422720478
 31
0.0
  0
LINE
  5
24A20
  8
0
 10
5827.8745312690771243
 20
-4.5547474663469671
 30
0.0
 11
5827.8861914586714192
 21
-5.2987481722309431
 31
0.0
  0
ARC
  5
24A21
  8
0
 10
5823.4614692696050042
 20
-21.4987020379053106
 30
0.0
 40
19.5412271324765285
 50
88.8675645617721557
 51
89.5159345715087653
  0
ARC
  5
24A22
  8
0
 10
5823.7815813789029562
 20
-4.7367938190025001
 30
0.0
 40
2.7762889493694991
 50
85.2586221212521735
 51
88.6359408795327965
  0
ARC
  5
24A23
  8
0
 10
5823.9804718203522498
 20
-2.3541081277640208
 30
0.0
 40
0.3853190520868824
 50
78.4221911104365432
 51
85.4461628903957831
  0
ARC
  5
24A24
  8
0
 10
5823.6021494596543562
 20
6.3238470306171299
 30
0.0
 40
8.3375873586192633
 50
270.1677632561136875
 51
272.1735672080366726
  0
ARC
  5
24A25
  8
0
 10
5823.8676756948034381
 20
-0.6587398533680613
 30
0.0
 40
1.349953840736396
 50
272.1520072369949048
 51
277.0365193150392997
  0
ARC
  5
24A26
  8
0
 10
5824.0318005296676347
 20
-1.9399564281629289
 30
0.0
 40
0.0585830580867203
 50
271.219830934918491
 51
302.2923152136509088
  0
ARC
  5
24A27
  8
0
 10
5824.0548386491109341
 20
-1.9811587382799161
 30
0.0
 40
0.0117233040567029
 50
314.7903050064638819
 51
359.9624622995605137
  0
ARC
  5
24A28
  8
0
 10
5824.0523654552061998
 20
-2.0020490800658872
 30
0.0
 40
0.0259953754149042
 50
56.8990266286335569
 51
77.922064850642613
  0
ARC
  5
24A29
  8
0
 10
5823.5163778490696131
 20
-17.2359248439182196
 30
0.0
 40
15.2649668822838809
 50
88.9273381500054114
 51
89.5864291771172532
  0
ARC
  5
24A2A
  8
0
 10
5823.7334719340178708
 20
-4.9169452936461084
 30
0.0
 40
2.9441132745073748
 50
85.858176425580325
 51
88.6634436915145443
  0
ARC
  5
24A2B
  8
0
 10
5823.9075410832929265
 20
-2.5002603189365109
 30
0.0
 40
0.5211684895204809
 50
81.1879513098376862
 51
85.7557388947046633
  0
ARC
  5
24A2C
  8
0
 10
5823.9454981597127698
 20
-1.757565389233064
 30
0.0
 40
0.2432736968603925
 50
275.3000992955692254
 51
282.5927088809821726
  0
ARC
  5
24A2D
  8
0
 10
5823.9798319074616302
 20
-2.053165972422021
 30
0.0
 40
0.0683405711408232
 50
70.3184225649830381
 51
83.6581854747969658
  0
ARC
  5
24A2E
  8
0
 10
5823.9944435104389413
 20
-1.975660822327455
 30
0.0
 40
0.0197548504003596
 50
281.9575582752125911
 51
300.7298886483562228
  0
ARC
  5
24A2F
  8
0
 10
5824.0004640439856303
 20
-1.9951260672897599
 30
0.0
 40
0.0067437515146345
 50
45.2491347622174018
 51
69.2935464482348493
  0
ARC
  5
24A30
  8
0
 10
5824.0032333563822249
 20
-1.990532777031887
 30
0.0
 40
0.0024799803350029
 50
301.7421876039123276
 51
335.7639969524644812
  0
ARC
  5
24A31
  8
0
 10
5824.0043175643568247
 20
-1.991185207699828
 30
0.0
 40
0.0012326556417803
 50
342.7471798477462244
 51
43.4921997663408604
  0
ARC
  5
24A32
  8
0
 10
5823.8171841605953887
 20
-0.4767410988653041
 30
0.0
 40
1.5305037238147201
 50
272.2326236702508027
 51
275.6539716664163961
  0
ARC
  5
24A33
  8
0
 10
5823.5759985338881961
 20
6.9188571458023906
 30
0.0
 40
8.9300080039096041
 50
270.3244221014164168
 51
271.9303850271504075
  0
ARC
  5
24A34
  8
0
 10
5823.6460495525470833
 20
3.397424799980171
 30
0.0
 40
5.3846279744325152
 50
270.5391498484685826
 51
271.9594172879058078
  0
LINE
  5
24A35
  8
0
 10
5823.8301586928446341
 20
-1.984054759351096
 30
0.0
 11
5823.8303671705843954
 21
-1.974426935799996
 31
0.0
  0
LINE
  5
24A36
  8
0
 10
5823.696717831040587
 20
-1.9869647799625341
 30
0.0
 11
5823.696564655221664
 21
-1.972021456117566
 31
0.0
  0
LINE
  5
24A37
  8
0
 10
5823.8301586928446341
 20
-1.984054759351096
 30
0.0
 11
5823.802204133475243
 21
-1.9825917292778279
 31
0.0
  0
LINE
  5
24A38
  8
0
 10
5823.802204133475243
 20
-1.9825917292778279
 30
0.0
 11
5823.6966964340472259
 21
-1.9848773602218719
 31
0.0
  0
LINE
  5
24A39
  8
0
 10
5823.802204133475243
 20
-1.9825917292778279
 30
0.0
 11
5823.8021439432841362
 21
-1.973633022025254
 31
0.0
  0
LINE
  5
24A3A
  8
0
 10
5827.3615638255587328
 20
-5.327186942272049
 30
0.0
 11
5829.8435620596410445
 21
-5.327186942272049
 31
0.0
  0
ARC
  5
24A3B
  8
0
 10
5827.8915620571751788
 20
-5.3421869422720434
 30
0.0
 40
0.015
 50
0.0
 51
90.0
  0
ARC
  5
24A3C
  8
0
 10
5827.8581948967239441
 20
-5.2991869422720441
 30
0.0
 40
0.028
 50
270.0
 51
0.8978821617601417
  0
LINE
  5
24A3D
  8
0
 10
5827.3795638255587619
 20
-4.5271862363880748
 30
0.0
 11
5829.8435620596410445
 21
-4.5271862363880748
 31
0.0
  0
ARC
  5
24A3E
  8
0
 10
5827.8465347071296492
 20
-4.5551862363880744
 30
0.0
 40
0.028
 50
0.8978821617597347
 51
90.0
  0
ARC
  5
24A3F
  8
0
 10
5827.3795638255587619
 20
-4.560186236388069
 30
0.0
 40
0.033
 50
90.0
 51
180.0
  0
ARC
  5
24A40
  8
0
 10
5829.8435620596410445
 20
-4.560186236388069
 30
0.0
 40
0.033
 50
0.0
 51
90.0
  0
ARC
  5
24A41
  8
0
 10
5827.3795638255587619
 20
-5.2941869422720478
 30
0.0
 40
0.033
 50
179.9999999999984084
 51
270.0
  0
ARC
  5
24A42
  8
0
 10
5829.8435620596410445
 20
-5.2941869422720478
 30
0.0
 40
0.033
 50
270.0
 51
0.0000000000016284
  0
LINE
  5
24A43
  8
0
 10
5818.5115620571750696
 20
-6.4311868172778333
 30
0.0
 11
5820.7415620580741233
 21
-6.4311868172778333
 31
0.0
  0
LINE
  5
24A44
  8
0
 10
5820.7515620571739419
 20
-6.4411868172778384
 30
0.0
 11
5820.7515620571739419
 21
-6.8311868172778381
 31
0.0
  0
LINE
  5
24A45
  8
0
 10
5820.7515620571739419
 20
-6.8311868172778381
 30
0.0
 11
5818.5015620571739419
 21
-6.8311868172778381
 31
0.0
  0
LINE
  5
24A46
  8
0
 10
5818.5015620571739419
 20
-6.8311868172778381
 30
0.0
 11
5818.5015620571739419
 21
-6.4411868172778384
 31
0.0
  0
ARC
  5
24A47
  8
0
 10
5818.5115620571750696
 20
-6.4411868172778384
 30
0.0
 40
0.0099999999999996
 50
90.0
 51
180.0000000000032117
  0
ARC
  5
24A48
  8
0
 10
5820.7415620571737236
 20
-6.4411868172778384
 30
0.0
 40
0.0100000000000014
 50
0.0000000000065138
 51
89.9999948434343793
  0
LINE
  5
24A49
  8
0
 10
5819.9065602887903879
 20
-6.4311868172778333
 30
0.0
 11
5819.9065602887903879
 21
-5.3421869422720496
 31
0.0
  0
ARC
  5
24A4A
  8
0
 10
5819.8915602887891509
 20
-5.3421869422720434
 30
0.0
 40
0.015
 50
0.0
 51
90.0
  0
LINE
  5
24A4B
  8
0
 10
5819.3465620571741965
 20
-6.4311868172778333
 30
0.0
 11
5819.3465620571741965
 21
-5.3421869422720496
 31
0.0
  0
LINE
  5
24A4C
  8
0
 10
5817.3765620547073922
 20
-4.560186236388069
 30
0.0
 11
5817.3765620547073922
 21
-5.2941869422720478
 31
0.0
  0
LINE
  5
24A4D
  8
0
 10
5819.9065602887903879
 20
-4.560186236388069
 30
0.0
 11
5819.9065602887903879
 21
-5.2941869422720478
 31
0.0
  0
LINE
  5
24A4E
  8
0
 10
5819.3785928452716689
 20
-4.5547474663469671
 30
0.0
 11
5819.366932655677374
 21
-5.2987481722309431
 31
0.0
  0
LINE
  5
24A4F
  8
0
 10
5819.8915602887891509
 20
-5.327186942272049
 30
0.0
 11
5817.4095620547077488
 21
-5.327186942272049
 31
0.0
  0
ARC
  5
24A50
  8
0
 10
5819.3615620571736144
 20
-5.3421869422720434
 30
0.0
 40
0.015
 50
90.0
 51
180.0
  0
ARC
  5
24A51
  8
0
 10
5819.3949292176248491
 20
-5.2991869422720441
 30
0.0
 40
0.028
 50
179.1021178382403036
 51
270.0
  0
LINE
  5
24A52
  8
0
 10
5819.8735602887900313
 20
-4.5271862363880748
 30
0.0
 11
5817.4095620547077488
 21
-4.5271862363880748
 31
0.0
  0
ARC
  5
24A53
  8
0
 10
5819.4065894072191441
 20
-4.5551862363880744
 30
0.0
 40
0.028
 50
90.0
 51
179.1021178382407015
  0
ARC
  5
24A54
  8
0
 10
5819.8735602887900313
 20
-4.560186236388069
 30
0.0
 40
0.033
 50
0.0
 51
90.0
  0
ARC
  5
24A55
  8
0
 10
5817.4095620547077488
 20
-4.560186236388069
 30
0.0
 40
0.033
 50
90.0
 51
180.0
  0
ARC
  5
24A56
  8
0
 10
5819.8735602887900313
 20
-5.2941869422720478
 30
0.0
 40
0.033
 50
270.0
 51
0.0000000000016284
  0
ARC
  5
24A57
  8
0
 10
5817.4095620547077488
 20
-5.2941869422720478
 30
0.0
 40
0.033
 50
179.9999999999984084
 51
270.0
  0
ARC
  5
24A58
  8
0
 10
5823.6265620571739419
 20
-0.7811867107550868
 30
0.0
 40
0.4399998934772516
 50
0.0
 51
180.0
  0
LINE
  5
24A59
  8
0
 10
5822.5015620571739419
 20
-6.8311868172778381
 30
0.0
 11
5822.5015620571739419
 21
-6.4411868172778313
 31
0.0
  0
ARC
  5
24A5A
  8
0
 10
5822.5115620571741601
 20
-6.4411868172778313
 30
0.0
 40
0.01
 50
90.0
 51
180.0000000000023874
  0
LINE
  5
24A5B
  8
0
 10
5824.7515620571739419
 20
-6.8311868172778381
 30
0.0
 11
5824.7515620571739419
 21
-6.4411868172778313
 31
0.0
  0
ARC
  5
24A5C
  8
0
 10
5824.7415620571746331
 20
-6.4411868172778313
 30
0.0
 40
0.01
 50
359.9999999999972147
 51
90.0
  0
ENDSEC
  0
EOF
