  0
SECTION
  2
HEADER
  9
$ACADVER
  1
AC1009
  9
$INSBASE
 10
504.3109619130111128
 20
81.1672235962273447
 30
0.0
  9
$EXTMIN
 10
499.8966088031810955
 20
79.7900463696074667
 30
-0.0000000000112498
  9
$EXTMAX
 10
504.3482166964349176
 20
82.5445570549879903
 30
0.0000000000002956
  9
$LIMMIN
 10
0.0
 20
0.0
  9
$LIMMAX
 10
11.6929133858000007
 20
8.2677165353999982
  9
$ORTHOMODE
 70
     0
  9
$REGENMODE
 70
     1
  9
$FILLMODE
 70
     1
  9
$QTEXTMODE
 70
     0
  9
$MIRRTEXT
 70
     0
  9
$DRAGMODE
 70
     2
  9
$LTSCALE
 40
0.6431102362
  9
$OSMODE
 70
  4095
  9
$ATTMODE
 70
     1
  9
$TEXTSIZE
 40
0.2
  9
$TRACEWID
 40
0.05
  9
$TEXTSTYLE
  7
STANDARD
  9
$CLAYER
  8
0
  9
$CELTYPE
  6
BYLAYER
  9
$CECOLOR
 62
   256
  9
$DIMSCALE
 40
1.0
  9
$DIMASZ
 40
0.1875
  9
$DIMEXO
 40
0.0625
  9
$DIMDLI
 40
0.4443307087
  9
$DIMRND
 40
0.0
  9
$DIMDLE
 40
0.0
  9
$DIMEXE
 40
0.125
  9
$DIMTP
 40
0.01
  9
$DIMTM
 40
0.01
  9
$DIMTXT
 40
1.0
  9
$DIMCEN
 40
0.1052362205
  9
$DIMTSZ
 40
0.0
  9
$DIMTOL
 70
     1
  9
$DIMLIM
 70
     0
  9
$DIMTIH
 70
     0
  9
$DIMTOH
 70
     1
  9
$DIMSE1
 70
     0
  9
$DIMSE2
 70
     0
  9
$DIMTAD
 70
     0
  9
$DIMZIN
 70
     0
  9
$DIMBLK
  1

  9
$DIMASO
 70
     1
  9
$DIMSHO
 70
     1
  9
$DIMPOST
  1
\X
  9
$DIMAPOST
  1

  9
$DIMALT
 70
     1
  9
$DIMALTD
 70
     2
  9
$DIMALTF
 40
25.3999999999999986
  9
$DIMLFAC
 40
1.0
  9
$DIMTOFL
 70
     0
  9
$DIMTVP
 40
0.0
  9
$DIMTIX
 70
     0
  9
$DIMSOXD
 70
     0
  9
$DIMSAH
 70
     0
  9
$DIMBLK1
  1

  9
$DIMBLK2
  1

  9
$DIMSTYLE
  2
STANDARD
  9
$DIMCLRD
 70
     0
  9
$DIMCLRE
 70
     0
  9
$DIMCLRT
 70
     0
  9
$DIMTFAC
 40
1.0
  9
$DIMGAP
 40
0.09
  9
$LUNITS
 70
     2
  9
$LUPREC
 70
     4
  9
$SKETCHINC
 40
0.1
  9
$FILLETRAD
 40
0.0
  9
$AUNITS
 70
     0
  9
$AUPREC
 70
     0
  9
$MENU
  1
.
  9
$ELEVATION
 40
0.0
  9
$PELEVATION
 40
0.0
  9
$THICKNESS
 40
0.0
  9
$LIMCHECK
 70
     0
  9
$BLIPMODE
 70
     0
  9
$CHAMFERA
 40
0.0
  9
$CHAMFERB
 40
0.0
  9
$SKPOLY
 70
     0
  9
$TDCREATE
 40
2458172.5207638889551163
  9
$TDUPDATE
 40
2459602.5948379640467465
  9
$TDINDWG
 40
0.3282379398
  9
$TDUSRTIMER
 40
0.3282379398
  9
$USRTIMER
 70
     1
  9
$ANGBASE
 50
0.0
  9
$ANGDIR
 70
     0
  9
$PDMODE
 70
     0
  9
$PDSIZE
 40
0.3125
  9
$PLINEWID
 40
0.0
  9
$COORDS
 70
     1
  9
$SPLFRAME
 70
     0
  9
$SPLINETYPE
 70
     6
  9
$SPLINESEGS
 70
     8
  9
$ATTDIA
 70
     1
  9
$ATTREQ
 70
     1
  9
$HANDLING
 70
     1
  9
$HANDSEED
  5
12044
  9
$SURFTAB1
 70
     6
  9
$SURFTAB2
 70
     6
  9
$SURFTYPE
 70
     6
  9
$SURFU
 70
     6
  9
$SURFV
 70
     6
  9
$UCSNAME
  2

  9
$UCSORG
 10
0.0
 20
0.0
 30
0.0
  9
$UCSXDIR
 10
1.0
 20
0.0
 30
0.0
  9
$UCSYDIR
 10
0.0
 20
1.0
 30
0.0
  9
$PUCSNAME
  2

  9
$PUCSORG
 10
0.0
 20
0.0
 30
0.0
  9
$PUCSXDIR
 10
1.0
 20
0.0
 30
0.0
  9
$PUCSYDIR
 10
0.0
 20
1.0
 30
0.0
  9
$USERI1
 70
     0
  9
$USERI2
 70
     0
  9
$USERI3
 70
     0
  9
$USERI4
 70
     0
  9
$USERI5
 70
     0
  9
$USERR1
 40
0.0
  9
$USERR2
 40
0.0
  9
$USERR3
 40
0.0
  9
$USERR4
 40
0.0
  9
$USERR5
 40
0.0
  9
$WORLDVIEW
 70
     1
  9
$SHADEDGE
 70
     3
  9
$SHADEDIF
 70
    70
  9
$TILEMODE
 70
     1
  9
$MAXACTVP
 70
    64
  9
$PLIMCHECK
 70
     0
  9
$PEXTMIN
 10
1.0000000000000000E+20
 20
1.0000000000000000E+20
 30
1.0000000000000000E+20
  9
$PEXTMAX
 10
-1.0000000000000000E+20
 20
-1.0000000000000000E+20
 30
-1.0000000000000000E+20
  9
$PLIMMIN
 10
0.0
 20
0.0
  9
$PLIMMAX
 10
12.0
 20
9.0
  9
$UNITMODE
 70
     0
  9
$VISRETAIN
 70
     1
  9
$PLINEGEN
 70
     0
  9
$PSLTSCALE
 70
     1
  0
ENDSEC
  0
SECTION
  2
TABLES
  0
TABLE
  2
VPORT
 70
     1
  0
VPORT
  2
*ACTIVE
 70
     0
 10
0.0
 20
0.0
 11
1.0
 21
1.0
 12
72.4931236417543232
 22
11.4647602000790396
 13
0.0
 23
0.0
 14
1.0
 24
1.0
 15
0.0
 25
0.0
 16
0.0
 26
0.0
 36
14.6338572656650907
 17
429.6292891080536833
 27
69.7025415122186871
 37
0.0
 40
2.7763430025698019
 41
2.0410052910052912
 42
50.0
 43
0.0
 44
0.0
 50
0.0
 51
0.0
 71
     0
 72
   100
 73
     1
 74
     1
 75
     0
 76
     0
 77
     0
 78
     0
  0
ENDTAB
  0
TABLE
  2
LTYPE
 70
     2
  0
LTYPE
  2
CONTINUOUS
 70
     0
  3
Solid line
 72
    65
 73
     0
 40
0.0
  0
LTYPE
  2
PHANTOM2
 70
     0
  3
___ _ _ ___ _ _ ___ _ _ ___ _ _
 72
    65
 73
     6
 40
1.25
 49
0.625
 49
-0.125
 49
0.125
 49
-0.125
 49
0.125
 49
-0.125
  0
ENDTAB
  0
TABLE
  2
LAYER
 70
     2
  0
LAYER
  2
0
 70
     0
 62
   255
  6
CONTINUOUS
  0
LAYER
  2
DEFPOINTS
 70
     0
 62
     7
  6
CONTINUOUS
  0
ENDTAB
  0
TABLE
  2
STYLE
 70
     1
  0
STYLE
  2
STANDARD
 70
     0
 40
0.0
 41
0.8
 50
0.0
 71
     0
 42
0.2
  3
txt
  4

  0
ENDTAB
  0
TABLE
  2
VIEW
 70
     0
  0
ENDTAB
  0
TABLE
  2
UCS
 70
     0
  0
ENDTAB
  0
TABLE
  2
APPID
 70
    10
  0
APPID
  2
ACAD
 70
     0
  0
APPID
  2
ACAD_MLEADERVER
 70
     0
  0
APPID
  2
ACAD_EXEMPT_FROM_CAD_STANDARDS
 70
     0
  0
APPID
  2
ACAD_DSTYLE_DIMJAG
 70
     0
  0
APPID
  2
ACAD_DSTYLE_DIMTALN
 70
     0
  0
APPID
  2
ACAD_NAV_VCDISPLAY
 70
     0
  0
APPID
  2
ACAECLAYERSTANDARD
 70
     0
  0
APPID
  2
ACCMTRANSPARENCY
 70
     0
  0
APPID
  2
DCO15
 70
     0
  0
APPID
  2
ACDBATTR
 70
     0
  0
ENDTAB
  0
TABLE
  2
DIMSTYLE
 70
     1
  0
DIMSTYLE
  2
STANDARD
 70
     0
  3

  4

  5

  6

  7

 40
1.0
 41
0.1875
 42
0.0625
 43
0.38
 44
0.125
 45
0.0
 46
0.0
 47
0.01
 48
0.01
140
0.15625
141
0.09
142
0.0
143
25.3999999999999986
144
1.0
145
0.0
146
1.0
147
0.09
 71
     1
 72
     0
 73
     1
 74
     1
 75
     0
 76
     0
 77
     0
 78
     4
170
     0
171
     2
172
     0
173
     0
174
     0
175
     0
176
     0
177
     0
178
     0
  0
ENDTAB
  0
ENDSEC
  0
SECTION
  2
BLOCKS
  0
BLOCK
  8
0
  2
$MODEL_SPACE
 70
     0
 10
0.0
 20
0.0
 30
0.0
  3
$MODEL_SPACE
  1

  0
ENDBLK
  5
21
  8
0
  0
BLOCK
 67
     1
  8
0
  2
$PAPER_SPACE
 70
     0
 10
0.0
 20
0.0
 30
0.0
  3
$PAPER_SPACE
  1

  0
ENDBLK
  5
1D
 67
     1
  8
0
  0
ENDSEC
  0
SECTION
  2
ENTITIES
  0
ATTDEF
  5
100F7
  8
DEFPOINTS
 10
504.311856699307782
 20
81.1666909368574494
 30
0.0
 40
0.001
  1
P24508-LV
  3

  2
MODELNUMBER
 70
     0
1001
ACDBATTR
1070
     0
1070
     1
  0
ATTDEF
  5
100F8
  8
DEFPOINTS
 10
504.311856699307782
 20
81.1650242701907843
 30
0.0
 40
0.001
  1
ONE
  3

  2
TRADENAME
 70
     0
1001
ACDBATTR
1070
     0
1070
     1
  0
ATTDEF
  5
100F9
  8
DEFPOINTS
 10
504.311856699307782
 20
81.1633576035241049
 30
0.0
 40
0.001
  1
BATH FAUCET HANDLES
  3

  2
PRODUCT
 70
     0
1001
ACDBATTR
1070
     0
1070
     1
  0
LINE
  5
11F94
  8
0
 10
504.3109619130111128
 20
82.5422235962273447
 30
0.0
 11
504.3109619130111128
 21
79.7922235962273447
 31
0.0
  0
LINE
  5
11F95
  8
0
 10
501.4775639130110108
 20
81.91952359622735
 30
0.0
 11
501.4775639130110108
 21
80.4149235962273536
 31
0.0
  0
LINE
  5
11F96
  8
0
 10
501.4575639130110858
 20
81.9195235962273358
 30
0.0
 11
501.4575639130105174
 21
80.4149235962273536
 31
0.0
  0
LINE
  5
11F97
  8
0
 10
501.3475639130110721
 20
81.91952359622735
 30
0.0
 11
501.3475639130110721
 21
80.4149235962273536
 31
0.0
  0
LINE
  5
11F98
  8
0
 10
503.8789619130110964
 20
81.9345235962273506
 30
0.0
 11
501.4925639130111108
 21
81.9345235962273506
 31
0.0
  0
LINE
  5
11F99
  8
0
 10
501.4425639130109857
 20
81.9345235962273506
 30
0.0
 11
501.3625639130110017
 21
81.9345235962273506
 31
0.0
  0
LINE
  5
11F9A
  8
0
 10
503.9109619130110218
 20
82.5322235962273396
 30
0.0
 11
503.9109619130110218
 21
79.8022235962273498
 31
0.0
  0
LINE
  5
11F9B
  8
0
 10
503.9209619130111264
 20
82.5422235962273447
 30
0.0
 11
504.3109619130111128
 21
82.5422235962273447
 31
0.0
  0
ARC
  5
11F9C
  8
0
 10
503.9209619130111264
 20
82.5322235962273538
 30
0.0
 40
0.01
 50
89.9999999999576659
 51
180.0000000000202931
  0
ARC
  5
11F9D
  8
0
 10
503.8789619130110964
 20
81.9665235962273471
 30
0.0
 40
0.0319999999999992
 50
270.0
 51
0.0000000000016284
  0
ARC
  5
11F9E
  8
0
 10
501.3625639130110017
 20
81.91952359622735
 30
0.0
 40
0.015
 50
90.0000000000195257
 51
179.9999999999967031
  0
ARC
  5
11F9F
  8
0
 10
501.4425639130109857
 20
81.9195235962273358
 30
0.0
 40
0.015
 50
359.9999999999860734
 51
89.9999999999934914
  0
ARC
  5
11FA0
  8
0
 10
501.4925639130111108
 20
81.91952359622735
 30
0.0
 40
0.015
 50
90.0000000000065086
 51
179.9999999999967031
  0
LINE
  5
11FA1
  8
0
 10
501.4775639130110108
 20
81.8572235962273567
 30
0.0
 11
501.4575639130110858
 21
81.8572235962273567
 31
0.0
  0
LINE
  5
11FA2
  8
0
 10
500.9025639130733225
 20
81.5222235962273487
 30
0.0
 11
501.3375639130110244
 21
81.5222235962273487
 31
0.0
  0
ARC
  5
11FA3
  8
0
 10
500.9025639130733225
 20
81.5122235962273436
 30
0.0
 40
0.01
 50
90.0000000000097771
 51
179.9999999999951115
  0
ARC
  5
11FA4
  8
0
 10
501.3375639130110244
 20
81.5122235962273436
 30
0.0
 40
0.01
 50
0.0000000000130276
 51
90.0
  0
LINE
  5
11FA5
  8
0
 10
499.9524536756525208
 20
81.3061215992273532
 30
0.0
 11
500.8636456830130896
 21
81.2732670296272346
 31
0.0
  0
ARC
  5
11FA6
  8
0
 10
499.9525588988528852
 20
81.2761268918002457
 30
0.0
 40
0.0299948919909526
 50
90.2009961448274282
 51
180.0045393601623118
  0
ARC
  5
11FA7
  8
0
 10
500.8624387654260204
 20
81.2431658263192134
 30
0.0
 40
0.0301253894689304
 50
0.2296016803159148
 51
87.7039368772660168
  0
LINE
  5
11FA8
  8
0
 10
503.8789619130110964
 20
80.3999235962273389
 30
0.0
 11
501.4925639130111108
 21
80.3999235962273389
 31
0.0
  0
LINE
  5
11FA9
  8
0
 10
501.4425639130109857
 20
80.3999235962273389
 30
0.0
 11
501.3625639130110017
 21
80.3999235962273389
 31
0.0
  0
LINE
  5
11FAA
  8
0
 10
503.9209619130111264
 20
79.7922235962273447
 30
0.0
 11
504.3109619130111128
 21
79.7922235962273447
 31
0.0
  0
ARC
  5
11FAB
  8
0
 10
503.9209619130111264
 20
79.8022235962273356
 30
0.0
 40
0.01
 50
179.9999999999795932
 51
270.0000000000391083
  0
ARC
  5
11FAC
  8
0
 10
503.8789619130110964
 20
80.3679235962273566
 30
0.0
 40
0.0319999999999992
 50
359.9999999999984084
 51
90.0
  0
ARC
  5
11FAD
  8
0
 10
501.3625639130110017
 20
80.4149235962273536
 30
0.0
 40
0.015
 50
180.0000000000032117
 51
269.999999999980389
  0
ARC
  5
11FAE
  8
0
 10
501.4425639130109857
 20
80.4149235962273536
 30
0.0
 40
0.015
 50
270.0000000000064801
 51
0.0000000000138418
  0
ARC
  5
11FAF
  8
0
 10
501.4925639130111108
 20
80.4149235962273536
 30
0.0
 40
0.015
 50
180.0000000000032117
 51
269.9999999999935199
  0
LINE
  5
11FB0
  8
0
 10
501.4775639130110108
 20
80.477223596227347
 30
0.0
 11
501.4575639130110858
 21
80.477223596227347
 31
0.0
  0
LINE
  5
11FB1
  8
0
 10
500.9025639130733225
 20
80.8122235962273265
 30
0.0
 11
501.3375639130110244
 21
80.8122235962273265
 31
0.0
  0
ARC
  5
11FB2
  8
0
 10
500.9025639130733225
 20
80.8222235962273459
 30
0.0
 40
0.01
 50
180.0000000000048885
 51
269.9999999999902229
  0
ARC
  5
11FB3
  8
0
 10
501.3375639130110244
 20
80.8222235962273459
 30
0.0
 40
0.01
 50
270.0
 51
359.9999999999869829
  0
LINE
  5
11FB5
  8
0
 10
499.9525639130109766
 20
81.5222235962274482
 30
0.0
 11
500.8624826210660217
 21
81.5222235962270929
 31
0.0
  0
ARC
  5
11FB6
  8
0
 10
499.9525639130109766
 20
81.4922235962273334
 30
0.0
 40
0.03000000000001
 50
90.0000000000065086
 51
179.9999999999795932
  0
ARC
  5
11FB7
  8
0
 10
500.8613695316823851
 20
81.4907444851573786
 30
0.0
 40
0.0314987841313157
 50
7.9814140194627052
 51
87.9748867516227477
  0
LINE
  5
11FB8
  8
0
 10
499.9225639130110039
 20
81.4922235962273334
 30
0.0
 11
499.9225639130110039
 21
80.8422235962273561
 31
0.0
  0
LINE
  5
11FB9
  8
0
 10
500.8925639130732748
 20
81.5122235962273436
 30
0.0
 11
500.8925639130732748
 21
80.8222235962273459
 31
0.0
  0
LINE
  5
11FBA
  8
0
 10
499.95266415055778
 20
81.0283255933271818
 30
0.0
 11
500.8636456830130896
 21
81.0611801628274407
 31
0.0
  0
ARC
  5
11FBB
  8
0
 10
499.9532179061441184
 20
81.0589815720726534
 30
0.0
 40
0.0306609797312761
 50
181.231363458548401
 51
268.9651477750128947
  0
ARC
  5
11FBC
  8
0
 10
500.8624387654260204
 20
81.0912813661354903
 30
0.0
 40
0.0301253894689304
 50
272.2960631227339832
 51
359.7703983196840909
  0
LINE
  5
11FBD
  8
0
 10
499.9525639130109766
 20
80.8122235962272271
 30
0.0
 11
500.8624824315061232
 21
80.8122235962275965
 31
0.0
  0
ARC
  5
11FBE
  8
0
 10
499.9525639130109766
 20
80.8422235962273561
 30
0.0
 40
0.03000000000001
 50
180.0000000000202931
 51
269.9999999999935199
  0
ARC
  5
11FBF
  8
0
 10
500.8620148569200978
 20
80.8429865536895846
 30
0.0
 40
0.03076651065405
 50
270.8707871550660116
 51
353.1725529613215144
  0
ENDSEC
  0
EOF
