  0
SECTION
  2
HEADER
  9
$ACADVER
  1
AC1009
  9
$INSBASE
 10
3445.7831772115919193
 20
207.8635544194195859
 30
0.0
  9
$EXTMIN
 10
3439.9937183504289351
 20
207.840222025085211
 30
-0.0015258207003583
  9
$EXTMAX
 10
3447.0942930709038592
 20
211.9308645091857954
 30
0.0000000349246037
  9
$LIMMIN
 10
0.0
 20
0.0
  9
$LIMMAX
 10
11.6929133858000007
 20
8.2677165353999982
  9
$ORTHOMODE
 70
     0
  9
$REGENMODE
 70
     1
  9
$FILLMODE
 70
     1
  9
$QTEXTMODE
 70
     0
  9
$MIRRTEXT
 70
     0
  9
$DRAGMODE
 70
     2
  9
$LTSCALE
 40
0.6431102362
  9
$OSMODE
 70
  4095
  9
$ATTMODE
 70
     1
  9
$TEXTSIZE
 40
0.2
  9
$TRACEWID
 40
0.05
  9
$TEXTSTYLE
  7
STANDARD
  9
$CLAYER
  8
0
  9
$CELTYPE
  6
BYLAYER
  9
$CECOLOR
 62
     7
  9
$DIMSCALE
 40
1.0
  9
$DIMASZ
 40
0.1875
  9
$DIMEXO
 40
0.0625
  9
$DIMDLI
 40
0.4443307087
  9
$DIMRND
 40
0.0
  9
$DIMDLE
 40
0.0
  9
$DIMEXE
 40
0.125
  9
$DIMTP
 40
0.01
  9
$DIMTM
 40
0.01
  9
$DIMTXT
 40
2.0
  9
$DIMCEN
 40
0.1052362205
  9
$DIMTSZ
 40
0.0
  9
$DIMTOL
 70
     1
  9
$DIMLIM
 70
     0
  9
$DIMTIH
 70
     1
  9
$DIMTOH
 70
     1
  9
$DIMSE1
 70
     0
  9
$DIMSE2
 70
     0
  9
$DIMTAD
 70
     0
  9
$DIMZIN
 70
     0
  9
$DIMBLK
  1

  9
$DIMASO
 70
     1
  9
$DIMSHO
 70
     1
  9
$DIMPOST
  1
\X
  9
$DIMAPOST
  1

  9
$DIMALT
 70
     1
  9
$DIMALTD
 70
     2
  9
$DIMALTF
 40
25.3999999999999986
  9
$DIMLFAC
 40
1.0
  9
$DIMTOFL
 70
     0
  9
$DIMTVP
 40
0.0
  9
$DIMTIX
 70
     0
  9
$DIMSOXD
 70
     0
  9
$DIMSAH
 70
     0
  9
$DIMBLK1
  1

  9
$DIMBLK2
  1

  9
$DIMSTYLE
  2
STANDARD
  9
$DIMCLRD
 70
     0
  9
$DIMCLRE
 70
     0
  9
$DIMCLRT
 70
     0
  9
$DIMTFAC
 40
1.0
  9
$DIMGAP
 40
0.09
  9
$LUNITS
 70
     2
  9
$LUPREC
 70
     4
  9
$SKETCHINC
 40
0.1
  9
$FILLETRAD
 40
0.0
  9
$AUNITS
 70
     0
  9
$AUPREC
 70
     0
  9
$MENU
  1
.
  9
$ELEVATION
 40
0.0
  9
$PELEVATION
 40
0.0
  9
$THICKNESS
 40
0.0
  9
$LIMCHECK
 70
     0
  9
$BLIPMODE
 70
     0
  9
$CHAMFERA
 40
0.0
  9
$CHAMFERB
 40
0.0
  9
$SKPOLY
 70
     0
  9
$TDCREATE
 40
2458060.468368056230247
  9
$TDUPDATE
 40
2460901.5384490741416812
  9
$TDINDWG
 40
0.8110950231
  9
$TDUSRTIMER
 40
0.8110950231
  9
$USRTIMER
 70
     1
  9
$ANGBASE
 50
0.0
  9
$ANGDIR
 70
     0
  9
$PDMODE
 70
     0
  9
$PDSIZE
 40
0.3125
  9
$PLINEWID
 40
0.0
  9
$COORDS
 70
     1
  9
$SPLFRAME
 70
     0
  9
$SPLINETYPE
 70
     6
  9
$SPLINESEGS
 70
     8
  9
$ATTDIA
 70
     1
  9
$ATTREQ
 70
     1
  9
$HANDLING
 70
     1
  9
$HANDSEED
  5
11C39
  9
$SURFTAB1
 70
     6
  9
$SURFTAB2
 70
     6
  9
$SURFTYPE
 70
     6
  9
$SURFU
 70
     6
  9
$SURFV
 70
     6
  9
$UCSNAME
  2

  9
$UCSORG
 10
0.0
 20
0.0
 30
0.0
  9
$UCSXDIR
 10
1.0
 20
0.0
 30
0.0
  9
$UCSYDIR
 10
0.0
 20
1.0
 30
0.0
  9
$PUCSNAME
  2

  9
$PUCSORG
 10
0.0
 20
0.0
 30
0.0
  9
$PUCSXDIR
 10
1.0
 20
0.0
 30
0.0
  9
$PUCSYDIR
 10
0.0
 20
1.0
 30
0.0
  9
$USERI1
 70
     0
  9
$USERI2
 70
     0
  9
$USERI3
 70
     0
  9
$USERI4
 70
     0
  9
$USERI5
 70
     0
  9
$USERR1
 40
0.0
  9
$USERR2
 40
0.0
  9
$USERR3
 40
0.0
  9
$USERR4
 40
0.0
  9
$USERR5
 40
0.0
  9
$WORLDVIEW
 70
     1
  9
$SHADEDGE
 70
     3
  9
$SHADEDIF
 70
    70
  9
$TILEMODE
 70
     1
  9
$MAXACTVP
 70
    64
  9
$PLIMCHECK
 70
     0
  9
$PEXTMIN
 10
1.0000000000000000E+20
 20
1.0000000000000000E+20
 30
1.0000000000000000E+20
  9
$PEXTMAX
 10
-1.0000000000000000E+20
 20
-1.0000000000000000E+20
 30
-1.0000000000000000E+20
  9
$PLIMMIN
 10
0.0
 20
0.0
  9
$PLIMMAX
 10
12.0
 20
9.0
  9
$UNITMODE
 70
     0
  9
$VISRETAIN
 70
     1
  9
$PLINEGEN
 70
     0
  9
$PSLTSCALE
 70
     1
  0
ENDSEC
  0
SECTION
  2
TABLES
  0
TABLE
  2
VPORT
 70
     1
  0
VPORT
  2
*ACTIVE
 70
     0
 10
0.0
 20
0.0
 11
1.0
 21
1.0
 12
-1.9906624152708901
 22
2.8592654187101512
 13
0.0
 23
0.0
 14
1.0
 24
1.0
 15
0.0
 25
0.0
 16
0.0
 26
0.0
 36
0.0338437241156522
 17
3445.5346681259370598
 27
207.026277848425309
 37
0.0
 40
4.1189514286272599
 41
2.2182448036951499
 42
50.0
 43
0.0
 44
0.0
 50
0.0
 51
0.0
 71
     0
 72
   100
 73
     1
 74
     1
 75
     0
 76
     0
 77
     0
 78
     0
  0
ENDTAB
  0
TABLE
  2
LTYPE
 70
     2
  0
LTYPE
  2
CONTINUOUS
 70
     0
  3
Solid line
 72
    65
 73
     0
 40
0.0
  0
LTYPE
  2
PHANTOM2
 70
     0
  3
___ _ _ ___ _ _ ___ _ _ ___ _ _
 72
    65
 73
     6
 40
1.25
 49
0.625
 49
-0.125
 49
0.125
 49
-0.125
 49
0.125
 49
-0.125
  0
ENDTAB
  0
TABLE
  2
LAYER
 70
     2
  0
LAYER
  2
0
 70
     0
 62
   255
  6
CONTINUOUS
  0
LAYER
  2
DEFPOINTS
 70
     0
 62
     7
  6
CONTINUOUS
  0
ENDTAB
  0
TABLE
  2
STYLE
 70
     1
  0
STYLE
  2
STANDARD
 70
     0
 40
0.0
 41
0.8
 50
0.0
 71
     0
 42
0.2
  3
txt
  4

  0
ENDTAB
  0
TABLE
  2
VIEW
 70
     0
  0
ENDTAB
  0
TABLE
  2
UCS
 70
     0
  0
ENDTAB
  0
TABLE
  2
APPID
 70
     9
  0
APPID
  2
ACAD
 70
     0
  0
APPID
  2
ACAD_MLEADERVER
 70
     0
  0
APPID
  2
ACAD_EXEMPT_FROM_CAD_STANDARDS
 70
     0
  0
APPID
  2
ACAD_NAV_VCDISPLAY
 70
     0
  0
APPID
  2
ACAECLAYERSTANDARD
 70
     0
  0
APPID
  2
ACCMTRANSPARENCY
 70
     0
  0
APPID
  2
ACAD_DSTYLE_DIMJAG
 70
     0
  0
APPID
  2
ACAD_DSTYLE_DIMTALN
 70
     0
  0
APPID
  2
ACDBATTR
 70
     0
  0
ENDTAB
  0
TABLE
  2
DIMSTYLE
 70
     1
  0
DIMSTYLE
  2
STANDARD
 70
     0
  3

  4

  5

  6

  7

 40
1.0
 41
0.1875
 42
0.0625
 43
0.38
 44
0.125
 45
0.0
 46
0.0
 47
0.01
 48
0.01
140
0.15625
141
0.09
142
0.0
143
25.3999999999999986
144
1.0
145
0.0
146
1.0
147
0.09
 71
     1
 72
     0
 73
     1
 74
     1
 75
     0
 76
     0
 77
     0
 78
     4
170
     0
171
     2
172
     0
173
     0
174
     0
175
     0
176
     0
177
     0
178
     0
  0
ENDTAB
  0
ENDSEC
  0
SECTION
  2
BLOCKS
  0
BLOCK
  8
0
  2
$MODEL_SPACE
 70
     0
 10
0.0
 20
0.0
 30
0.0
  3
$MODEL_SPACE
  1

  0
ENDBLK
  5
21
  8
0
  0
BLOCK
 67
     1
  8
0
  2
$PAPER_SPACE
 70
     0
 10
0.0
 20
0.0
 30
0.0
  3
$PAPER_SPACE
  1

  0
ENDBLK
  5
1D
 67
     1
  8
0
  0
ENDSEC
  0
SECTION
  2
ENTITIES
  0
ATTDEF
  5
3930
  8
DEFPOINTS
 10
3445.7983743068330114
 20
207.8586709823385092
 30
0.0
 40
0.001
  1
P24600-LV
  3

  2
MODELNUMBER
 70
     0
1001
ACDBATTR
1070
     0
1070
     1
  0
ATTDEF
  5
3931
  8
DEFPOINTS
 10
3445.7983743068330114
 20
207.8570043156719009
 30
0.0
 40
0.001
  1
KALLISTA
  3

  2
BRANDNAME
 70
     0
1001
ACDBATTR
1070
     0
1070
     1
  0
ATTDEF
  5
3932
  8
DEFPOINTS
 10
3445.7983743068330114
 20
207.8553376490052074
 30
0.0
 40
0.001
  1
BATHROOM SINK FAUCET
  3

  2
PRODUCT
 70
     0
1001
ACDBATTR
1070
     0
1070
     1
  0
ARC
  5
11662
  8
0
 10
3446.0355191987391663
 20
211.8654104001325038
 30
0.0
 40
0.4877555124309616
 50
296.0080006322102122
 51
311.5820238712252035
  0
ARC
  5
11663
  8
0
 10
3446.2276018127849966
 20
211.6489089462083086
 30
0.0
 40
0.1983274387012253
 50
311.5852515237733087
 51
329.5551046595701905
  0
ARC
  5
11664
  8
0
 10
3446.2734994717461632
 20
211.6219325839902012
 30
0.0
 40
0.1450891140034699
 50
329.5551046595701905
 51
356.1668220567601111
  0
ARC
  5
11665
  8
0
 10
3446.2093732193511642
 20
211.6262291434572091
 30
0.0
 40
0.2093591433288664
 50
356.1668220567601111
 51
14.0975690725554106
  0
ARC
  5
11666
  8
0
 10
3446.211675707717859
 20
211.6268073847085986
 30
0.0
 40
0.206985156044944
 50
14.0975690725554106
 51
32.270546071476069
  0
ARC
  5
11667
  8
0
 10
3446.1871628877579496
 20
211.6113286547428913
 30
0.0
 40
0.2359760067349595
 50
32.270546071476069
 51
48.1391749921293197
  0
ARC
  5
11668
  8
0
 10
3446.1125540974248906
 20
211.528061334196309
 30
0.0
 40
0.3477790400838462
 50
48.1391749921293197
 51
58.9403598285549535
  0
ARC
  5
11669
  8
0
 10
3446.0285977091398308
 20
211.388663321509199
 30
0.0
 40
0.5105072830995505
 50
58.9403598285549535
 51
59.9779793425308725
  0
ARC
  5
1166A
  8
0
 10
3446.028542311361889
 20
211.388567454852307
 30
0.0
 40
0.5106180049566011
 50
59.9779793425308725
 51
73.4724159575583826
  0
ARC
  5
1166B
  8
0
 10
3445.8832088708950323
 20
210.8987959706308004
 30
0.0
 40
1.0214975560003321
 50
73.4724159575583826
 51
81.0189784771369261
  0
ARC
  5
1166C
  8
0
 10
3445.8309638204018484
 20
210.5682250597606071
 30
0.0
 40
1.3561715352916179
 50
81.0189784771369261
 51
92.019315276061036
  0
LINE
  5
1166D
  8
0
 10
3446.2338114919930376
 20
211.4087423200195985
 30
0.0
 11
3446.2234973041918238
 21
211.3745581547196082
 31
0.0
  0
ARC
  5
1166E
  8
0
 10
3446.262532616091903
 20
211.400076465819609
 30
0.0
 40
0.0299999999999964
 50
115.9641493093993034
 51
163.2101737947054971
  0
ARC
  5
1166F
  8
0
 10
3446.1947761805081427
 20
211.3832240128234901
 30
0.0
 40
0.0300000006473275
 50
300.4838072535043239
 51
343.2101662869072243
  0
ARC
  5
11670
  8
0
 10
3446.2085460809948927
 20
211.1339371837447914
 30
0.0
 40
0.1904230986373734
 50
130.0207237535011018
 51
174.0918360729064887
  0
ARC
  5
11671
  8
0
 10
3446.1567606313387842
 20
211.1392961470710077
 30
0.0
 40
0.1383611040162785
 50
174.0918360729064887
 51
189.5161440485545086
  0
ARC
  5
11672
  8
0
 10
3446.1153377903688124
 20
211.1323523417941885
 30
0.0
 40
0.0963602922883233
 50
189.5161440485528885
 51
210.9047138809783917
  0
ARC
  5
11673
  8
0
 10
3446.0894557452879781
 20
210.9899164284144035
 30
0.0
 40
0.0392930659873643
 50
294.0908721089801929
 51
41.2692390831931419
  0
ARC
  5
11674
  8
0
 10
3446.2470136949159496
 20
210.9493208530381878
 30
0.0
 40
0.1026016671189327
 50
193.8509055325262977
 51
239.978538394177292
  0
ARC
  5
11675
  8
0
 10
3446.1280843837921566
 20
210.9195544194195975
 30
0.0
 40
0.0199999999999982
 50
15.0818876805967506
 51
90.0
  0
LINE
  5
11676
  8
0
 10
3446.2926772115920357
 20
210.7925544194195879
 30
0.0
 11
3446.2926772115920357
 21
210.8196760143196116
 31
0.0
  0
ARC
  5
11677
  8
0
 10
3446.2726772115920539
 20
210.8196760143196116
 30
0.0
 40
0.019999999999996
 50
359.9999999999885745
 51
83.115302310202253
  0
LINE
  5
11678
  8
0
 10
3446.0143054004020087
 20
210.7925544194195879
 30
0.0
 11
3446.3256772115919375
 21
210.7925544194195879
 31
0.0
  0
LINE
  5
11679
  8
0
 10
3446.3456772115919193
 20
210.7725544194196061
 30
0.0
 11
3446.3456772115919193
 21
210.7367804893387131
 31
0.0
  0
ARC
  5
1167A
  8
0
 10
3446.3256772115919375
 20
210.7725544194196061
 30
0.0
 40
0.0200000000000031
 50
0.0000000000081422
 51
90.0
  0
ARC
  5
1167B
  8
0
 10
3446.3554887649920602
 20
210.6565544194195923
 30
0.0
 40
0.0800000000000005
 50
18.4685512511805214
 51
90.0000036526129037
  0
LINE
  5
1167C
  8
0
 10
3446.2750746454557884
 20
210.8395318021626963
 30
0.0
 11
3445.9514397364919205
 21
210.8407641788195974
 31
0.0
  0
ARC
  5
1167D
  8
0
 10
3445.0523326055331381
 20
210.2323482450393044
 30
0.0
 40
1.450460075668075
 50
3.205967882319348
 51
18.0553365146267701
  0
ARC
  5
1167E
  8
0
 10
3444.6466702868351604
 20
210.2016395197817076
 30
0.0
 40
1.8572220285829251
 50
353.4207407744152079
 51
3.4519622988178491
  0
ARC
  5
1167F
  8
0
 10
3443.436339453941855
 20
210.3412355947756112
 30
0.0
 40
3.0755765702516369
 50
349.5183746683920845
 51
353.4207407744152079
  0
ARC
  5
11680
  8
0
 10
3443.1331133367980328
 20
210.3973346551595967
 30
0.0
 40
3.3839483956419381
 50
343.965697255718112
 51
349.5183746683920845
  0
ARC
  5
11681
  8
0
 10
3448.1152995975248814
 20
208.9654871094342923
 30
0.0
 40
1.799908019303883
 50
163.9656972557179984
 51
175.5994607796833122
  0
ARC
  5
11682
  8
0
 10
3447.7742089315738667
 20
208.9917358348801031
 30
0.0
 40
1.4578088553379209
 50
175.5994607796833122
 51
190.5815512575086075
  0
ARC
  5
11683
  8
0
 10
3446.9011231145459533
 20
208.8286332198757123
 30
0.0
 40
0.5696189505780707
 50
190.5815512575086075
 51
208.0385452948021054
  0
ARC
  5
11684
  8
0
 10
3447.0321119775057923
 20
208.9042454341200994
 30
0.0
 40
0.7207950459791022
 50
208.4490643966454968
 51
230.5540790315872925
  0
ARC
  5
11685
  8
0
 10
3446.4977728556559669
 20
210.7601965335080081
 30
0.0
 40
0.6628975985057931
 50
115.7293808261887023
 51
128.3915926462331925
  0
ARC
  5
11686
  8
0
 10
3446.1102680877338571
 20
211.1393079894606899
 30
0.0
 40
0.0959664767247695
 50
216.0293442855337105
 51
241.8241381355246062
  0
ARC
  5
11687
  8
0
 10
3445.9110761254441968
 20
210.767440454910286
 30
0.0
 40
0.3258900167580657
 50
54.4075874556626502
 51
61.8241381355245281
  0
ARC
  5
11688
  8
0
 10
3446.0395270185931622
 20
210.9469089706653051
 30
0.0
 40
0.1051898126385792
 50
40.9382268950086186
 51
54.4075874556626502
  0
ARC
  5
11689
  8
0
 10
3446.0801472451339578
 20
211.0246289628099134
 30
0.0
 40
0.0749964524396009
 50
269.5469013484246261
 51
289.7538853091446072
  0
ARC
  5
1168A
  8
0
 10
3446.2887094103530217
 20
211.0520983771295107
 30
0.0
 40
0.2130034168903064
 50
244.1031232303596994
 51
266.3298758813178893
  0
ARC
  5
1168B
  8
0
 10
3446.7209435138088338
 20
208.9574816214372959
 30
0.0
 40
0.6272687817904256
 50
256.4666109181882803
 51
264.357924471706383
  0
LINE
  5
1168C
  8
0
 10
3446.6781772115919011
 20
208.311470763219603
 30
0.0
 11
3446.6781772115919011
 21
208.2735544194196109
 31
0.0
  0
LINE
  5
1168D
  8
0
 10
3446.6795169575548243
 20
208.268554419419587
 30
0.0
 11
3446.7051772115928543
 21
208.268554419419587
 31
0.0
  0
ARC
  5
1168E
  8
0
 10
3446.7051772115928543
 20
208.2385544194195859
 30
0.0
 40
0.0300000000000078
 50
56.512723708594983
 51
89.9999975851608554
  0
ARC
  5
1168F
  8
0
 10
3446.6561772115919666
 20
208.311470763219603
 30
0.0
 40
0.0219999999999991
 50
359.9999999999968168
 51
81.906985384183514
  0
LINE
  5
11690
  8
0
 10
3446.7981772115931562
 20
208.2305544194196045
 30
0.0
 11
3446.7981772115931562
 21
208.1777431083195893
 31
0.0
  0
LINE
  5
11691
  8
0
 10
3444.8011772251861657
 20
208.2635544476015923
 30
0.0
 11
3446.765177210391812
 21
208.2635544194195916
 31
0.0
  0
ARC
  5
11692
  8
0
 10
3446.7651772115918902
 20
208.2305544194196045
 30
0.0
 40
0.033
 50
0.0
 51
89.9999964201850418
  0
ARC
  5
11693
  8
0
 10
3446.8311772115530403
 20
208.1777431083069985
 30
0.0
 40
0.0329999999609925
 50
179.9999999781657891
 51
251.4717910715920084
  0
ARC
  5
11694
  8
0
 10
3446.6982762947159245
 20
207.7811930705856867
 30
0.0
 40
0.3852279117248446
 50
62.4389415176692282
 51
71.4717910715920226
  0
ARC
  5
11695
  8
0
 10
3446.7798050433839308
 20
207.9374016763281077
 30
0.0
 40
0.209023299505498
 50
46.8035016006147018
 51
62.4389415176692282
  0
ARC
  5
11696
  8
0
 10
3446.7380827092229083
 20
207.8929664614267097
 30
0.0
 40
0.269976080337246
 50
35.9188719682329491
 51
46.8035016006158102
  0
ARC
  5
11697
  8
0
 10
3446.8121726375138678
 20
207.9466358250973883
 30
0.0
 40
0.1784899170614874
 50
25.5596631646616217
 51
35.9188719682329491
  0
ARC
  5
11698
  8
0
 10
3446.7977954352168126
 20
207.9397598649410952
 30
0.0
 40
0.1944267540738772
 50
13.6370943829753895
 51
25.5596631646616217
  0
ARC
  5
11699
  8
0
 10
3446.9057231798101384
 20
207.9659443099934037
 30
0.0
 40
0.0833681064336219
 50
351.1380797996625915
 51
13.6370943829753895
  0
ARC
  5
1169A
  8
0
 10
3446.9245635692750511
 20
207.9630068111229946
 30
0.0
 40
0.0643000919903414
 50
321.5524507788883852
 51
351.1380797996642968
  0
ARC
  5
1169B
  8
0
 10
3446.929229965921877
 20
207.9593019612028115
 30
0.0
 40
0.0583418061132694
 50
298.1928764895117752
 51
321.5524507788883852
  0
ARC
  5
1169C
  8
0
 10
3446.8856825138218483
 20
208.0405418676133991
 30
0.0
 40
0.1505171985887528
 50
291.622859687534401
 51
298.1928764895117752
  0
ARC
  5
1169D
  8
0
 10
3446.9117416940880503
 20
207.9748005359757883
 30
0.0
 40
0.0797994245736876
 50
282.0254983988579056
 51
291.622859687534401
  0
ARC
  5
1169E
  8
0
 10
3446.998813359884025
 20
207.5660550979430923
 30
0.0
 40
0.3381172035915387
 50
102.0254983988579056
 51
103.1847362166782034
  0
ARC
  5
1169F
  8
0
 10
3446.9081377770608015
 20
207.9531162046500015
 30
0.0
 40
0.0594231863632622
 50
277.4574567460387016
 51
283.1847362166782887
  0
ARC
  5
116A0
  8
0
 10
3446.84677779238109
 20
207.9639983711385867
 30
0.0
 40
0.0982009824806365
 50
278.9926960827023095
 51
314.6987428815667158
  0
LINE
  5
116A1
  8
0
 10
3446.8616772115919957
 20
207.8635544194195859
 30
0.0
 11
3444.7046772115932072
 21
207.8635544194195859
 31
0.0
  0
ARC
  5
116A2
  8
0
 10
3446.8809915243427895
 20
208.1138242748600078
 30
0.0
 40
0.2223777605503211
 50
268.2150316387816247
 51
279.0185846752418115
  0
LINE
  5
116A3
  8
0
 10
3446.8616772115919957
 20
207.8635544194195859
 30
0.0
 11
3446.8641458381930534
 21
207.8828250649195866
 31
0.0
  0
ARC
  5
116A4
  8
0
 10
3446.8740647826921304
 20
207.8815544194195866
 30
0.0
 40
0.0099999999999979
 50
90.0
 51
172.699999999998596
  0
ARC
  5
116A5
  8
0
 10
3446.6881772119181733
 20
208.2735544197456932
 30
0.0
 40
0.0100000003261371
 50
180.0000018686297096
 51
269.9998710193927991
  0
LINE
  5
116A6
  8
0
 10
3446.3554887649920602
 20
210.7365544194196048
 30
0.0
 11
3446.0531332192958871
 21
210.7365544194196048
 31
0.0
  0
ARC
  5
116A7
  8
0
 10
3445.5308353302762043
 20
211.8654104073742985
 30
0.0
 40
0.4877555124309616
 50
228.4179744844647075
 51
243.9919977234821999
  0
ARC
  5
116A8
  8
0
 10
3445.338752710017161
 20
211.6489089589626076
 30
0.0
 40
0.1983274387012252
 50
210.4448936961206016
 51
228.414746831909099
  0
ARC
  5
116A9
  8
0
 10
3445.2928550502820144
 20
211.6219325980617043
 30
0.0
 40
0.1450891140034699
 50
183.8331762989317042
 51
210.4448936961206016
  0
ARC
  5
116AA
  8
0
 10
3445.3569813028011595
 20
211.6262291556884918
 30
0.0
 40
0.2093591433288664
 50
165.9024292831356888
 51
183.8331762989317042
  0
ARC
  5
116AB
  8
0
 10
3445.354678814449926
 20
211.6268073970059049
 30
0.0
 40
0.2069851560449439
 50
147.729452284215796
 51
165.9024292831356888
  0
ARC
  5
116AC
  8
0
 10
3445.3791916339650925
 20
211.6113286663367035
 30
0.0
 40
0.2359760067349595
 50
131.8608233635721092
 51
147.729452284215796
  0
ARC
  5
116AD
  8
0
 10
3445.4538004219098184
 20
211.528061343649
 30
0.0
 40
0.3477790400838461
 50
121.0596385271369968
 51
131.8608233635721092
  0
ARC
  5
116AE
  8
0
 10
3445.537756806194011
 20
211.3886633285524113
 30
0.0
 40
0.5105072830995504
 50
120.0220190131561964
 51
121.0596385271369968
  0
ARC
  5
116AF
  8
0
 10
3445.5378122039678601
 20
211.3885674618940129
 30
0.0
 40
0.510618004956601
 50
106.5275823981183976
 51
120.0220190131561964
  0
ARC
  5
116B0
  8
0
 10
3445.6831456303798404
 20
210.898795973501592
 30
0.0
 40
1.0214975560003321
 50
98.9810198785591098
 51
106.5275823981183976
  0
ARC
  5
116B1
  8
0
 10
3445.7353906713869947
 20
210.5682250611318977
 30
0.0
 40
1.3561715352916179
 50
87.9806830796224375
 51
98.9810198785591098
  0
LINE
  5
116B2
  8
0
 10
3445.3325430239169691
 20
211.4087423329521869
 30
0.0
 11
3445.3428572107359287
 21
211.3745581673560991
 31
0.0
  0
ARC
  5
116B3
  8
0
 10
3445.3038218995689022
 20
211.4000764795763985
 30
0.0
 40
0.0299999999999964
 50
16.7898245609850214
 51
64.0358490462965051
  0
ARC
  5
116B4
  8
0
 10
3445.3715783346701755
 20
211.3832240246358083
 30
0.0
 40
0.0300000006473275
 50
196.789832068783312
 51
239.5161911021984906
  0
ARC
  5
116B5
  8
0
 10
3445.357808427027976
 20
211.1339371959523135
 30
0.0
 40
0.1904230986373734
 50
5.9081622827876172
 51
49.9792746022025796
  0
ARC
  5
116B6
  8
0
 10
3445.4095938768377891
 20
211.1392961577923018
 30
0.0
 40
0.1383611040162785
 50
350.4838543071409163
 51
5.9081622827876172
  0
ARC
  5
116B7
  8
0
 10
3445.4510167176090363
 20
211.1323523513266878
 30
0.0
 40
0.0963602922883233
 50
329.0952844747203017
 51
350.4838543071409163
  0
ARC
  5
116B8
  8
0
 10
3445.4768987586007825
 20
210.9899164372041866
 30
0.0
 40
0.0392930659873643
 50
138.7307592725078962
 51
245.9091262467123045
  0
ARC
  5
116B9
  8
0
 10
3445.3193408078091124
 20
210.9493208663496944
 30
0.0
 40
0.1026016671189327
 50
300.0214599615164275
 51
346.1490928231665976
  0
ARC
  5
116BA
  8
0
 10
3445.4382701180779804
 20
210.9195544293179978
 30
0.0
 40
0.0199999999999982
 50
89.9999983556884473
 51
164.9181106750947094
  0
LINE
  5
116BB
  8
0
 10
3445.2736772866328465
 20
210.7925544340415058
 30
0.0
 11
3445.2736772874118287
 21
210.819676028941501
 31
0.0
  0
ARC
  5
116BC
  8
0
 10
3445.2936772874118105
 20
210.8196760283674962
 30
0.0
 40
0.019999999999996
 50
96.8846960454849153
 51
179.9999983557046903
  0
LINE
  5
116BD
  8
0
 10
3445.5520490978251473
 20
210.7925544260527033
 30
0.0
 11
3445.2406772866329447
 21
210.7925544349886025
 31
0.0
  0
LINE
  5
116BE
  8
0
 10
3445.2206772860599813
 20
210.7725544355625118
 30
0.0
 11
3445.2205384795411192
 21
210.750213277337906
 31
0.0
  0
ARC
  5
116BF
  8
0
 10
3445.2406772860599631
 20
210.772554434988507
 30
0.0
 40
0.0200000000000031
 50
89.9999983556884473
 51
179.9999983556834877
  0
LINE
  5
116C0
  8
0
 10
3445.2912798541178745
 20
210.8395318162793899
 30
0.0
 11
3445.6149147631181222
 21
210.8407641836485027
 31
0.0
  0
ARC
  5
116C1
  8
0
 10
3444.4540633609140059
 20
208.9123847721610048
 30
0.0
 40
0.7937711552565875
 50
346.2733906824483938
 51
13.51416387372341
  0
ARC
  5
116C2
  8
0
 10
3444.6652313273189066
 20
208.8286332519591042
 30
0.0
 40
0.5696189505780705
 50
331.9614530608935183
 51
349.4184470981844015
  0
ARC
  5
116C3
  8
0
 10
3444.5342424665282124
 20
208.9042454699626887
 30
0.0
 40
0.720795045979102
 50
309.4459193241091839
 51
331.5509339590424815
  0
ARC
  5
116C4
  8
0
 10
3445.0685816416421403
 20
210.7601965540158915
 30
0.0
 40
0.662897598505793
 50
51.6084057094535993
 51
64.270617529501223
  0
ARC
  5
116C5
  8
0
 10
3445.4560864204431709
 20
211.1393079988476984
 30
0.0
 40
0.0959664767247695
 50
298.1758602201819031
 51
323.9706540701690756
  0
ARC
  5
116C6
  8
0
 10
3445.6552783720608204
 20
210.7674404585808929
 30
0.0
 40
0.3258900167580657
 50
118.1758602201819031
 51
125.592410900044996
  0
ARC
  5
116C7
  8
0
 10
3445.5268274840609593
 20
210.9469089780222077
 30
0.0
 40
0.1051898126385792
 50
125.592410900044996
 51
139.0617714606972015
  0
ARC
  5
116C8
  8
0
 10
3445.4862072597529732
 20
211.0246289713325041
 30
0.0
 40
0.0749964524396009
 50
250.2461130465499082
 51
270.4530970072644891
  0
ARC
  5
116C9
  8
0
 10
3445.2776450953219864
 20
211.0520983916375997
 30
0.0
 40
0.2130034168903064
 50
273.6701224743856073
 51
295.8968751253225946
  0
ARC
  5
116CA
  8
0
 10
3444.845410931753122
 20
208.9574816483498125
 30
0.0
 40
0.6272687817904254
 50
275.6420738839890987
 51
283.5333874375181722
  0
LINE
  5
116CB
  8
0
 10
3444.8881772154300052
 20
208.3114707889048134
 30
0.0
 11
3444.8881772143417948
 21
208.2735544451047929
 31
0.0
  0
LINE
  5
116CC
  8
0
 10
3444.8868374682360809
 20
208.2685544451431952
 30
0.0
 11
3444.8611772141980509
 21
208.2685544458796869
 31
0.0
  0
ARC
  5
116CD
  8
0
 10
3444.8611772133381237
 20
208.2385544458797142
 30
0.0
 40
0.0300000000000078
 50
90.0000007705275777
 51
123.4872746470821028
  0
ARC
  5
116CE
  8
0
 10
3444.9101772154299397
 20
208.3114707882735104
 30
0.0
 40
0.0219999999999991
 50
98.0930129715175809
 51
179.9999983556965901
  0
LINE
  5
116CF
  8
0
 10
3444.7681772131081743
 20
208.2305544485485882
 30
0.0
 11
3444.7681772115920467
 21
208.1777431374486014
 31
0.0
  0
ARC
  5
116D0
  8
0
 10
3444.8011772131080761
 20
208.2305544476016053
 30
0.0
 40
0.033
 50
90.0000019355034055
 51
179.9999983556932932
  0
ARC
  5
116D1
  8
0
 10
3444.7351772116321627
 20
208.1777431383831072
 30
0.0
 40
0.0329999999609925
 50
288.5282072840942078
 51
359.9999983775257988
  0
ARC
  5
116D2
  8
0
 10
3444.868078117089226
 20
207.7811930968476872
 30
0.0
 40
0.3852279117248445
 50
108.5282072840941936
 51
117.5610568380265022
  0
ARC
  5
116D3
  8
0
 10
3444.7865493729032096
 20
207.9374017049298118
 30
0.0
 40
0.209023299505498
 50
117.5610568380265022
 51
133.1964967550775043
  0
ARC
  5
116D4
  8
0
 10
3444.8282717057891205
 20
207.8929664888310924
 30
0.0
 40
0.269976080337246
 50
133.1964967550775043
 51
144.0811263874454937
  0
ARC
  5
116D5
  8
0
 10
3444.7541817790379355
 20
207.9466358546281128
 30
0.0
 40
0.1784899170614874
 50
144.0811263874454937
 51
154.4403351910245874
  0
ARC
  5
116D6
  8
0
 10
3444.7685589811380851
 20
207.9397598940591934
 30
0.0
 40
0.1944267540738771
 50
154.4403351910245874
 51
166.3629039727177883
  0
ARC
  5
116D7
  8
0
 10
3444.6606312372960019
 20
207.9659443422088998
 30
0.0
 40
0.0833681064336219
 50
166.3629039727177883
 51
188.8619185560258984
  0
ARC
  5
116D8
  8
0
 10
3444.6417908477469609
 20
207.9630068438791
 30
0.0
 40
0.0643000919903414
 50
188.8619185560258984
 51
218.4475475768032879
  0
ARC
  5
116D9
  8
0
 10
3444.6371244509941789
 20
207.9593019940928116
 30
0.0
 40
0.0583418061132694
 50
218.4475475768032879
 51
241.8071218661982869
  0
ARC
  5
116DA
  8
0
 10
3444.6806719054247878
 20
208.0405418992536966
 30
0.0
 40
0.1505171985887527
 50
241.8071218661982869
 51
248.3771386681544868
  0
ARC
  5
116DB
  8
0
 10
3444.6546127232718391
 20
207.9748005683640031
 30
0.0
 40
0.0797994245736876
 50
248.3771386681544868
 51
257.9744999568326875
  0
ARC
  5
116DC
  8
0
 10
3444.5675410457461112
 20
207.5660551328300869
 30
0.0
 40
0.3381172035915386
 50
76.8152621390214989
 51
77.9744999568327017
  0
ARC
  5
116DD
  8
0
 10
3444.6582166396769935
 20
207.9531162369347896
 30
0.0
 40
0.0594231863632622
 50
256.8152621390215131
 51
262.5425416096546201
  0
ARC
  5
116DE
  8
0
 10
3444.7195766246691164
 20
207.9639984016625078
 30
0.0
 40
0.0982009824806365
 50
225.3012554741389977
 51
261.0073022729935133
  0
ARC
  5
116DF
  8
0
 10
3444.6853628970079626
 20
208.1138243063657001
 30
0.0
 40
0.222377760550321
 50
260.9814136804419036
 51
271.7849667169165855
  0
LINE
  5
116E0
  8
0
 10
3444.7046772025751125
 20
207.863554450370998
 30
0.0
 11
3444.7022085765279371
 21
207.8828250959419108
 31
0.0
  0
ARC
  5
116E1
  8
0
 10
3444.6922896319920255
 20
207.8815544507264974
 30
0.0
 40
0.0099999999999979
 50
7.299998355693484
 51
89.9999983557144958
  0
ARC
  5
116E2
  8
0
 10
3444.8781772140159774
 20
208.273554445717906
 30
0.0
 40
0.0100000003261371
 50
270.0001273362955772
 51
359.999996487061992
  0
ARC
  5
116E3
  8
0
 10
3444.5812728669461649
 20
208.9116802952395915
 30
0.0
 40
0.6709380355961283
 50
16.1121348113035694
 51
50.8112631808746968
  0
ARC
  5
116E4
  8
0
 10
3444.533705270721839
 20
208.8533332457288907
 30
0.0
 40
0.7462178761720343
 50
50.8112631808746968
 51
68.3050408766698069
  0
ARC
  5
116E5
  8
0
 10
3443.7278555283651258
 20
206.8278035552901883
 30
0.0
 40
2.9261638236910441
 50
68.3050408766698069
 51
73.6238668721357499
  0
ARC
  5
116E6
  8
0
 10
3443.2251973481647838
 20
205.1172872344708935
 30
0.0
 40
4.709007431501794
 50
73.6238668721357499
 51
80.120200259891476
  0
ARC
  5
116E7
  8
0
 10
3439.9879232996231622
 20
186.5298537869890083
 30
0.0
 40
23.5762442570131903
 50
80.120200259891476
 51
81.063103571367634
  0
ARC
  5
116E8
  8
0
 10
3442.6290040099761427
 20
203.3246768905586066
 30
0.0
 40
6.5750269359270961
 50
81.063103571367634
 51
85.7113028094556739
  0
ARC
  5
116E9
  8
0
 10
3443.9248674285931884
 20
220.6047003652915919
 30
0.0
 40
10.7535181064886096
 50
263.5879045611908964
 51
265.7113028094556739
  0
ARC
  5
116EA
  8
0
 10
3442.2116560013018898
 20
205.3601290382221123
 30
0.0
 40
4.5870180099810289
 50
83.5879045611909532
 51
86.8726410014256061
  0
ARC
  5
116EB
  8
0
 10
3443.3540377399299359
 20
226.2687097008744956
 30
0.0
 40
16.3527475417961305
 50
265.9459818541801042
 51
266.8726410014256203
  0
ARC
  5
116EC
  8
0
 10
3441.9831654229619744
 20
206.9263991766345043
 30
0.0
 40
3.0380819228129901
 50
85.9459818541801184
 51
93.7743458386078856
  0
ARC
  5
116ED
  8
0
 10
3441.8880499112920006
 20
208.3681939534087917
 30
0.0
 40
1.593153156785486
 50
93.7743458386078856
 51
100.9633901202085013
  0
ARC
  5
116EE
  8
0
 10
3441.6505179623632102
 20
209.5943723381583084
 30
0.0
 40
0.344179635052874
 50
100.9633901202085013
 51
123.850355749325999
  0
ARC
  5
116EF
  8
0
 10
3441.584991816299862
 20
209.7119329601950994
 30
0.0
 40
0.2103376003911543
 50
126.8658820690911995
 51
156.1802031089405034
  0
ARC
  5
116F0
  8
0
 10
3441.9059538674300711
 20
209.6013889110097068
 30
0.0
 40
0.5493442316878397
 50
159.1536547726036019
 51
183.1297861135971914
  0
LINE
  5
116F1
  8
0
 10
3440.3452468491300351
 20
209.7126931370104899
 30
0.0
 11
3441.271694161313917
 21
209.5157706692019985
 31
0.0
  0
ARC
  5
116F2
  8
0
 10
3441.2974273136887859
 20
209.5716436276611887
 30
0.0
 40
0.0600022235446704
 50
258.0026119352397131
 51
359.7634109592613072
  0
ARC
  5
116F3
  8
0
 10
3472.1934236561210128
 20
354.9584677536122967
 30
0.0
 40
148.6934144141482079
 50
257.9973880722093895
 51
258.0026119352397131
  0
LINE
  5
116F4
  8
0
 10
3445.2206772115919193
 20
210.7502106719196036
 30
0.0
 11
3444.083482215838103
 21
210.7715674425942893
 31
0.0
  0
LINE
  5
116F5
  8
0
 10
3444.083482215838103
 20
210.7715674425942893
 30
0.0
 11
3443.2903180422467813
 21
210.7947226818619129
 31
0.0
  0
LINE
  5
116F6
  8
0
 10
3443.2903180422467813
 20
210.7947226818619129
 30
0.0
 11
3442.0978506677179212
 21
210.847468891710804
 31
0.0
  0
LINE
  5
116F7
  8
0
 10
3442.0978506677179212
 20
210.847468891710804
 30
0.0
 11
3441.7811186526969323
 21
210.8609791217718055
 31
0.0
  0
ARC
  5
116F8
  8
0
 10
3441.7785460111799694
 20
210.8006664603360036
 30
0.0
 40
0.0603675046183362
 50
87.5575244363255223
 51
88.1608398064356464
  0
ARC
  5
116F9
  8
0
 10
3442.1415460077942043
 20
222.105404352401905
 30
0.0
 40
11.2501969289478101
 50
267.8345738442217225
 51
268.1608398064357175
  0
ARC
  5
116FA
  8
0
 10
3441.5474424063941115
 20
206.3932914138181047
 30
0.0
 40
4.4731440672911837
 50
87.8345738442216941
 51
91.6590193291115725
  0
ARC
  5
116FB
  8
0
 10
3441.4664081321238882
 20
209.1911034686413871
 30
0.0
 40
1.674158742620536
 50
91.6590193291115725
 51
105.1584077320314066
  0
ARC
  5
116FC
  8
0
 10
3441.2461163668431254
 20
210.0042443584264049
 30
0.0
 40
0.8317060326769748
 50
105.1584077320314066
 51
128.9395293868512056
  0
ARC
  5
116FD
  8
0
 10
3441.3710915329729687
 20
209.8495794021941947
 30
0.0
 40
1.030552809959751
 50
128.9395293868512056
 51
155.8199988868570927
  0
ARC
  5
116FE
  8
0
 10
3444.3328032355379946
 20
208.5197757646234891
 30
0.0
 40
4.2771069714677594
 50
155.8199988868570927
 51
159.6772977963767914
  0
ARC
  5
116FF
  8
0
 10
3442.592533426593036
 20
209.1643051264128985
 30
0.0
 40
2.4213168146525521
 50
159.6772977963767914
 51
164.8432078680538098
  0
ARC
  5
11700
  8
0
 10
3440.315357168922219
 20
209.781156572294492
 30
0.0
 40
0.0620717203926943
 50
164.8432078680538098
 51
210.1781680979009082
  0
ARC
  5
11701
  8
0
 10
3440.3119035719441854
 20
209.7791482921838053
 30
0.0
 40
0.058076658304132
 50
210.1781680979009082
 51
258.8340007826682836
  0
LINE
  5
11702
  8
0
 10
3440.3006568996920578
 20
209.7221710107195918
 30
0.0
 11
3440.3452468491300351
 21
209.7126931370104899
 31
0.0
  0
ARC
  5
11703
  8
0
 10
3442.8000551696081857
 20
209.1874951502555859
 30
0.0
 40
2.4923993907685489
 50
155.7179497896034945
 51
166.4241795352882889
  0
ARC
  5
11704
  8
0
 10
3441.5203166324968151
 20
209.764734484624995
 30
0.0
 40
1.0884991262758139
 50
141.6605487485047945
 51
155.7130469008912996
  0
ARC
  5
11705
  8
0
 10
3441.2044785737612074
 20
210.0145216562252131
 30
0.0
 40
0.6858239340392041
 50
121.840570538137797
 51
141.6605487485047945
  0
ARC
  5
11706
  8
0
 10
3441.350873917824174
 20
209.7787830194297101
 30
0.0
 40
0.9633204234618236
 50
109.4945049644024948
 51
121.840570538137797
  0
ARC
  5
11707
  8
0
 10
3441.4332537882028191
 20
209.5460785174826981
 30
0.0
 40
1.210176309091358
 50
96.2204814034919735
 51
109.4945049644024948
  0
ARC
  5
11708
  8
0
 10
3441.7178776699511218
 20
206.9347655567243862
 30
0.0
 40
3.8369549699392258
 50
92.6518956859023888
 51
96.2204814034919735
  0
ARC
  5
11709
  8
0
 10
3441.6684015881642154
 20
208.0029622239368052
 30
0.0
 40
2.767613115099266
 50
87.6232068203177192
 51
92.6518956859023888
  0
ARC
  5
1170A
  8
0
 10
3440.2404461019468727
 20
209.7938165398792023
 30
0.0
 40
0.138500416963897
 50
330.5323318089349982
 51
351.1627385273332038
  0
ARC
  5
1170B
  8
0
 10
3440.3246604531341291
 20
209.746233065988207
 30
0.0
 40
0.041772737712233
 50
314.7659360586073944
 51
330.5323318089349982
  0
ARC
  5
1170C
  8
0
 10
3440.3413240803351982
 20
209.7294327315036071
 30
0.0
 40
0.0181099460276309
 50
297.6848942791172021
 51
314.7659360586073944
  0
ARC
  5
1170D
  8
0
 10
3440.3464345864090319
 20
209.7196924132030915
 30
0.0
 40
0.0071103518114551
 50
263.7915238886561156
 51
297.68489427911652
  0
ARC
  5
1170E
  8
0
 10
3440.346122006737005
 20
209.7168190275639859
 30
0.0
 40
0.0042200142736556
 50
259.9035723460909253
 51
263.7915238886562861
  0
ARC
  5
1170F
  8
0
 10
3462.9692653297429388
 20
714.3094701027048359
 30
0.0
 40
503.9867723263998869
 50
267.5907478254616763
 51
267.8001927358585021
  0
ARC
  5
11710
  8
0
 10
3444.0988227802149595
 20
219.8536886059773963
 30
0.0
 40
9.1718738368187278
 50
267.0325745032155851
 51
269.5899151426038998
  0
ARC
  5
11711
  8
0
 10
3443.9131999646360782
 20
193.9194895886672043
 30
0.0
 40
16.7629894652909712
 50
87.9302598405004829
 51
89.5899151426039282
  0
ARC
  5
11712
  8
0
 10
3444.7216231568040712
 20
216.2890064855328944
 30
0.0
 40
5.6211306705729909
 50
267.9302598405005256
 51
273.1384907258429848
  0
ARC
  5
11713
  8
0
 10
3445.325619649644068
 20
205.2735746956672926
 30
0.0
 40
5.410847813839716
 50
88.2083858877128648
 51
93.1384907258430417
  0
LINE
  5
11714
  8
0
 10
3446.4313685796919344
 20
210.6818971447196134
 30
0.0
 11
3446.0715391965932213
 21
210.6818971447196134
 31
0.0
  0
ARC
  5
11715
  8
0
 10
3445.4130057795191533
 20
212.5835695261384046
 30
0.0
 40
1.843419368017863
 50
264.011289075269076
 51
268.5730221694926172
  0
ARC
  5
11716
  8
0
 10
3445.6998699890727949
 20
224.0993125658305019
 30
0.0
 40
13.3627348351338693
 50
268.5730221694926172
 51
269.2023139338691067
  0
LINE
  5
11717
  8
0
 10
3445.4868003281121673
 20
210.9496348639077041
 30
0.0
 11
3446.0801472451339578
 21
210.9496325103702929
 31
0.0
  0
LINE
  5
11718
  8
0
 10
3446.1280843837921566
 20
210.9395544194196077
 30
0.0
 11
3445.4382701186527811
 21
210.9395544293178943
 31
0.0
  0
ARC
  5
11719
  8
0
 10
3445.6756772115918466
 20
210.9417033661196115
 30
0.0
 40
0.0349999999999454
 50
166.9032135009593958
 51
183.5357974775079128
  0
ARC
  5
1171A
  8
0
 10
3445.8930513406071441
 20
210.9420739987239983
 30
0.0
 40
0.0326038342331427
 50
355.5678422973753072
 51
13.4058852234684291
  0
LINE
  5
1171B
  8
0
 10
3445.3169560609921973
 20
211.4270485139196012
 30
0.0
 11
3446.2493983621920961
 21
211.4270485139196012
 31
0.0
  0
LINE
  5
1171C
  8
0
 10
3445.3428571189929244
 20
211.3745581547196082
 30
0.0
 11
3446.2234973045920015
 21
211.3745581562195923
 31
0.0
  0
LINE
  5
1171D
  8
0
 10
3446.1115286874919548
 20
209.5925544194195993
 30
0.0
 11
3445.4549535125988768
 21
209.5925544194195993
 31
0.0
  0
LINE
  5
1171E
  8
0
 10
3445.5432410934918153
 20
209.5925544194195993
 30
0.0
 11
3445.5432410934918153
 21
209.5745544194195986
 31
0.0
  0
LINE
  5
1171F
  8
0
 10
3446.1262410934918989
 20
209.5745544194195986
 30
0.0
 11
3445.440241093493114
 21
209.5745544194195986
 31
0.0
  0
LINE
  5
11720
  8
0
 10
3445.440241093493114
 20
209.5745544194195986
 30
0.0
 11
3445.4187410934919171
 21
209.5695544194196032
 31
0.0
  0
LINE
  5
11721
  8
0
 10
3445.4187410934919171
 20
209.5695544194196032
 30
0.0
 11
3445.3758106482919175
 21
209.5435547314195901
 31
0.0
  0
LINE
  5
11722
  8
0
 10
3445.3758106482919175
 20
209.5435547314195901
 30
0.0
 11
3445.3758106482919175
 21
209.4275547314196047
 31
0.0
  0
LINE
  5
11723
  8
0
 10
3445.3758106482919175
 20
209.4275547314196047
 30
0.0
 11
3445.4077410934919499
 21
209.395554731419594
 31
0.0
  0
LINE
  5
11724
  8
0
 10
3445.4077410934919499
 20
209.395554731419594
 30
0.0
 11
3446.1587410934930631
 21
209.395554731419594
 31
0.0
  0
ARC
  5
11725
  8
0
 10
3445.4162410935218759
 20
209.3855547314871046
 30
0.0
 40
0.0099999999324898
 50
354.2608290949100933
 51
90.0000001717031353
  0
ARC
  5
11726
  8
0
 10
3445.3664917182782119
 20
209.3905547322029008
 30
0.0
 40
0.0600000033755194
 50
339.1412912897849878
 51
354.2608290949100933
  0
ARC
  5
11727
  8
0
 10
3445.3664917237988448
 20
209.3905547300994954
 30
0.0
 40
0.0599999974682849
 50
319.0726457772918252
 51
339.1412912897849878
  0
ARC
  5
11728
  8
0
 10
3445.3664917200021591
 20
209.3905547333910135
 30
0.0
 40
0.0600000024927893
 50
305.758297732446124
 51
319.0726457772918252
  0
ARC
  5
11729
  8
0
 10
3445.4132410685870127
 20
209.3256355926748995
 30
0.0
 40
0.0199999750938277
 50
125.7628482252156061
 51
180.0000365413305872
  0
ARC
  5
1172A
  8
0
 10
3442.0188866785451864
 20
209.3235949965784926
 30
0.0
 40
3.37435503194716
 50
357.3908719817745805
 51
0.0346485372262642
  0
ARC
  5
1172B
  8
0
 10
3442.4465367334260009
 20
209.3041072496091886
 30
0.0
 40
2.946261185084869
 50
353.1006057467989194
 51
357.3908719817745805
  0
ARC
  5
1172C
  8
0
 10
3443.0087131024711198
 20
209.2360824643413082
 30
0.0
 40
2.3799841845601062
 50
348.4968279344080884
 51
353.1006057467989194
  0
ARC
  5
1172D
  8
0
 10
3444.5518240098231217
 20
208.9220440334997875
 30
0.0
 40
0.8052424887781969
 50
335.8817560022778821
 51
348.4968279344080884
  0
ARC
  5
1172E
  8
0
 10
3444.8494957238640382
 20
208.7887752748407024
 30
0.0
 40
0.4790998644948043
 50
315.7057253241263766
 51
335.8817560022778821
  0
ARC
  5
1172F
  8
0
 10
3444.9454696856478222
 20
208.6951369296673136
 30
0.0
 40
0.345013545179953
 50
292.8348901531124966
 51
315.7057253241263766
  0
LINE
  5
11730
  8
0
 10
3445.3767757724322109
 20
209.5435547314621942
 30
0.0
 11
3445.3767757723921932
 21
209.4275547314196047
 31
0.0
  0
LINE
  5
11731
  8
0
 10
3445.3767757723921932
 20
209.4275547313835943
 30
0.0
 11
3445.3815197702538171
 21
209.4231908824916104
 31
0.0
  0
LINE
  5
11732
  8
0
 10
3445.3783641034920038
 20
209.4275547314196047
 30
0.0
 11
3445.3816752949060174
 21
209.4238149441538894
 31
0.0
  0
ARC
  5
11733
  8
0
 10
3445.3772521354771925
 20
209.4198279700667058
 30
0.0
 40
0.0059548553051683
 50
28.5715327736212394
 51
42.0310570074290979
  0
ARC
  5
11734
  8
0
 10
3445.3824045217070307
 20
209.4226338222100878
 30
0.0
 40
0.0000880086120725
 50
307.4968299023868781
 51
28.5715327736866094
  0
ARC
  5
11735
  8
0
 10
3445.385963999417072
 20
209.4283631058816866
 30
0.0
 40
0.0068193157753187
 50
229.3292043817430965
 51
236.8027620767296071
  0
ARC
  5
11736
  8
0
 10
3445.3826269434271126
 20
209.423263013219497
 30
0.0
 40
0.00072449109929
 50
236.8027620767568067
 51
251.6993827378383912
  0
ARC
  5
11737
  8
0
 10
3445.3824710835560836
 20
209.4227917535353072
 30
0.0
 40
0.0002281263245756
 50
251.6993827378657045
 51
266.7358251741208051
  0
LINE
  5
11738
  8
0
 10
3445.3783641034351604
 20
209.4275547314038874
 30
0.0
 11
3445.3784185093918495
 21
209.5435547314195901
 31
0.0
  0
LINE
  5
11739
  8
0
 10
3445.3784185093918495
 20
209.5435547314195901
 30
0.0
 11
3445.3824752404921128
 21
209.5464949842196063
 31
0.0
  0
LINE
  5
1173A
  8
0
 10
3445.3767757723921932
 20
209.5435547314195901
 30
0.0
 11
3445.3824052347717952
 21
209.5465510339307968
 31
0.0
  0
ARC
  5
1173B
  8
0
 10
3445.3824131326950919
 20
209.5464891551870892
 30
0.0
 40
0.000062380735128
 50
5.3617019453949188
 51
97.273646357108916
  0
LINE
  5
1173C
  8
0
 10
3445.3788737882928217
 20
209.5435547314544067
 30
0.0
 11
3445.3788737882860005
 21
209.4275547314437063
 31
0.0
  0
LINE
  5
1173D
  8
0
 10
3445.3788737882860005
 20
209.4275547314437063
 30
0.0
 11
3445.3842793426920252
 21
209.4228932339196092
 31
0.0
  0
LINE
  5
1173E
  8
0
 10
3445.381364518691953
 20
209.4275547314196047
 30
0.0
 11
3445.3813645186342001
 21
209.5435547314195901
 31
0.0
  0
LINE
  5
1173F
  8
0
 10
3445.3788737882928217
 20
209.5435547314544067
 30
0.0
 11
3445.3810852932419948
 21
209.5447631811695999
 31
0.0
  0
LINE
  5
11740
  8
0
 10
3445.3810852932419948
 20
209.5447631811695999
 30
0.0
 11
3445.3841159736330155
 21
209.546300101220794
 31
0.0
  0
LINE
  5
11741
  8
0
 10
3445.381364518691953
 20
209.5435547314590963
 30
0.0
 11
3445.3831441591742077
 21
209.5448007431650126
 31
0.0
  0
LINE
  5
11742
  8
0
 10
3445.3831441591742077
 20
209.5448007431650126
 30
0.0
 11
3445.3847161529579353
 21
209.5460488636923913
 31
0.0
  0
ARC
  5
11743
  8
0
 10
3445.3890133564259486
 20
209.5325758023552112
 30
0.0
 40
0.0145719160569603
 50
106.0826692040752022
 51
109.6384478506164015
  0
ARC
  5
11744
  8
0
 10
3445.3838757217799866
 20
209.5471160251819072
 30
0.0
 40
0.0013583660075023
 50
308.2218074679764186
 51
333.3868765523930051
  0
LINE
  5
11745
  8
0
 10
3445.384976585592085
 20
209.546577417219595
 30
0.0
 11
3445.3850901711571169
 21
209.5465075262750929
 31
0.0
  0
LINE
  5
11746
  8
0
 10
3446.0232410934918335
 20
209.5925544194195993
 30
0.0
 11
3446.0232410934918335
 21
209.5745544194195986
 31
0.0
  0
LINE
  5
11747
  8
0
 10
3446.1262410934918989
 20
209.5745544194195986
 30
0.0
 11
3446.1477410934930958
 21
209.5695544194196032
 31
0.0
  0
LINE
  5
11748
  8
0
 10
3446.1477410934930958
 20
209.5695544194196032
 30
0.0
 11
3446.1906715386930955
 21
209.5435547314195901
 31
0.0
  0
LINE
  5
11749
  8
0
 10
3446.1906715386930955
 20
209.5435547314195901
 30
0.0
 11
3446.1906715386930955
 21
209.4275547314196047
 31
0.0
  0
LINE
  5
1174A
  8
0
 10
3446.1906715386930955
 20
209.4275547314196047
 30
0.0
 11
3446.1587410934930631
 21
209.395554731419594
 31
0.0
  0
ARC
  5
1174B
  8
0
 10
3446.1502410934617728
 20
209.3855547314871046
 30
0.0
 40
0.0099999999324898
 50
89.9999998282968647
 51
185.7391709050899067
  0
ARC
  5
1174C
  8
0
 10
3446.1999904687058915
 20
209.3905547322029008
 30
0.0
 40
0.0600000033755194
 50
185.7391709050899067
 51
200.8587087102150122
  0
ARC
  5
1174D
  8
0
 10
3446.1999904631861682
 20
209.3905547300994954
 30
0.0
 40
0.0599999974682849
 50
200.8587087102150122
 51
220.9273542227082032
  0
ARC
  5
1174E
  8
0
 10
3446.1999904669819443
 20
209.3905547333910135
 30
0.0
 40
0.0600000024927893
 50
220.9273542227070095
 51
234.2417022675539044
  0
ARC
  5
1174F
  8
0
 10
3446.1532411183989097
 20
209.3256355926748995
 30
0.0
 40
0.0199999750938277
 50
359.9999634586694128
 51
54.2371517747843583
  0
ARC
  5
11750
  8
0
 10
3449.547595508438917
 20
209.3235949965784926
 30
0.0
 40
3.37435503194716
 50
179.9653514627736968
 51
182.6091280182253911
  0
ARC
  5
11751
  8
0
 10
3449.1199454535590121
 20
209.3041072496091886
 30
0.0
 40
2.946261185084869
 50
182.6091280182253911
 51
186.8993942532009953
  0
ARC
  5
11752
  8
0
 10
3448.5577690845129837
 20
209.2360824643413082
 30
0.0
 40
2.3799841845601062
 50
186.8993942532009953
 51
191.5031720655919116
  0
ARC
  5
11753
  8
0
 10
3447.0146581771618912
 20
208.9220440334997875
 30
0.0
 40
0.8052424887781969
 50
191.5031720655919116
 51
204.1182439977220895
  0
ARC
  5
11754
  8
0
 10
3446.7169864631209748
 20
208.7887752748407024
 30
0.0
 40
0.4790998644948043
 50
204.1182439977220895
 51
224.294274675873595
  0
ARC
  5
11755
  8
0
 10
3446.6210125013358265
 20
208.6951369296673136
 30
0.0
 40
0.345013545179953
 50
224.294274675873595
 51
247.1651098468875887
  0
LINE
  5
11756
  8
0
 10
3446.1897064145518925
 20
209.5435547314621942
 30
0.0
 11
3446.1897064145919103
 21
209.4275547314196047
 31
0.0
  0
LINE
  5
11757
  8
0
 10
3446.1897064145919103
 20
209.4275547313835943
 30
0.0
 11
3446.1849624167311958
 21
209.4231908824916104
 31
0.0
  0
LINE
  5
11758
  8
0
 10
3446.1881180834930092
 20
209.4275547314196047
 30
0.0
 11
3446.1848068920789956
 21
209.4238149441538894
 31
0.0
  0
ARC
  5
11759
  8
0
 10
3446.1892300515078205
 20
209.4198279700667058
 30
0.0
 40
0.0059548553051683
 50
137.9689429925709021
 51
151.4284672263787002
  0
ARC
  5
1175A
  8
0
 10
3446.1840776652779823
 20
209.4226338222100878
 30
0.0
 40
0.0000880086120725
 50
151.4284672263133871
 51
232.5031700976130082
  0
ARC
  5
1175B
  8
0
 10
3446.1805181875679409
 20
209.4283631058816866
 30
0.0
 40
0.0068193157753187
 50
303.1972379232703929
 51
310.6707956182559087
  0
ARC
  5
1175C
  8
0
 10
3446.1838552435569909
 20
209.423263013219497
 30
0.0
 40
0.00072449109929
 50
288.3006172621616088
 51
303.1972379232432218
  0
ARC
  5
1175D
  8
0
 10
3446.1840111034280199
 20
209.4227917535353072
 30
0.0
 40
0.0002281263245756
 50
273.2641748258791949
 51
288.3006172621343239
  0
LINE
  5
1175E
  8
0
 10
3446.1881180835498526
 20
209.4275547314038874
 30
0.0
 11
3446.1880636775917992
 21
209.5435547314195901
 31
0.0
  0
LINE
  5
1175F
  8
0
 10
3446.1880636775917992
 20
209.5435547314195901
 30
0.0
 11
3446.1840069464919907
 21
209.5464949842196063
 31
0.0
  0
LINE
  5
11760
  8
0
 10
3446.1897064145919103
 20
209.5435547314195901
 30
0.0
 11
3446.1840769522132177
 21
209.5465510339307968
 31
0.0
  0
ARC
  5
11761
  8
0
 10
3446.1840690542890115
 20
209.5464891551870892
 30
0.0
 40
0.000062380735128
 50
82.726353642891084
 51
174.6382980546050874
  0
LINE
  5
11762
  8
0
 10
3446.187608398690827
 20
209.5435547314544067
 30
0.0
 11
3446.1876083986990125
 21
209.4275547314437063
 31
0.0
  0
LINE
  5
11763
  8
0
 10
3446.1876083986990125
 20
209.4275547314437063
 30
0.0
 11
3446.1830990531429961
 21
209.4235933966695882
 31
0.0
  0
LINE
  5
11764
  8
0
 10
3446.1851176682921505
 20
209.4275547314196047
 30
0.0
 11
3446.1851176683508129
 21
209.5435547314195901
 31
0.0
  0
LINE
  5
11765
  8
0
 10
3446.187608398690827
 20
209.5435547314544067
 30
0.0
 11
3446.1853968937421087
 21
209.5447631811695999
 31
0.0
  0
LINE
  5
11766
  8
0
 10
3446.1853968937421087
 20
209.5447631811695999
 30
0.0
 11
3446.1823662133519974
 21
209.546300101220794
 31
0.0
  0
LINE
  5
11767
  8
0
 10
3446.1851176682921505
 20
209.5435547314590963
 30
0.0
 11
3446.1833380278098957
 21
209.5448007431650126
 31
0.0
  0
LINE
  5
11768
  8
0
 10
3446.1833380278098957
 20
209.5448007431650126
 30
0.0
 11
3446.1817660340270777
 21
209.5460488636923913
 31
0.0
  0
ARC
  5
11769
  8
0
 10
3446.1774688305590644
 20
209.5325758023552112
 30
0.0
 40
0.0145719160569603
 50
70.3615521493835843
 51
73.9173307959247268
  0
ARC
  5
1176A
  8
0
 10
3446.1826064652050263
 20
209.5471160251819072
 30
0.0
 40
0.0013583660075023
 50
206.6131234476069949
 51
231.7781925320236098
  0
LINE
  5
1176B
  8
0
 10
3446.1815056013920184
 20
209.546577417219595
 30
0.0
 11
3446.1813920158269866
 21
209.5465075262750929
 31
0.0
  0
ARC
  5
1176C
  8
0
 10
3445.3504862947479523
 20
209.3992403936346136
 30
0.0
 40
0.0418947065645008
 50
34.8077744558719004
 51
42.5198219634591013
  0
LINE
  5
1176D
  8
0
 10
3445.3842793426920252
 20
209.4228932339196092
 30
0.0
 11
3445.3849765964919243
 21
209.4225639973194859
 31
0.0
  0
LINE
  5
1176E
  8
0
 10
3445.3849765964919243
 20
209.4225639973194859
 30
0.0
 11
3445.385081798192914
 21
209.4226630448195863
 31
0.0
  0
LINE
  5
1176F
  8
0
 10
3445.385081798192914
 20
209.4226630448195863
 30
0.0
 11
3445.3848848552661366
 21
209.4231549388408951
 31
0.0
  0
LINE
  5
11770
  8
0
 10
3445.3820988483671499
 20
209.4275547314196047
 30
0.0
 11
3445.3820988482611938
 21
209.5435547314195901
 31
0.0
  0
LINE
  5
11771
  8
0
 10
3445.3820988482611938
 20
209.5435547314195901
 30
0.0
 11
3445.3871438792930348
 21
209.5461227251196021
 31
0.0
  0
LINE
  5
11772
  8
0
 10
3445.3871438792930348
 20
209.5461227251196021
 30
0.0
 11
3445.3879439769921191
 21
209.5464301926195958
 31
0.0
  0
LINE
  5
11773
  8
0
 10
3445.3879439769921191
 20
209.5464301926195958
 30
0.0
 11
3445.3886051186918849
 21
209.546577417219595
 31
0.0
  0
LINE
  5
11774
  8
0
 10
3445.3886051186918849
 20
209.546577417219595
 30
0.0
 11
3445.3888005002932005
 21
209.5464569722196018
 31
0.0
  0
LINE
  5
11775
  8
0
 10
3445.3888005002932005
 20
209.5464569722196018
 30
0.0
 11
3445.3879485517918511
 21
209.5454495795196124
 31
0.0
  0
LINE
  5
11776
  8
0
 10
3445.3879485517918511
 20
209.5454495795196124
 30
0.0
 11
3445.3854850359930424
 21
209.5435547314195901
 31
0.0
  0
LINE
  5
11777
  8
0
 10
3445.3854850359930424
 20
209.5435547314195901
 30
0.0
 11
3445.3854850359930424
 21
209.4275547314196047
 31
0.0
  0
LINE
  5
11778
  8
0
 10
3445.3854850359930424
 20
209.4275547314196047
 30
0.0
 11
3445.3875076050921962
 21
209.4250379334195884
 31
0.0
  0
LINE
  5
11779
  8
0
 10
3445.3875076050921962
 20
209.4250379334195884
 30
0.0
 11
3445.3882944310348648
 21
209.4238947355794096
 31
0.0
  0
ARC
  5
1177A
  8
0
 10
3445.3848508094561112
 20
209.4215865336985871
 30
0.0
 40
0.0041456393359682
 50
18.8063338346238282
 51
33.8332848750123105
  0
ARC
  5
1177B
  8
0
 10
3445.3883211434890654
 20
209.4227683598776935
 30
0.0
 40
0.0004795881337509
 50
358.2455238530441193
 51
18.80633383466769
  0
LINE
  5
1177C
  8
0
 10
3445.3886051333929572
 20
209.4225639973194859
 30
0.0
 11
3445.3888005067929043
 21
209.4227536765195907
 31
0.0
  0
LINE
  5
1177D
  8
0
 10
3445.3886051333929572
 20
209.4225639973194859
 30
0.0
 11
3445.3877780683919809
 21
209.4228932339196092
 31
0.0
  0
LINE
  5
1177E
  8
0
 10
3445.3877780683919809
 20
209.4228932339196092
 30
0.0
 11
3445.3872553922919906
 21
209.423230876019602
 31
0.0
  0
LINE
  5
1177F
  8
0
 10
3445.3820988483671499
 20
209.4275547314196047
 30
0.0
 11
3445.3872553922919906
 21
209.423230876019602
 31
0.0
  0
LINE
  5
11780
  8
0
 10
3445.3864419638262007
 20
209.5435547314440043
 30
0.0
 11
3445.3864419637930041
 21
209.4275547314697974
 31
0.0
  0
LINE
  5
11781
  8
0
 10
3445.3864419637930041
 20
209.4275547314697974
 30
0.0
 11
3445.3898818791922167
 21
209.4246880093195955
 31
0.0
  0
LINE
  5
11782
  8
0
 10
3445.3898818791922167
 20
209.4246880093195955
 30
0.0
 11
3445.3914785419920008
 21
209.423445531719608
 31
0.0
  0
LINE
  5
11783
  8
0
 10
3445.3907141707918527
 20
209.4275547314196047
 30
0.0
 11
3445.3920051841250825
 21
209.4258871161102036
 31
0.0
  0
LINE
  5
11784
  8
0
 10
3445.3920051841250825
 20
209.4258871161102036
 30
0.0
 11
3445.3932853328028614
 21
209.4239087860192114
 31
0.0
  0
ARC
  5
11785
  8
0
 10
3445.3910878690921891
 20
209.4225615336231954
 30
0.0
 40
0.0025775833217212
 50
6.9684304530358201
 51
31.5122227621991691
  0
ARC
  5
11786
  8
0
 10
3445.3933558885692037
 20
209.422838742982691
 30
0.0
 40
0.0002926856486776
 50
316.9338767041758729
 51
6.9684304532377999
  0
ARC
  5
11787
  8
0
 10
3445.3933603807449799
 20
209.4228892262229067
 30
0.0
 40
0.0003263303514025
 50
270.0
 51
309.9021890587001735
  0
ARC
  5
11788
  8
0
 10
3445.3933782907529348
 20
209.4238895552244912
 30
0.0
 40
0.0013267802407646
 50
247.5626533154616027
 51
269.226549375743673
  0
ARC
  5
11789
  8
0
 10
3445.3951485150041663
 20
209.4281765077531929
 30
0.0
 40
0.0059648462042124
 50
237.3400889695433875
 51
247.5626533154639901
  0
ARC
  5
1178A
  8
0
 10
3445.4480133013471459
 20
209.5106487479550026
 30
0.0
 40
0.1039258386403996
 50
237.0442356852279033
 51
237.3400889695433875
  0
LINE
  5
1178B
  8
0
 10
3445.3907141707918527
 20
209.4275547314196047
 30
0.0
 11
3445.3907141707918527
 21
209.5435547314195901
 31
0.0
  0
LINE
  5
1178C
  8
0
 10
3445.3864419638262007
 20
209.5435547314195901
 30
0.0
 11
3445.3913404164918575
 21
209.5459828834196117
 31
0.0
  0
LINE
  5
1178D
  8
0
 10
3445.3913404164918575
 20
209.5459828834196117
 30
0.0
 11
3445.3933335729921055
 21
209.546577417219595
 31
0.0
  0
LINE
  5
1178E
  8
0
 10
3445.3933335729921055
 20
209.546577417219595
 30
0.0
 11
3445.3936464099920158
 21
209.5463842161196055
 31
0.0
  0
LINE
  5
1178F
  8
0
 10
3445.3907141707918527
 20
209.5435547314195901
 30
0.0
 11
3445.3923294164269464
 21
209.5448368875522931
 31
0.0
  0
LINE
  5
11790
  8
0
 10
3445.3923294164269464
 20
209.5448368875522931
 30
0.0
 11
3445.3929285557219373
 21
209.5453839162514953
 31
0.0
  0
ARC
  5
11791
  8
0
 10
3445.3894577304208724
 20
209.5490277365420013
 30
0.0
 40
0.005032301122085
 50
313.6071084082769858
 51
322.6331070262374965
  0
ARC
  5
11792
  8
0
 10
3445.3924415583169321
 20
209.5467491586254027
 30
0.0
 40
0.001277950813502
 50
322.6331070262478988
 51
336.3733331278152718
  0
ARC
  5
11793
  8
0
 10
3445.3932365923451471
 20
209.5464013760530122
 30
0.0
 40
0.0004101767515111
 50
336.3733331277853722
 51
357.6023048986696153
  0
LINE
  5
11794
  8
0
 10
3445.3918910295919886
 20
209.5435547314195901
 30
0.0
 11
3445.3918910295919886
 21
209.4275547314576045
 31
0.0
  0
LINE
  5
11795
  8
0
 10
3445.3918910295919886
 20
209.4275547314576045
 30
0.0
 11
3445.3943389032920095
 21
209.4254651320196103
 31
0.0
  0
LINE
  5
11796
  8
0
 10
3445.3943389032920095
 20
209.4254651320196103
 30
0.0
 11
3445.3963027197919473
 21
209.4239759895195903
 31
0.0
  0
LINE
  5
11797
  8
0
 10
3445.3970373484921765
 20
209.4275547314196047
 30
0.0
 11
3445.397037348493086
 21
209.5435547314195901
 31
0.0
  0
LINE
  5
11798
  8
0
 10
3445.3970373484921765
 20
209.4275547314196047
 30
0.0
 11
3445.3976472613840087
 21
209.4267389270499962
 31
0.0
  0
LINE
  5
11799
  8
0
 10
3445.3976472613840087
 20
209.4267389270499962
 30
0.0
 11
3445.3983084750889248
 21
209.4257888553495093
 31
0.0
  0
ARC
  5
1179A
  8
0
 10
3445.3869942792148322
 20
209.418128215916397
 30
0.0
 40
0.0136636900145363
 50
25.3670056076526507
 51
34.1012255002650306
  0
ARC
  5
1179B
  8
0
 10
3445.3964386129059676
 20
209.4226060522279909
 30
0.0
 40
0.0032115870249789
 50
13.1115042547548502
 51
25.367005607649709
  0
ARC
  5
1179C
  8
0
 10
3445.3981257913751506
 20
209.4229990280819891
 30
0.0
 40
0.0014792472168679
 50
358.9992595977183782
 51
13.1115042547532603
  0
ARC
  5
1179D
  8
0
 10
3445.3991083354408147
 20
209.4229818650107973
 30
0.0
 40
0.0004965532605895
 50
328.6897281432973728
 51
358.999259597628793
  0
ARC
  5
1179E
  8
0
 10
3445.3992858543911098
 20
209.4228738882025027
 30
0.0
 40
0.0002887746072184
 50
287.0983314744843256
 51
328.6897281431733973
  0
ARC
  5
1179F
  8
0
 10
3445.3991447694070303
 20
209.4233325396340888
 30
0.0
 40
0.000768635116572
 50
267.4303418338989786
 51
287.0983314744569839
  0
ARC
  5
117A0
  8
0
 10
3445.399179998020827
 20
209.4241175068380016
 30
0.0
 40
0.0015543924368811
 50
255.5279357326199943
 51
267.4303418339250129
  0
ARC
  5
117A1
  8
0
 10
3445.3995499285629194
 20
209.4255508046645105
 30
0.0
 40
0.0030346597319567
 50
245.8574466772413984
 51
255.5279357326199943
  0
ARC
  5
117A2
  8
0
 10
3445.4024455046469484
 20
209.4320110694563084
 30
0.0
 40
0.0101141640962144
 50
232.6022394741669927
 51
245.8574466772413984
  0
LINE
  5
117A3
  8
0
 10
3445.3984308581589175
 20
209.4275547314391872
 30
0.0
 11
3445.3984308581962068
 21
209.5435547314880012
 31
0.0
  0
ARC
  5
117A4
  8
0
 10
3445.4143776463779432
 20
209.5026831623492001
 30
0.0
 40
0.0466490417728549
 50
110.7811377959890962
 51
118.8186002035473052
  0
ARC
  5
117A5
  8
0
 10
3445.3994314693532033
 20
209.5420683044006864
 30
0.0
 40
0.0045233059087126
 50
96.9624665889428741
 51
110.781137795989693
  0
ARC
  5
117A6
  8
0
 10
3445.3990826942158492
 20
209.5449243158396939
 30
0.0
 40
0.0016460771317146
 50
77.2364094309955931
 51
96.962466588943073
  0
ARC
  5
117A7
  8
0
 10
3445.399400363336099
 20
209.546326665945486
 30
0.0
 40
0.0002081969249056
 50
351.1792402104321127
 51
77.2364094309948968
  0
ARC
  5
117A8
  8
0
 10
3445.3984871879411003
 20
209.5464683717819128
 30
0.0
 40
0.0011323018141391
 50
334.0586462649508803
 51
351.1792402104738926
  0
ARC
  5
117A9
  8
0
 10
3445.3980648863498573
 20
209.5466738072157113
 30
0.0
 40
0.0016019211835338
 50
317.7181717297294199
 51
334.0586462649307009
  0
ARC
  5
117AA
  8
0
 10
3445.4134538486578094
 20
209.5326798481530943
 30
0.0
 40
0.0191983444687043
 50
137.7181717297293915
 51
139.417150520851294
  0
ARC
  5
117AB
  8
0
 10
3445.3855657685890037
 20
209.5584510801236036
 30
0.0
 40
0.0188015518022859
 50
307.5996307412872852
 51
315.055552883938617
  0
ARC
  5
117AC
  8
0
 10
3445.4211221690538878
 20
209.501318940324694
 30
0.0
 40
0.0479453610234708
 50
110.644406372704097
 51
118.2470542176914989
  0
ARC
  5
117AD
  8
0
 10
3445.4063114497530478
 20
209.5406296846416012
 30
0.0
 40
0.0059371234387684
 50
90.7986139032115744
 51
110.6444063727045943
  0
ARC
  5
117AE
  8
0
 10
3445.4062346977689231
 20
209.5461358246224108
 30
0.0
 40
0.0004304485478206
 50
327.3903322405935228
 51
90.7986139032376229
  0
ARC
  5
117AF
  8
0
 10
3445.3988512620408073
 20
209.550859484333813
 30
0.0
 40
0.0091956116509554
 50
307.4038511448678719
 51
327.3903322406102916
  0
LINE
  5
117B0
  8
0
 10
3445.4044369453931722
 20
209.5435547314195901
 30
0.0
 11
3445.4044369453931722
 21
209.4275547314196047
 31
0.0
  0
ARC
  5
117B1
  8
0
 10
3445.3955994296520657
 20
209.4202920750790895
 30
0.0
 40
0.0114388750139628
 50
14.7198202016660993
 51
39.4133109863135616
  0
ARC
  5
117B2
  8
0
 10
3445.4061172286219517
 20
209.4231104947596975
 30
0.0
 40
0.0005527197399025
 50
261.3946432872673995
 51
9.1730728428367954
  0
ARC
  5
117B3
  8
0
 10
3445.4062810229879688
 20
209.4259552199658003
 30
0.0
 40
0.0034001693498623
 50
239.2146993639157131
 51
265.8426732855994032
  0
ARC
  5
117B4
  8
0
 10
3445.3688942275862246
 20
209.3632016882716869
 30
0.0
 40
0.069646241995888
 50
59.2146993639157486
 51
60.4448768016736366
  0
ARC
  5
117B5
  8
0
 10
3445.4073442783651444
 20
209.4310096252627034
 30
0.0
 40
0.0083045291603305
 50
230.4171979786027009
 51
240.4448768016737006
  0
ARC
  5
117B6
  8
0
 10
3445.218072887937069
 20
209.2020799412161125
 30
0.0
 40
0.2887349622749189
 50
50.417197978602772
 51
51.3435793297196668
  0
LINE
  5
117B7
  8
0
 10
3445.4060432219571339
 20
209.5435547314195901
 30
0.0
 11
3445.4060432219571339
 21
209.4275547314196047
 31
0.0
  0
ARC
  5
117B8
  8
0
 10
3445.442776327915908
 20
209.4709092111230007
 30
0.0
 40
0.0568236920987621
 50
229.7262742893439906
 51
236.5118677135920962
  0
ARC
  5
117B9
  8
0
 10
3445.4148738799908642
 20
209.4287342331055868
 30
0.0
 40
0.0062541818087462
 50
236.5118677135903056
 51
260.2602636529700249
  0
ARC
  5
117BA
  8
0
 10
3445.4139578282470211
 20
209.4233973982202883
 30
0.0
 40
0.0008392988559443
 50
260.2602636529700249
 51
0.1979690438161036
  0
ARC
  5
117BB
  8
0
 10
3445.4114445230529782
 20
209.4233887141843979
 30
0.0
 40
0.0033526190518443
 50
0.1979690438161036
 51
32.5068644131949611
  0
ARC
  5
117BC
  8
0
 10
3445.4437504446318599
 20
209.4439752978090894
 30
0.0
 40
0.0349550824507927
 50
208.0188428825323115
 51
212.5068644131949043
  0
LINE
  5
117BD
  8
0
 10
3445.412892337293215
 20
209.4275547314178141
 30
0.0
 11
3445.412892337293215
 21
209.5435547314195901
 31
0.0
  0
LINE
  5
117BE
  8
0
 10
3445.406043221993059
 20
209.5435547314195901
 30
0.0
 11
3445.4104598068129235
 21
209.5456344944273894
 31
0.0
  0
ARC
  5
117BF
  8
0
 10
3445.4159137965389164
 20
209.5328262215772952
 30
0.0
 40
0.013921129887241
 50
99.468120351341085
 51
113.0651650067097052
  0
ARC
  5
117C0
  8
0
 10
3445.413929357735924
 20
209.5447254286121108
 30
0.0
 40
0.0018575845783897
 50
71.8431264491479737
 51
99.468120351341355
  0
ARC
  5
117C1
  8
0
 10
3445.4143771216590721
 20
209.5460907730937947
 30
0.0
 40
0.0004206927650318
 50
356.7396422651332841
 51
71.8431264491201773
  0
ARC
  5
117C2
  8
0
 10
3445.4136502727278639
 20
209.5461321783893993
 30
0.0
 40
0.0011487200762024
 50
332.0869078664061931
 51
356.7396422651218018
  0
ARC
  5
117C3
  8
0
 10
3445.4109005113441526
 20
209.5475889066630089
 30
0.0
 40
0.0042605113499963
 50
320.8374448203574048
 51
332.0869078663977234
  0
ARC
  5
117C4
  8
0
 10
3445.4060908428159564
 20
209.5515063452716902
 30
0.0
 40
0.0104636747856112
 50
310.5423647187216716
 51
320.8374448203587121
  0
LINE
  5
117C5
  8
0
 10
3445.4147069038931477
 20
209.5435547314195901
 30
0.0
 11
3445.4147069038931477
 21
209.4275547314196047
 31
0.0
  0
LINE
  5
117C6
  8
0
 10
3445.4223799575920566
 20
209.4275547314196047
 30
0.0
 11
3445.4223799575970588
 21
209.5435547314195901
 31
0.0
  0
ARC
  5
117C7
  8
0
 10
3445.4273343467248196
 20
209.522349254340611
 30
0.0
 40
0.0246804492269055
 50
101.270483203114793
 51
120.7729634654834001
  0
ARC
  5
117C8
  8
0
 10
3445.4229102717090427
 20
209.5445491006516932
 30
0.0
 40
0.0020440710716705
 50
69.7211606448896788
 51
101.270483203114793
  0
ARC
  5
117C9
  8
0
 10
3445.4234237546261284
 20
209.5459388024819134
 30
0.0
 40
0.0005625394711533
 50
359.0175013244166848
 51
69.7211606448913699
  0
ARC
  5
117CA
  8
0
 10
3445.4226295982998636
 20
209.545952421879889
 30
0.0
 40
0.0013568125718018
 50
322.2354525607763094
 51
359.0175013244477213
  0
ARC
  5
117CB
  8
0
 10
3445.404333344944007
 20
209.5601263267305967
 30
0.0
 40
0.0245009795599222
 50
317.4397906856056011
 51
322.2354525607935898
  0
LINE
  5
117CC
  8
0
 10
3445.4243977565929526
 20
209.5435547314195901
 30
0.0
 11
3445.4243977565929526
 21
209.4275547314196047
 31
0.0
  0
ARC
  5
117CD
  8
0
 10
3445.4154007967799771
 20
209.4224080200914955
 30
0.0
 40
0.0086716390108609
 50
8.0861106979244077
 51
36.4065424192129967
  0
ARC
  5
117CE
  8
0
 10
3445.4230563757319032
 20
209.4234956769782912
 30
0.0
 40
0.000939182312583
 50
262.7529764695049153
 51
8.0861106979082855
  0
ARC
  5
117CF
  8
0
 10
3445.4237983773000451
 20
209.4293307071621939
 30
0.0
 40
0.0068212009774803
 50
246.7572624670104915
 51
262.7529764695049153
  0
ARC
  5
117D0
  8
0
 10
3445.4286375626020344
 20
209.4405981536081072
 30
0.0
 40
0.0190838704991177
 50
223.1160957807126124
 51
246.7572624670104915
  0
LINE
  5
117D1
  8
0
 10
3445.7531448045920115
 20
209.5435547314195901
 30
0.0
 11
3445.7531448045920115
 21
209.4275547314196047
 31
0.0
  0
LINE
  5
117D2
  8
0
 10
3445.7703350699930525
 20
209.5435547314195901
 30
0.0
 11
3445.7703350699930525
 21
209.4275547314196047
 31
0.0
  0
LINE
  5
117D3
  8
0
 10
3445.7317395268919427
 20
209.5435547314195901
 30
0.0
 11
3445.7317395268919427
 21
209.4275547314196047
 31
0.0
  0
LINE
  5
117D4
  8
0
 10
3445.7488578903921734
 20
209.5435547314195901
 30
0.0
 11
3445.7488578903921734
 21
209.4275547314196047
 31
0.0
  0
LINE
  5
117D5
  8
0
 10
3445.710477793391874
 20
209.5435547314195901
 30
0.0
 11
3445.710477793391874
 21
209.4275547314196047
 31
0.0
  0
LINE
  5
117D6
  8
0
 10
3445.727476542992008
 20
209.5435547314195901
 30
0.0
 11
3445.727476542992008
 21
209.4275547314196047
 31
0.0
  0
LINE
  5
117D7
  8
0
 10
3445.6894188641931578
 20
209.5435547314195901
 30
0.0
 11
3445.6894188641931578
 21
209.4275547314196047
 31
0.0
  0
LINE
  5
117D8
  8
0
 10
3445.7062506213919733
 20
209.5435547314195901
 30
0.0
 11
3445.7062506213919733
 21
209.4275547314196047
 31
0.0
  0
LINE
  5
117D9
  8
0
 10
3445.6686214343931169
 20
209.5435547314195901
 30
0.0
 11
3445.6686214343931169
 21
209.4275547314196047
 31
0.0
  0
LINE
  5
117DA
  8
0
 10
3445.6852392859918837
 20
209.5435547314195901
 30
0.0
 11
3445.6852392859918837
 21
209.4275547314196047
 31
0.0
  0
LINE
  5
117DB
  8
0
 10
3445.6481434701918261
 20
209.5435547314195901
 30
0.0
 11
3445.6481434701918261
 21
209.4275547314196047
 31
0.0
  0
LINE
  5
117DC
  8
0
 10
3445.6645010991919662
 20
209.5435547314195901
 30
0.0
 11
3445.6645010991919662
 21
209.4275547314196047
 31
0.0
  0
LINE
  5
117DD
  8
0
 10
3445.6280420472921833
 20
209.5435547314195901
 30
0.0
 11
3445.6280420472921833
 21
209.4275547314196047
 31
0.0
  0
LINE
  5
117DE
  8
0
 10
3445.644093862092177
 20
209.5435547314195901
 30
0.0
 11
3445.644093862092177
 21
209.4275547314196047
 31
0.0
  0
LINE
  5
117DF
  8
0
 10
3445.6083731918920421
 20
209.5435547314195901
 30
0.0
 11
3445.6083731918920421
 21
209.4275547314196047
 31
0.0
  0
LINE
  5
117E0
  8
0
 10
3445.6240744532919962
 20
209.5435547314195901
 30
0.0
 11
3445.6240744532919962
 21
209.4275547314196047
 31
0.0
  0
LINE
  5
117E1
  8
0
 10
3445.5891917247918173
 20
209.5435547314195901
 30
0.0
 11
3445.5891917247918173
 21
209.4275547314196047
 31
0.0
  0
LINE
  5
117E2
  8
0
 10
3445.6044986703918767
 20
209.5435547314195901
 30
0.0
 11
3445.6044986703918767
 21
209.4275547314196047
 31
0.0
  0
LINE
  5
117E3
  8
0
 10
3445.5854210747920661
 20
209.5435547314195901
 30
0.0
 11
3445.5854210747920661
 21
209.4275547314196047
 31
0.0
  0
LINE
  5
117E4
  8
0
 10
3445.5705511079931966
 20
209.5435547314195901
 30
0.0
 11
3445.5705511079931966
 21
209.4275547314196047
 31
0.0
  0
LINE
  5
117E5
  8
0
 10
3445.5668948389920843
 20
209.5435547314195901
 30
0.0
 11
3445.5668948389920843
 21
209.4275547314196047
 31
0.0
  0
LINE
  5
117E6
  8
0
 10
3445.552503296391933
 20
209.5435547314195901
 30
0.0
 11
3445.552503296391933
 21
209.4275547314196047
 31
0.0
  0
LINE
  5
117E7
  8
0
 10
3445.5489715989920114
 20
209.5435547314195901
 30
0.0
 11
3445.5489715989920114
 21
209.4275547314196047
 31
0.0
  0
LINE
  5
117E8
  8
0
 10
3445.5350985923919325
 20
209.5435547314195901
 30
0.0
 11
3445.5350985923919325
 21
209.4275547314196047
 31
0.0
  0
LINE
  5
117E9
  8
0
 10
3445.531701310193057
 20
209.5435547314195901
 30
0.0
 11
3445.531701310193057
 21
209.4275547314196047
 31
0.0
  0
LINE
  5
117EA
  8
0
 10
3445.5183855060931819
 20
209.5435547314195901
 30
0.0
 11
3445.5183855060931819
 21
209.4275547314196047
 31
0.0
  0
LINE
  5
117EB
  8
0
 10
3445.515132107791942
 20
209.5435547314195901
 30
0.0
 11
3445.515132107791942
 21
209.4275547314196047
 31
0.0
  0
LINE
  5
117EC
  8
0
 10
3445.5024106197920446
 20
209.5435547314195901
 30
0.0
 11
3445.5024106197920446
 21
209.4275547314196047
 31
0.0
  0
LINE
  5
117ED
  8
0
 10
3445.4993101731920433
 20
209.5435547314195901
 30
0.0
 11
3445.4993101731920433
 21
209.4275547314196047
 31
0.0
  0
LINE
  5
117EE
  8
0
 10
3445.487218458292773
 20
209.5435547314195901
 30
0.0
 11
3445.487218458292773
 21
209.4275547314196047
 31
0.0
  0
LINE
  5
117EF
  8
0
 10
3445.4842796050920697
 20
209.5435547314195901
 30
0.0
 11
3445.4842796050920697
 21
209.4275547314196047
 31
0.0
  0
LINE
  5
117F0
  8
0
 10
3445.4728513650920831
 20
209.5435547314195901
 30
0.0
 11
3445.4728513650920831
 21
209.4275547314196047
 31
0.0
  0
LINE
  5
117F1
  8
0
 10
3445.4700822961931408
 20
209.5435547314195901
 30
0.0
 11
3445.4700822961931408
 21
209.4275547314196047
 31
0.0
  0
LINE
  5
117F2
  8
0
 10
3445.4593493836919151
 20
209.5435547314195901
 30
0.0
 11
3445.4593493836919151
 21
209.4275547314196047
 31
0.0
  0
LINE
  5
117F3
  8
0
 10
3445.4567578170931483
 20
209.5435547314195901
 30
0.0
 11
3445.4567578170931483
 21
209.4275547314196047
 31
0.0
  0
LINE
  5
117F4
  8
0
 10
3445.4467501465919668
 20
209.5435547314195901
 30
0.0
 11
3445.4467501465919668
 21
209.4275547314196047
 31
0.0
  0
LINE
  5
117F5
  8
0
 10
3445.4443433053929766
 20
209.5435547314195901
 30
0.0
 11
3445.4443433053929766
 21
209.4275547314196047
 31
0.0
  0
LINE
  5
117F6
  8
0
 10
3445.4350887700920794
 20
209.5435547314195901
 30
0.0
 11
3445.4350887700920794
 21
209.4275547314196047
 31
0.0
  0
LINE
  5
117F7
  8
0
 10
3445.4328733626971371
 20
209.5435547314195901
 30
0.0
 11
3445.4328733626971371
 21
209.4275547314196047
 31
0.0
  0
ARC
  5
117F8
  8
0
 10
3445.440986701742986
 20
209.5129684695127992
 30
0.0
 40
0.0347952945491887
 50
107.4224877954501949
 51
118.4738940129297049
  0
ARC
  5
117F9
  8
0
 10
3445.433412596909875
 20
209.5371042664258141
 30
0.0
 40
0.0094989755158781
 50
97.8562545886304633
 51
107.422487795450607
  0
ARC
  5
117FA
  8
0
 10
3445.4327957620839697
 20
209.5415746234787093
 30
0.0
 40
0.0049862626529154
 50
80.9123540912145245
 51
97.8562545886304633
  0
ARC
  5
117FB
  8
0
 10
3445.4334668020701429
 20
209.5457698582407886
 30
0.0
 40
0.0007376994400582
 50
0.4876439651340541
 51
80.9123540912145245
  0
ARC
  5
117FC
  8
0
 10
3445.4329498375091134
 20
209.5457654582529017
 30
0.0
 40
0.0012546827260609
 50
331.4588544881689245
 51
0.4876439651503379
  0
ARC
  5
117FD
  8
0
 10
3445.4289992052158595
 20
209.5476255454817931
 30
0.0
 40
0.005619663983139
 50
313.5820852824368217
 51
334.0446489647736144
  0
ARC
  5
117FE
  8
0
 10
3445.4528455973581913
 20
209.5102269140419935
 30
0.0
 40
0.0377630550368088
 50
110.1900697394806059
 51
118.0483779209083934
  0
ARC
  5
117FF
  8
0
 10
3445.4450751205708912
 20
209.5313577521050092
 30
0.0
 40
0.015248778971537
 50
101.4507631955660969
 51
110.1900697394800943
  0
ARC
  5
11800
  8
0
 10
3445.4457384985580575
 20
209.5280827420307901
 30
0.0
 40
0.018590299783788
 50
95.8138734444088129
 51
101.4507631955660969
  0
ARC
  5
11801
  8
0
 10
3445.444054330318977
 20
209.5446232324320874
 30
0.0
 40
0.0019642886755618
 50
65.4102291141172856
 51
95.8138734443825797
  0
ARC
  5
11802
  8
0
 10
3445.4444771339208273
 20
209.5455471513575958
 30
0.0
 40
0.0009482231919478
 50
3.691809403934287
 51
65.4102291141423251
  0
ARC
  5
11803
  8
0
 10
3445.4440843215861605
 20
209.5455218057113029
 30
0.0
 40
0.0013418523734601
 50
323.7251438542505753
 51
3.6918094039115359
  0
ARC
  5
11804
  8
0
 10
3445.4720600515320257
 20
209.5249904845275069
 30
0.0
 40
0.0333593956672629
 50
143.72514385425049
 51
146.1864375250277988
  0
ARC
  5
11805
  8
0
 10
3445.4633785325158897
 20
209.5124283930128115
 30
0.0
 40
0.0352895474755028
 50
108.9721357728312938
 51
118.112129444654002
  0
ARC
  5
11806
  8
0
 10
3445.457417027016163
 20
209.5297692532876965
 30
0.0
 40
0.0169525634568987
 50
102.0788768487903013
 51
108.9721357728312938
  0
ARC
  5
11807
  8
0
 10
3445.4561099660841137
 20
209.5358771333135053
 30
0.0
 40
0.0107063960969397
 50
91.9361325869894443
 51
102.0788768487903013
  0
ARC
  5
11808
  8
0
 10
3445.4558527950498501
 20
209.5434846732273968
 30
0.0
 40
0.0030945106221132
 50
69.1392964114906192
 51
91.9361325869894443
  0
ARC
  5
11809
  8
0
 10
3445.4565779300460235
 20
209.5453875290673125
 30
0.0
 40
0.0010581704957462
 50
32.1421883485923416
 51
69.1392964114906192
  0
ARC
  5
1180A
  8
0
 10
3445.4566829106470323
 20
209.5454534910415987
 30
0.0
 40
0.0009341869943613
 50
351.850839673410519
 51
32.1421883485950985
  0
ARC
  5
1180B
  8
0
 10
3445.454778268931932
 20
209.545726229205286
 30
0.0
 40
0.0028582572031774
 50
336.1445726053934209
 51
351.850839673407279
  0
ARC
  5
1180C
  8
0
 10
3445.4535262201839032
 20
209.5462798959540862
 30
0.0
 40
0.0042272615621602
 50
319.8594909408237186
 51
336.1445726054022884
  0
ARC
  5
1180D
  8
0
 10
3445.4754790206629878
 20
209.5134338881732106
 30
0.0
 40
0.0341676804402762
 50
109.3597165007899008
 51
118.1689391642412943
  0
ARC
  5
1180E
  8
0
 10
3445.4705709263312201
 20
209.5274025166436047
 30
0.0
 40
0.0193618717385687
 50
103.013208092137603
 51
109.3597165007899008
  0
ARC
  5
1180F
  8
0
 10
3445.4694899441287816
 20
209.53207984541109
 30
0.0
 40
0.0145612543905806
 50
98.1224168015409788
 51
103.013208092137603
  0
ARC
  5
11810
  8
0
 10
3445.4685944159691644
 20
209.5383545544042079
 30
0.0
 40
0.0082229625360342
 50
90.2821736966543966
 51
98.1224168015409788
  0
ARC
  5
11811
  8
0
 10
3445.4685745631741156
 20
209.5423856606207096
 30
0.0
 40
0.0041918074333547
 50
70.6329797077329715
 51
90.2821736966543966
  0
ARC
  5
11812
  8
0
 10
3445.4696307519729999
 20
209.5453903905084019
 30
0.0
 40
0.0010068527276661
 50
48.7484519624096819
 51
70.6329797077597163
  0
ARC
  5
11813
  8
0
 10
3445.4693099648311545
 20
209.5450246228141111
 30
0.0
 40
0.001493361100339
 50
24.9549794642840297
 51
48.7484519624324903
  0
ARC
  5
11814
  8
0
 10
3445.4699272157949963
 20
209.5453118614113919
 30
0.0
 40
0.0008125492576491
 50
354.2014761743233748
 51
24.9549794642810809
  0
ARC
  5
11815
  8
0
 10
3445.4647152776660732
 20
209.545841135114614
 30
0.0
 40
0.0060512924011586
 50
349.584819308878707
 51
354.2014761743217832
  0
ARC
  5
11816
  8
0
 10
3445.4693399479178879
 20
209.5449910826341124
 30
0.0
 40
0.0013491477666477
 50
331.5819476770033134
 51
349.5848193088386893
  0
ARC
  5
11817
  8
0
 10
3445.441830063154157
 20
209.5598768253665014
 30
0.0
 40
0.032628199805091
 50
329.9837893316718009
 51
331.5819476770033134
  0
ARC
  5
11818
  8
0
 10
3445.4881492722879557
 20
209.515233928481706
 30
0.0
 40
0.0321884116357169
 50
109.2142447389691995
 51
118.3763663005043014
  0
ARC
  5
11819
  8
0
 10
3445.4840730409318894
 20
209.5269299069192925
 30
0.0
 40
0.0198024690522822
 50
99.6444996066748985
 51
109.2142447389687021
  0
ARC
  5
1181A
  8
0
 10
3445.4822362410091046
 20
209.5377386606799917
 30
0.0
 40
0.0088387565505889
 50
89.9971394537262768
 51
99.6444996066748985
  0
ARC
  5
1181B
  8
0
 10
3445.4822364357260085
 20
209.5416387888506904
 30
0.0
 40
0.0049386283750272
 50
70.7453471739320889
 51
89.9971394537002141
  0
ARC
  5
1181C
  8
0
 10
3445.48342954542386
 20
209.5450544391626124
 30
0.0
 40
0.0013205933001258
 50
33.8169465711984998
 51
70.7453471739320889
  0
ARC
  5
1181D
  8
0
 10
3445.4833892544011178
 20
209.5450274494126006
 30
0.0
 40
0.001369088796074
 50
359.7037165600963249
 51
33.816946571184971
  0
ARC
  5
1181E
  8
0
 10
3445.4822354393959358
 20
209.5450334159833972
 30
0.0
 40
0.0025229192291422
 50
324.1192170161222066
 51
359.7037165600996218
  0
ARC
  5
1181F
  8
0
 10
3445.5020868012297797
 20
209.5162463238764019
 30
0.0
 40
0.0310936769178411
 50
110.6403119924021041
 51
118.5665361961036979
  0
ARC
  5
11820
  8
0
 10
3445.4994921546658588
 20
209.5231345500249063
 30
0.0
 40
0.0237329806009872
 50
104.095477529433893
 51
110.6403119924021041
  0
ARC
  5
11821
  8
0
 10
3445.4974876898950242
 20
209.5311173255115023
 30
0.0
 40
0.0155023923177545
 50
96.6057250595494139
 51
104.095477529433893
  0
ARC
  5
11822
  8
0
 10
3445.4967381954529628
 20
209.5375893526098992
 30
0.0
 40
0.008987112071898
 50
87.1611943905118949
 51
96.605725059549215
  0
ARC
  5
11823
  8
0
 10
3445.4969568371870992
 20
209.5419985999444066
 30
0.0
 40
0.0045724471623023
 50
68.7099344284930709
 51
87.1611943905380002
  0
ARC
  5
11824
  8
0
 10
3445.4980200951358711
 20
209.5447271133407128
 30
0.0
 40
0.0016440853640266
 50
18.0958998695969306
 51
68.7099344284942504
  0
ARC
  5
11825
  8
0
 10
3445.4984356521817972
 20
209.5448629054060063
 30
0.0
 40
0.0012069044594078
 50
356.9326079487486822
 51
18.095899869587651
  0
LINE
  5
11826
  8
0
 10
3445.4996408274919304
 20
209.5447983233196112
 30
0.0
 11
3445.4993101731920433
 21
209.5435547314195901
 31
0.0
  0
ARC
  5
11827
  8
0
 10
3445.5159248302197739
 20
209.5192225294499053
 30
0.0
 40
0.0278332523462287
 50
105.8239142507675012
 51
119.0479827933908012
  0
ARC
  5
11828
  8
0
 10
3445.5127631578961882
 20
209.5303778688335967
 30
0.0
 40
0.0162385221359641
 50
98.0767692244323825
 51
105.8239142507675012
  0
ARC
  5
11829
  8
0
 10
3445.5121531915679043
 20
209.534676208342205
 30
0.0
 40
0.0118971189697073
 50
88.6477380519999087
 51
98.0767692244323825
  0
ARC
  5
1182A
  8
0
 10
3445.5123115587161919
 20
209.5413850300712966
 30
0.0
 40
0.005186428308817
 50
71.7248112215559388
 51
88.6477380519999087
  0
ARC
  5
1182B
  8
0
 10
3445.513211825712915
 20
209.5441111453775136
 30
0.0
 40
0.0023155076673953
 50
34.1622920711540914
 51
71.7248112215564362
  0
ARC
  5
1182C
  8
0
 10
3445.5140706374409092
 20
209.5446939673425959
 30
0.0
 40
0.0012776064067446
 50
354.174222140986501
 51
34.1622920711446483
  0
LINE
  5
1182D
  8
0
 10
3445.5153416451921657
 20
209.5445642853196091
 30
0.0
 11
3445.515132107791942
 21
209.5435547314195901
 31
0.0
  0
ARC
  5
1182E
  8
0
 10
3445.5316795325497878
 20
209.5198795991396139
 30
0.0
 40
0.0271522195765144
 50
108.4219347771557977
 51
119.3150195517544034
  0
ARC
  5
1182F
  8
0
 10
3445.5295319706669943
 20
209.5263271660440125
 30
0.0
 40
0.0203564016690981
 50
98.7632941270546638
 51
108.4219347771552009
  0
ARC
  5
11830
  8
0
 10
3445.5281025981798848
 20
209.5355996383154888
 30
0.0
 40
0.0109744057337537
 50
85.4365753899917024
 51
98.7632941270546638
  0
ARC
  5
11831
  8
0
 10
3445.5286062421328097
 20
209.5419097301983982
 30
0.0
 40
0.0046442464306628
 50
59.421362274099053
 51
85.4365753899655971
  0
ARC
  5
11832
  8
0
 10
3445.5301165692721952
 20
209.5444657284398033
 30
0.0
 40
0.0016753720522744
 50
13.8072731228825099
 51
59.4213622740998915
  0
ARC
  5
11833
  8
0
 10
3445.5292446591270163
 20
209.5442514494062891
 30
0.0
 40
0.0025732266080027
 50
1.5028575769588299
 51
13.8072731228793497
  0
ARC
  5
11834
  8
0
 10
3445.5296164905489604
 20
209.5442612047123134
 30
0.0
 40
0.0022012672389133
 50
341.2802572659533098
 51
1.5028575769669701
  0
ARC
  5
11835
  8
0
 10
3445.5477226922630507
 20
209.5215032081590891
 30
0.0
 40
0.0254093993565374
 50
106.7972171740003944
 51
119.7903600254675069
  0
ARC
  5
11836
  8
0
 10
3445.5457771316569051
 20
209.5279483471038873
 30
0.0
 40
0.0186770132942186
 50
95.8850934138636433
 51
106.7972171740258034
  0
ARC
  5
11837
  8
0
 10
3445.5448741813711422
 20
209.5367083054320858
 30
0.0
 40
0.009870641218824
 50
81.4882833315121786
 51
95.8850934138636433
  0
ARC
  5
11838
  8
0
 10
3445.5456516344929696
 20
209.5419030986988105
 30
0.0
 40
0.0046179932731646
 50
60.7886984065312106
 51
81.4882833314861728
  0
ARC
  5
11839
  8
0
 10
3445.5468014585248966
 20
209.5439595139696962
 30
0.0
 40
0.0022619501768878
 50
28.587748740414419
 51
60.7886984065571312
  0
ARC
  5
1183A
  8
0
 10
3445.5469954581471939
 20
209.5440652321908033
 30
0.0
 40
0.0020410153545937
 50
345.5153284243514804
 51
28.5877487403933692
  0
ARC
  5
1183B
  8
0
 10
3445.5646146747822058
 20
209.5228478117105055
 30
0.0
 40
0.0239887892632721
 50
110.7381828193710049
 51
120.3231612161008002
  0
ARC
  5
1183C
  8
0
 10
3445.5642357718102176
 20
209.5238485319322876
 30
0.0
 40
0.0229187385990698
 50
104.007081785873396
 51
110.7381828193710049
  0
ARC
  5
1183D
  8
0
 10
3445.5629362842491901
 20
209.5290577488572978
 30
0.0
 40
0.017549883144594
 50
96.8280085091653291
 51
104.0070817858477028
  0
ARC
  5
1183E
  8
0
 10
3445.5624079471699588
 20
209.533470169533814
 30
0.0
 40
0.013105943867789
 50
88.4809867009399085
 51
96.8280085091653291
  0
ARC
  5
1183F
  8
0
 10
3445.5625376857178708
 20
209.5383626411964997
 30
0.0
 40
0.008211752304189
 50
77.4611280108603779
 51
88.4809867009399085
  0
ARC
  5
11840
  8
0
 10
3445.5632342143808273
 20
209.5414944223277018
 30
0.0
 40
0.0050034497573144
 50
65.829917120559216
 51
77.4611280108596532
  0
ARC
  5
11841
  8
0
 10
3445.5638662875448972
 20
209.5429028152680075
 30
0.0
 40
0.0034597246656573
 50
48.2587278069345089
 51
65.829917120559216
  0
ARC
  5
11842
  8
0
 10
3445.5647212806438802
 20
209.5438610478848886
 30
0.0
 40
0.0021755039104962
 50
20.9214213829884095
 51
48.2587278069323418
  0
ARC
  5
11843
  8
0
 10
3445.564564698803224
 20
209.5438011880061993
 30
0.0
 40
0.0023431376719778
 50
353.9623308198671907
 51
20.9214213829838513
  0
ARC
  5
11844
  8
0
 10
3445.5819389274320201
 20
209.5246183302016902
 30
0.0
 40
0.0220968260773642
 50
111.1089442873033022
 51
121.0215183601832933
  0
ARC
  5
11845
  8
0
 10
3445.5820559511589636
 20
209.5243151970317115
 30
0.0
 40
0.0224217634115457
 50
102.6231151773159951
 51
111.108944287303899
  0
ARC
  5
11846
  8
0
 10
3445.5806717202890468
 20
209.5304961756528996
 30
0.0
 40
0.0160876816458151
 50
92.9070585678217356
 51
102.6231151773159951
  0
ARC
  5
11847
  8
0
 10
3445.580432846245003
 20
209.5352001497155925
 30
0.0
 40
0.0113776463177867
 50
83.2572375595540564
 51
92.9070585677957155
  0
ARC
  5
11848
  8
0
 10
3445.5809766512238639
 20
209.5397997124343021
 30
0.0
 40
0.006746048207125
 50
66.9690080098177702
 51
83.2572375595540564
  0
ARC
  5
11849
  8
0
 10
3445.5822668566661378
 20
209.5428346805998956
 30
0.0
 40
0.0034482213698301
 50
45.8836198632466434
 51
66.9690080098183955
  0
ARC
  5
1184A
  8
0
 10
3445.5829400383490793
 20
209.5435289529341105
 30
0.0
 40
0.0024811703621874
 50
0.5952936642492528
 51
45.8836198632500327
  0
ARC
  5
1184B
  8
0
 10
3445.6001719287492051
 20
209.5257594661811993
 30
0.0
 40
0.0209101971255951
 50
108.9736711982362038
 51
121.6758107871103931
  0
ARC
  5
1184C
  8
0
 10
3445.6002988080240357
 20
209.5253904312056932
 30
0.0
 40
0.0213004344429306
 50
102.2553441063199955
 51
108.9736711982362038
  0
ARC
  5
1184D
  8
0
 10
3445.5993299280548854
 20
209.5298508152949069
 30
0.0
 40
0.016736033647745
 50
94.769833517268637
 51
102.2553441063199955
  0
ARC
  5
1184E
  8
0
 10
3445.5989947208449848
 20
209.5338680559773081
 30
0.0
 40
0.0127048320186649
 50
80.7693973633279541
 51
94.7698335172945576
  0
ARC
  5
1184F
  8
0
 10
3445.6001110052498007
 20
209.5407369559902122
 30
0.0
 40
0.0057458178456836
 50
59.0447628902805306
 51
80.7693973633276556
  0
ARC
  5
11850
  8
0
 10
3445.6015073378880516
 20
209.5430649616027097
 30
0.0
 40
0.003031162256614
 50
9.2985139152263372
 51
59.0447628902780366
  0
ARC
  5
11851
  8
0
 10
3445.6188718411481204
 20
209.5270584757078893
 30
0.0
 40
0.0195537231416355
 50
107.1682948897384051
 51
122.4737434328068986
  0
ARC
  5
11852
  8
0
 10
3445.6190908907551602
 20
209.5263494520906988
 30
0.0
 40
0.0202958129070826
 50
99.0824036782076263
 51
107.1682948897384051
  0
ARC
  5
11853
  8
0
 10
3445.6182366570851627
 20
209.531693119256289
 30
0.0
 40
0.0148842979675445
 50
90.0013765188384127
 51
99.0824036781818762
  0
ARC
  5
11854
  8
0
 10
3445.6182365839249542
 20
209.5347382730583092
 30
0.0
 40
0.0118391441647629
 50
79.2935854618916665
 51
90.0013765188384127
  0
ARC
  5
11855
  8
0
 10
3445.6191972219949093
 20
209.5398191883747927
 30
0.0
 40
0.0066682133050211
 50
62.5226878492561084
 51
79.2935854618660727
  0
ARC
  5
11856
  8
0
 10
3445.6204791452819336
 20
209.5422841227018864
 30
0.0
 40
0.0038898633360813
 50
32.7042677399192598
 51
62.5226878492576006
  0
ARC
  5
11857
  8
0
 10
3445.621874515590207
 20
209.5431800812980896
 30
0.0
 40
0.002231611213726
 50
9.6647689145433837
 51
32.7042677399288522
  0
ARC
  5
11858
  8
0
 10
3445.638186061063152
 20
209.5281064515193918
 30
0.0
 40
0.0184810813332126
 50
103.2807085336170019
 51
123.2906472556686026
  0
ARC
  5
11859
  8
0
 10
3445.6379768197630256
 20
209.5289929376149018
 30
0.0
 40
0.01757023583639
 50
87.3339457213077281
 51
103.2807085336170019
  0
ARC
  5
1185A
  8
0
 10
3445.6383937093150962
 20
209.5379457824313079
 30
0.0
 40
0.0086076900370704
 50
66.1410086454086752
 51
87.3339457213076571
  0
ARC
  5
1185B
  8
0
 10
3445.639973608767832
 20
209.541517928531988
 30
0.0
 40
0.0047017573641721
 50
40.8001934689450607
 51
66.1410086454338142
  0
ARC
  5
1185C
  8
0
 10
3445.6414485597338171
 20
209.5427910807455874
 30
0.0
 40
0.0027533228866491
 50
16.102466828022731
 51
40.8001934689499919
  0
ARC
  5
1185D
  8
0
 10
3445.6575757036471259
 20
209.5298409073893993
 30
0.0
 40
0.0166443983811295
 50
106.7630429416638975
 51
124.5198111987406975
  0
ARC
  5
1185E
  8
0
 10
3445.6589391499092017
 20
209.5253144055454015
 30
0.0
 40
0.0213717871586837
 50
101.0063465964677931
 51
106.7630429416638975
  0
ARC
  5
1185F
  8
0
 10
3445.6578106903220942
 20
209.531116395542
 30
0.0
 40
0.0154610757834628
 50
89.8484205241821456
 51
101.0063465964677931
  0
ARC
  5
11860
  8
0
 10
3445.657817144171986
 20
209.5335558911556006
 30
0.0
 40
0.0130215716329693
 50
76.1316641961863496
 51
89.8484205241821456
  0
ARC
  5
11861
  8
0
 10
3445.6593626883031902
 20
209.5398159789814088
 30
0.0
 40
0.0065735171780647
 50
53.3139187061137889
 51
76.1316641961867333
  0
ARC
  5
11862
  8
0
 10
3445.6610348085227997
 20
209.5420604380549889
 30
0.0
 40
0.0037746633839809
 50
23.3205319116303116
 51
53.3139187061167092
  0
ARC
  5
11863
  8
0
 10
3445.6772087608242146
 20
209.5316985012636053
 30
0.0
 40
0.0146394114891634
 50
112.074047400485199
 51
125.915367044175099
  0
ARC
  5
11864
  8
0
 10
3445.6788101263377939
 20
209.5277496833008115
 30
0.0
 40
0.0189005773877453
 50
104.8258195183913983
 51
112.0740474004857958
  0
ARC
  5
11865
  8
0
 10
3445.6782216857450294
 20
209.5299727846883115
 30
0.0
 40
0.016600916084245
 50
96.0256926893965641
 51
104.8258195183913983
  0
ARC
  5
11866
  8
0
 10
3445.6781839319210121
 20
209.5303304454560873
 30
0.0
 40
0.0162412682341912
 50
84.6975166696772561
 51
96.0256926893965641
  0
ARC
  5
11867
  8
0
 10
3445.67873583951814
 20
209.5362770264410983
 30
0.0
 40
0.0102691306432069
 50
70.5656974448423853
 51
84.6975166696772561
  0
ARC
  5
11868
  8
0
 10
3445.6797272610228902
 20
209.5390869497452968
 30
0.0
 40
0.0072894350924708
 50
54.3747673916500318
 51
70.5656974448434653
  0
ARC
  5
11869
  8
0
 10
3445.6815459067538541
 20
209.5416248451631134
 30
0.0
 40
0.0041671946390399
 50
27.5882327196652817
 51
54.3747673916500318
  0
ARC
  5
1186A
  8
0
 10
3445.6987858832021629
 20
209.5305533242699028
 30
0.0
 40
0.0160242826046451
 50
89.7212397162977169
 51
125.7713144004115975
  0
ARC
  5
1186B
  8
0
 10
3445.6987956959519579
 20
209.5325701997738008
 30
0.0
 40
0.0140073832297843
 50
72.7373835110151958
 51
89.7212397162977169
  0
ARC
  5
1186C
  8
0
 10
3445.7010656720590305
 20
209.5398750374191934
 30
0.0
 40
0.006357975112459
 50
35.3628479896489125
 51
72.7373835110147127
  0
ARC
  5
1186D
  8
0
 10
3445.7195565508682193
 20
209.5314381566419115
 30
0.0
 40
0.0151405158978405
 50
89.2621848809344556
 51
126.8436390373989013
  0
ARC
  5
1186E
  8
0
 10
3445.7195522408510442
 20
209.5311034763444127
 30
0.0
 40
0.0154752239464616
 50
73.3700095620411759
 51
89.2621848809344556
  0
ARC
  5
1186F
  8
0
 10
3445.7219788841998707
 20
209.5392279543303005
 30
0.0
 40
0.0069960883486112
 50
38.2035154122305016
 51
73.3700095620416306
  0
ARC
  5
11870
  8
0
 10
3445.740298708642058
 20
209.5329920676998938
 30
0.0
 40
0.0135951997810072
 50
50.981313852062371
 51
129.0186861479334937
  0
ARC
  5
11871
  8
0
 10
3445.7615989421519771
 20
209.5332698786972969
 30
0.0
 40
0.0133135508937147
 50
88.2780127768832301
 51
129.4201668705416921
  0
ARC
  5
11872
  8
0
 10
3445.7615726564399665
 20
209.5323955360520074
 30
0.0
 40
0.014188288568674
 50
51.8603193111352709
 51
88.2780127768832301
  0
ARC
  5
11873
  8
0
 10
3445.7621286910748495
 20
209.4331436861091049
 30
0.0
 40
0.0105804834890097
 50
211.8861060422948981
 51
269.2977544889188266
  0
ARC
  5
11874
  8
0
 10
3445.7620619608969719
 20
209.4319161092494994
 30
0.0
 40
0.0093523232769752
 50
269.6148083836538945
 51
332.2029143261480044
  0
ARC
  5
11875
  8
0
 10
3445.4468617320430894
 20
209.4527830835822044
 30
0.0
 40
0.0337801708321864
 50
228.3173070384200969
 51
239.6585314092191936
  0
ARC
  5
11876
  8
0
 10
3445.4347059444630759
 20
209.4320154663903963
 30
0.0
 40
0.0097165656261761
 50
239.6585314092183978
 51
250.6070349429247983
  0
ARC
  5
11877
  8
0
 10
3445.4332036520800102
 20
209.4277478035209015
 30
0.0
 40
0.0051922061385447
 50
250.607034942923093
 51
266.7404454427859264
  0
ARC
  5
11878
  8
0
 10
3445.4329858083328872
 20
209.4239227228785012
 30
0.0
 40
0.0013609272633807
 50
266.7404454427859264
 51
311.1768289427852778
  0
ARC
  5
11879
  8
0
 10
3445.4332139269959043
 20
209.4236619323015987
 30
0.0
 40
0.0010144451579509
 50
311.1768289427852778
 51
12.4551575958639607
  0
ARC
  5
1187A
  8
0
 10
3445.3816922686169164
 20
209.4122821534311072
 30
0.0
 40
0.0537778856181154
 50
12.4551575958639607
 51
14.5448247078156001
  0
ARC
  5
1187B
  8
0
 10
3445.4290645908467923
 20
209.4245730169502906
 30
0.0
 40
0.0048370821973156
 50
14.5448247078140191
 51
38.0557782781871126
  0
ARC
  5
1187C
  8
0
 10
3445.458020412049791
 20
209.4535320088299954
 30
0.0
 40
0.0346508173542458
 50
228.5632973736960878
 51
237.733508688279187
  0
ARC
  5
1187D
  8
0
 10
3445.4474464455438465
 20
209.4367839697966076
 30
0.0
 40
0.0148441119461173
 50
237.7335086882800113
 51
249.9188260806049016
  0
ARC
  5
1187E
  8
0
 10
3445.4437605887919744
 20
209.4267016290314984
 30
0.0
 40
0.004109162700816
 50
249.9188260806049016
 51
281.4248653580467021
  0
ARC
  5
1187F
  8
0
 10
3445.4444286469720282
 20
209.4233958346833049
 30
0.0
 40
0.000736540871372
 50
281.4248653580467021
 51
324.8527883754662753
  0
ARC
  5
11880
  8
0
 10
3445.4432673796582094
 20
209.4242134173788941
 30
0.0
 40
0.002156746222388
 50
324.8527883754716754
 51
358.5394637772532178
  0
ARC
  5
11881
  8
0
 10
3445.4417580028439261
 20
209.424251901489697
 30
0.0
 40
0.00366661356561
 50
358.5394637772499209
 51
21.0097902561934013
  0
ARC
  5
11882
  8
0
 10
3445.4137071818518052
 20
209.4134787004196028
 30
0.0
 40
0.0337150814066393
 50
21.0097902561934013
 51
24.6768233888657313
  0
ARC
  5
11883
  8
0
 10
3445.4680073174567951
 20
209.4515478567157913
 30
0.0
 40
0.0320552238365474
 50
228.460044484104202
 51
239.130392001036995
  0
ARC
  5
11884
  8
0
 10
3445.458438123497217
 20
209.4355396347094995
 30
0.0
 40
0.0134049518585907
 50
239.130392001036995
 51
248.2537642467146952
  0
ARC
  5
11885
  8
0
 10
3445.4582006262157847
 20
209.4349442294216033
 30
0.0
 40
0.0127639273539835
 50
248.2537642467152921
 51
250.7596942266860935
  0
LINE
  5
11886
  8
0
 10
3445.453994517692081
 20
209.4228932339196092
 30
0.0
 11
3445.455748289191888
 21
209.4225639973194859
 31
0.0
  0
ARC
  5
11887
  8
0
 10
3445.455897090911094
 20
209.4243521809393087
 30
0.0
 40
0.001794364123949
 50
265.2431546557501179
 51
317.5148174841623927
  0
ARC
  5
11888
  8
0
 10
3445.4562865499360669
 20
209.423995492739806
 30
0.0
 40
0.001266249738887
 50
317.5148174841600053
 51
351.1173203419667175
  0
ARC
  5
11889
  8
0
 10
3445.452854549310814
 20
209.4245318668208995
 30
0.0
 40
0.0047399114163592
 50
351.1173203419667175
 51
7.1163925799353791
  0
ARC
  5
1188A
  8
0
 10
3445.4524265165900943
 20
209.424478428160711
 30
0.0
 40
0.0051712670705723
 50
7.1163925799353791
 51
21.6246598409230515
  0
ARC
  5
1188B
  8
0
 10
3445.3904804414310092
 20
209.3999213960057091
 30
0.0
 40
0.0718073237954048
 50
21.6246598409230515
 51
22.6329473977193096
  0
ARC
  5
1188C
  8
0
 10
3445.4798328423407838
 20
209.4505984783696988
 30
0.0
 40
0.0308315804335876
 50
228.3662828497728867
 51
238.8936942186768135
  0
ARC
  5
1188D
  8
0
 10
3445.4714665166529812
 20
209.436732912226887
 30
0.0
 40
0.0146374663798556
 50
238.8936942186776946
 51
250.7398765944919887
  0
ARC
  5
1188E
  8
0
 10
3445.4687176056618227
 20
209.4288657061703134
 30
0.0
 40
0.0063038331524542
 50
250.7398765944913919
 51
268.5125048073733183
  0
ARC
  5
1188F
  8
0
 10
3445.468616758510052
 20
209.4249821184722862
 30
0.0
 40
0.0024189362997177
 50
268.5125048073472271
 51
310.3721674369621155
  0
ARC
  5
11890
  8
0
 10
3445.4684165791868509
 20
209.4246473325358977
 30
0.0
 40
0.0023230966064396
 50
319.5208355475604094
 51
358.3587660420889733
  0
ARC
  5
11891
  8
0
 10
3445.4645302743961111
 20
209.4246529256789984
 30
0.0
 40
0.0062088673535414
 50
359.3343745536574829
 51
18.6000710074160516
  0
ARC
  5
11892
  8
0
 10
3445.4490427178629943
 20
209.4194407656895862
 30
0.0
 40
0.0225499511332104
 50
18.6000710074160516
 51
21.0892572512997098
  0
ARC
  5
11893
  8
0
 10
3445.4916229403488614
 20
209.4483985808375053
 30
0.0
 40
0.0280506345057626
 50
227.994400422820803
 51
240.752166846194001
  0
ARC
  5
11894
  8
0
 10
3445.4841660372908336
 20
209.4350821410608035
 30
0.0
 40
0.0127884927313659
 50
240.7521668461947115
 51
250.8889110635136888
  0
ARC
  5
11895
  8
0
 10
3445.4830887997150057
 20
209.4319732106380059
 30
0.0
 40
0.0094982208325683
 50
250.8889110635394104
 51
259.1540960403153804
  0
ARC
  5
11896
  8
0
 10
3445.4821905038788827
 20
209.4272845904218912
 30
0.0
 40
0.0047243235838848
 50
259.1540960403149825
 51
276.157541195383601
  0
ARC
  5
11897
  8
0
 10
3445.4824307930448413
 20
209.4250573197882943
 30
0.0
 40
0.0024841286462319
 50
276.1575411953573962
 51
312.7424344478534977
  0
ARC
  5
11898
  8
0
 10
3445.4830720737218144
 20
209.4243634024608127
 30
0.0
 40
0.0015392677228656
 50
312.742434447826497
 51
340.5780054355262791
  0
ARC
  5
11899
  8
0
 10
3445.4806866486960644
 20
209.4252044726300142
 30
0.0
 40
0.0040686256624496
 50
340.5780054355216748
 51
3.6722245159594542
  0
ARC
  5
1189A
  8
0
 10
3445.4778665136718701
 20
209.4250234754800886
 30
0.0
 40
0.0068945629441259
 50
3.6722245159578288
 51
21.5392172550294312
  0
ARC
  5
1189B
  8
0
 10
3445.5058931383869094
 20
209.4481833819598933
 30
0.0
 40
0.0278259752706824
 50
227.8461242177903898
 51
238.758799701466387
  0
ARC
  5
1189C
  8
0
 10
3445.4997739839691349
 20
209.4380958346278874
 30
0.0
 40
0.0160275574965715
 50
238.7587997014672112
 51
248.8499578016902944
  0
ARC
  5
1189D
  8
0
 10
3445.4971703107521535
 20
209.431365765149593
 30
0.0
 40
0.0088113985874362
 50
248.8499578016908913
 51
267.3209242588106918
  0
ARC
  5
1189E
  8
0
 10
3445.4968981471129155
 20
209.4255494079172024
 30
0.0
 40
0.0029886771874461
 50
267.3209242588367829
 51
312.1366214066724751
  0
ARC
  5
1189F
  8
0
 10
3445.4973231916451368
 20
209.4250796058126127
 30
0.0
 40
0.002355134077413
 50
312.1366214066670182
 51
10.2329418530451708
  0
ARC
  5
118A0
  8
0
 10
3445.5530897404751158
 20
209.4351466957392915
 30
0.0
 40
0.0543127957236291
 50
188.0352456925556908
 51
190.2329418530435987
  0
ARC
  5
118A1
  8
0
 10
3445.5195332343269001
 20
209.4460941494726001
 30
0.0
 40
0.025236757919071
 50
227.2750860681859137
 51
240.9059600158155092
  0
ARC
  5
118A2
  8
0
 10
3445.5139855781199003
 20
209.4361245381753918
 30
0.0
 40
0.0138275669391449
 50
240.9059600158155092
 51
253.1662166447457025
  0
ARC
  5
118A3
  8
0
 10
3445.5121860856597777
 20
209.4301770078724019
 30
0.0
 40
0.0076137685984564
 50
253.1662166447198103
 51
269.1914831157930053
  0
ARC
  5
118A4
  8
0
 10
3445.512130116364915
 20
209.4262109910646927
 30
0.0
 40
0.0036473568850277
 50
269.1914831157930053
 51
310.5558551037668735
  0
ARC
  5
118A5
  8
0
 10
3445.5128447046809015
 20
209.4253759653713018
 30
0.0
 40
0.0025483098566837
 50
310.5558551037636903
 51
11.5241059206725005
  0
ARC
  5
118A6
  8
0
 10
3445.526158351975937
 20
209.42809049130571
 30
0.0
 40
0.0110392526679215
 50
182.7817864535552133
 51
191.5241059206724969
  0
ARC
  5
118A7
  8
0
 10
3445.5350074091079478
 20
209.4453020226729052
 30
0.0
 40
0.0243157152201289
 50
226.8754285029559981
 51
240.0642159143752963
  0
ARC
  5
118A8
  8
0
 10
3445.5303050245438499
 20
209.43713613134139
 30
0.0
 40
0.0148926476823394
 50
240.0642159143752963
 51
249.0047006115727015
  0
ARC
  5
118A9
  8
0
 10
3445.5289878757012048
 20
209.4337039997022032
 30
0.0
 40
0.0112164528202325
 50
249.0047006115981958
 51
261.28348275932251
  0
ARC
  5
118AA
  8
0
 10
3445.5281075490761395
 20
209.4279621104917908
 30
0.0
 40
0.0054074712684568
 50
261.2834827592967031
 51
284.7502122748315969
  0
ARC
  5
118AB
  8
0
 10
3445.5287369829247837
 20
209.4255713892416111
 30
0.0
 40
0.0029352789081746
 50
284.7502122748319948
 51
316.5534049740841738
  0
ARC
  5
118AC
  8
0
 10
3445.5283148139519653
 20
209.4259712654373971
 30
0.0
 40
0.0035167663229304
 50
316.5534049740650744
 51
5.2133883758189361
  0
ARC
  5
118AD
  8
0
 10
3443.5127902528479353
 20
209.2420692802238023
 30
0.0
 40
2.027413798432431
 50
5.2133883758189361
 51
5.249256652366431
  0
ARC
  5
118AE
  8
0
 10
3445.5496434453712027
 20
209.442500934512708
 30
0.0
 40
0.0208552567735871
 50
225.7797024307504046
 51
247.4050209316297071
  0
ARC
  5
118AF
  8
0
 10
3445.5450728467158115
 20
209.431518063808511
 30
0.0
 40
0.0089592985955136
 50
247.4050209316291102
 51
266.5770359576206943
  0
ARC
  5
118B0
  8
0
 10
3445.5448522044462152
 20
209.4278292061133016
 30
0.0
 40
0.0052638481348341
 50
266.5770359576206943
 51
300.217344240460875
  0
ARC
  5
118B1
  8
0
 10
3445.5463723905759252
 20
209.4252190825721982
 30
0.0
 40
0.0022433000437462
 50
300.2173442404625803
 51
332.5772706673027983
  0
ARC
  5
118B2
  8
0
 10
3445.5427819609690232
 20
209.4270819919096027
 30
0.0
 40
0.0062882494830086
 50
332.5772706673056973
 51
350.707979321812104
  0
ARC
  5
118B3
  8
0
 10
3445.5449479415829046
 20
209.4267670753056905
 30
0.0
 40
0.0041000269637458
 50
350.1636826445069914
 51
11.0759461197177806
  0
ARC
  5
118B4
  8
0
 10
3445.5658463912350271
 20
209.4407510707748941
 30
0.0
 40
0.0187665008019739
 50
224.6831739418948075
 51
252.1165385047193013
  0
ARC
  5
118B5
  8
0
 10
3445.5622675361028087
 20
209.4296597768965
 30
0.0
 40
0.0071121023211587
 50
252.1165385047193013
 51
280.5061513770223769
  0
ARC
  5
118B6
  8
0
 10
3445.5628338557230563
 20
209.426606019422394
 30
0.0
 40
0.0040062767269446
 50
280.5061513770480133
 51
339.5424197669507862
  0
ARC
  5
118B7
  8
0
 10
3445.5616548872230851
 20
209.4270458230728025
 30
0.0
 40
0.0052646065618499
 50
339.5424197669507862
 51
5.547214747593161
  0
ARC
  5
118B8
  8
0
 10
3445.5840042519412236
 20
209.4407134553335084
 30
0.0
 40
0.0188185838245336
 50
224.366134789663306
 51
248.2649390734023882
  0
ARC
  5
118B9
  8
0
 10
3445.5805199089331836
 20
209.4319732600422981
 30
0.0
 40
0.0094094574074075
 50
248.2649390734030135
 51
269.6314283184154874
  0
ARC
  5
118BA
  8
0
 10
3445.5804945671447967
 20
209.4280338434145108
 30
0.0
 40
0.0054699592701722
 50
269.6314283183893963
 51
311.073884817532587
  0
ARC
  5
118BB
  8
0
 10
3445.5814458434251719
 20
209.4269423710713909
 30
0.0
 40
0.0040221200398309
 50
311.073884817532587
 51
8.7572328743447621
  0
ARC
  5
118BC
  8
0
 10
3445.6026313637707972
 20
209.4404554902037034
 30
0.0
 40
0.0186293712481305
 50
223.8279883002433053
 51
243.7075137671969003
  0
ARC
  5
118BD
  8
0
 10
3445.599679991794801
 20
209.4344818707022
 30
0.0
 40
0.0119664344709327
 50
243.7075137671961045
 51
262.8074165249497014
  0
ARC
  5
118BE
  8
0
 10
3445.598982366340806
 20
209.4289538420499923
 30
0.0
 40
0.0063945602753333
 50
262.807416524923724
 51
307.5622474301022748
  0
ARC
  5
118BF
  8
0
 10
3445.6003304653600026
 20
209.4272009117040909
 30
0.0
 40
0.0041831951404956
 50
307.5622474301002853
 51
4.851943368557416
  0
ARC
  5
118C0
  8
0
 10
3445.6212533450498086
 20
209.4395233095966944
 30
0.0
 40
0.0175825256702551
 50
222.899048148421997
 51
244.3971873658450988
  0
ARC
  5
118C1
  8
0
 10
3445.6186766666642143
 20
209.4341460443762912
 30
0.0
 40
0.0116197869744109
 50
244.3971873658458094
 51
262.6105984689683055
  0
ARC
  5
118C2
  8
0
 10
3445.618139185453856
 20
209.4300016662263033
 30
0.0
 40
0.0074407013923951
 50
262.6105984689687034
 51
294.483793022947907
  0
ARC
  5
118C3
  8
0
 10
3445.6192037984901617
 20
209.427663833913499
 30
0.0
 40
0.0048718765949244
 50
294.483793022947907
 51
358.7167911729530942
  0
ARC
  5
118C4
  8
0
 10
3445.640784897310823
 20
209.4390294125614957
 30
0.0
 40
0.0171478434185873
 50
222.0024022306465952
 51
236.1605702581200887
  0
ARC
  5
118C5
  8
0
 10
3445.6394389751590097
 20
209.4370218880031018
 30
0.0
 40
0.0147308905244801
 50
236.1605702580984882
 51
246.4874380039001096
  0
ARC
  5
118C6
  8
0
 10
3445.6385215325849458
 20
209.4349131789734031
 30
0.0
 40
0.0124312482376365
 50
246.4874380038993991
 51
257.9762873301189074
  0
ARC
  5
118C7
  8
0
 10
3445.6377926898258011
 20
209.4314912078660882
 30
0.0
 40
0.0089325201790361
 50
257.9762873301189074
 51
278.5957669381966184
  0
ARC
  5
118C8
  8
0
 10
3445.6382160168450355
 20
209.4286906890268938
 30
0.0
 40
0.0061001869476356
 50
278.5957669381966184
 51
303.5575755149973247
  0
ARC
  5
118C9
  8
0
 10
3445.638492721314833
 20
209.4282735455427087
 30
0.0
 40
0.0055996132264556
 50
303.5575755149737915
 51
338.1185412932575787
  0
ARC
  5
118CA
  8
0
 10
3445.6366458314510055
 20
209.4290152963478988
 30
0.0
 40
0.0075898886905995
 50
338.1185412932561007
 51
348.9050416215932842
  0
ARC
  5
118CB
  8
0
 10
3445.6601365408560014
 20
209.4378800579439996
 30
0.0
 40
0.0158254893059172
 50
220.7265103242619091
 51
239.3938481388636035
  0
ARC
  5
118CC
  8
0
 10
3445.658744929293789
 20
209.4355275478241083
 30
0.0
 40
0.0130921970415716
 50
239.3938481388636035
 51
250.2785046385882026
  0
ARC
  5
118CD
  8
0
 10
3445.6583355271650362
 20
209.4343854822658955
 30
0.0
 40
0.011878968356453
 50
250.278504638587691
 51
258.7636004178121993
  0
ARC
  5
118CE
  8
0
 10
3445.657791965951219
 20
209.431649421401886
 30
0.0
 40
0.0090894365238338
 50
258.7636004177862219
 51
273.0341642965626079
  0
ARC
  5
118CF
  8
0
 10
3445.6578359563259255
 20
209.4308195038144049
 30
0.0
 40
0.0082583538834572
 50
273.0341642965626079
 51
288.3559344970489065
  0
ARC
  5
118D0
  8
0
 10
3445.6586471339869604
 20
209.4283747377228906
 30
0.0
 40
0.0056825257758408
 50
288.355934497049418
 51
307.294259334702474
  0
ARC
  5
118D1
  8
0
 10
3445.6579949237029723
 20
209.4292310640736048
 30
0.0
 40
0.0067589425513105
 50
307.2942593347034972
 51
325.9674456867119829
  0
ARC
  5
118D2
  8
0
 10
3445.6585193347359564
 20
209.4288769106792074
 30
0.0
 40
0.0061261459343762
 50
325.9674456867147114
 51
347.5360307431213869
  0
ARC
  5
118D3
  8
0
 10
3445.6795800126819813
 20
209.4364387554140876
 30
0.0
 40
0.0141073144316856
 50
219.0313809726170859
 51
252.7187214145018004
  0
ARC
  5
118D4
  8
0
 10
3445.6781205490751745
 20
209.4317475589500077
 30
0.0
 40
0.0091943358763356
 50
252.7187214145008056
 51
275.233652539247089
  0
ARC
  5
118D5
  8
0
 10
3445.6782324133378097
 20
209.4305263250178939
 30
0.0
 40
0.0079679892979763
 50
275.2336525392731232
 51
303.144903398110614
  0
ARC
  5
118D6
  8
0
 10
3445.6791546365739123
 20
209.4291140580315016
 30
0.0
 40
0.0062812783744969
 50
303.144903398110614
 51
345.6260266758147282
  0
ARC
  5
118D7
  8
0
 10
3445.7002093466808219
 20
209.4359307280163875
 30
0.0
 40
0.0136598620540289
 50
217.8200196031152984
 51
240.9942733892540048
  0
ARC
  5
118D8
  8
0
 10
3445.6992831133002255
 20
209.4342601525642067
 30
0.0
 40
0.0117496969781058
 50
240.9942733892775948
 51
258.9390149254051039
  0
ARC
  5
118D9
  8
0
 10
3445.6988016289938059
 20
209.4317971300837939
 30
0.0
 40
0.0092400541994361
 50
258.9390149254053881
 51
287.5011493942063225
  0
ARC
  5
118DA
  8
0
 10
3445.6994519658719582
 20
209.4297346692887061
 30
0.0
 40
0.0070774903074049
 50
287.5011493942063225
 51
319.8950406881950812
  0
ARC
  5
118DB
  8
0
 10
3445.6987382649140272
 20
209.4303357668881063
 30
0.0
 40
0.0080105966149392
 50
319.8950406881937738
 51
339.6857085702014842
  0
ARC
  5
118DC
  8
0
 10
3445.7205153027130109
 20
209.4348307307795949
 30
0.0
 40
0.0123972480839314
 50
215.9376408764686914
 51
253.6068215667357038
  0
ARC
  5
118DD
  8
0
 10
3445.7197052234191688
 20
209.4320771070921126
 30
0.0
 40
0.0095269394112929
 50
253.6068215667361017
 51
281.164102432727077
  0
ARC
  5
118DE
  8
0
 10
3445.7199602718219467
 20
209.430784769503191
 30
0.0
 40
0.0082096747713156
 50
281.1641024327267928
 51
313.8391739677934993
  0
ARC
  5
118DF
  8
0
 10
3445.7202024831140079
 20
209.4305325393393105
 30
0.0
 40
0.0078599800963849
 50
313.8391739677912824
 51
337.7371038421542266
  0
ARC
  5
118E0
  8
0
 10
3445.7412199108630375
 20
209.4339471288824939
 30
0.0
 40
0.0114341779572141
 50
213.9908512425122069
 51
260.9391351921674982
  0
ARC
  5
118E1
  8
0
 10
3445.7408428559251661
 20
209.431582756195013
 30
0.0
 40
0.0090399288824681
 50
260.9391351921674982
 51
301.5411104790899799
  0
ARC
  5
118E2
  8
0
 10
3445.7410748782690462
 20
209.4312047392321006
 30
0.0
 40
0.0085963849813672
 50
301.5411104790891272
 51
334.874779647671005
  0
LINE
  5
118E3
  8
0
 10
3445.381364518691953
 20
209.5435547314195901
 30
0.0
 11
3445.3820988482611938
 21
209.5435547314195048
 31
0.0
  0
LINE
  5
118E4
  8
0
 10
3445.3854850359930424
 20
209.5435547314195901
 30
0.0
 11
3445.3864419638262007
 21
209.5435547314440043
 31
0.0
  0
LINE
  5
118E5
  8
0
 10
3445.3907141707918527
 20
209.5435547314195901
 30
0.0
 11
3445.3918910295919886
 21
209.5435547314880012
 31
0.0
  0
LINE
  5
118E6
  8
0
 10
3445.3970373484921765
 20
209.5435547314195901
 30
0.0
 11
3445.3984308581962068
 21
209.5435547314191069
 31
0.0
  0
LINE
  5
118E7
  8
0
 10
3445.4044369453931722
 20
209.5435547314195901
 30
0.0
 11
3445.406043221993059
 21
209.5435547314195901
 31
0.0
  0
LINE
  5
118E8
  8
0
 10
3445.412892337293215
 20
209.5435547314166911
 30
0.0
 11
3445.4147069038931477
 21
209.5435547314166911
 31
0.0
  0
LINE
  5
118E9
  8
0
 10
3445.4223799575970588
 20
209.5435547314195901
 30
0.0
 11
3445.4243977565952264
 21
209.543554731488598
 31
0.0
  0
LINE
  5
118EA
  8
0
 10
3445.4328733626930443
 20
209.5435547314195901
 30
0.0
 11
3445.4350887700920794
 21
209.5435547314195901
 31
0.0
  0
LINE
  5
118EB
  8
0
 10
3445.4443433053929766
 20
209.5435547314195901
 30
0.0
 11
3445.4467501465919668
 21
209.5435547314195901
 31
0.0
  0
LINE
  5
118EC
  8
0
 10
3445.4567578170931483
 20
209.5435547314195901
 30
0.0
 11
3445.4593493836919151
 21
209.5435547314195901
 31
0.0
  0
LINE
  5
118ED
  8
0
 10
3445.4700822961931408
 20
209.5435547314195901
 30
0.0
 11
3445.4728513650920831
 21
209.5435547314195901
 31
0.0
  0
LINE
  5
118EE
  8
0
 10
3445.4842796050920697
 20
209.5435547314195901
 30
0.0
 11
3445.487218458292773
 21
209.5435547314195901
 31
0.0
  0
LINE
  5
118EF
  8
0
 10
3445.4993101731920433
 20
209.5435547314195901
 30
0.0
 11
3445.5024106197920446
 21
209.5435547314195901
 31
0.0
  0
LINE
  5
118F0
  8
0
 10
3445.515132107791942
 20
209.5435547314195048
 30
0.0
 11
3445.5183855060931819
 21
209.5435547314195048
 31
0.0
  0
LINE
  5
118F1
  8
0
 10
3445.531701310193057
 20
209.5435547314195901
 30
0.0
 11
3445.5350985923919325
 21
209.5435547314195901
 31
0.0
  0
LINE
  5
118F2
  8
0
 10
3445.5489715989920114
 20
209.5435547314195048
 30
0.0
 11
3445.552503296391933
 21
209.5435547314195901
 31
0.0
  0
LINE
  5
118F3
  8
0
 10
3445.5668948389920843
 20
209.5435547314195048
 30
0.0
 11
3445.5705511079918324
 21
209.5435547314195048
 31
0.0
  0
LINE
  5
118F4
  8
0
 10
3445.5854210747920661
 20
209.5435547314195901
 30
0.0
 11
3445.5891917247918173
 21
209.5435547314195901
 31
0.0
  0
LINE
  5
118F5
  8
0
 10
3445.6044986703918767
 20
209.5435547314195901
 30
0.0
 11
3445.6083731918920421
 21
209.5435547314195901
 31
0.0
  0
LINE
  5
118F6
  8
0
 10
3445.6240744532919962
 20
209.5435547314195901
 30
0.0
 11
3445.6280420472921833
 21
209.5435547314195901
 31
0.0
  0
LINE
  5
118F7
  8
0
 10
3445.644093862092177
 20
209.5435547314195901
 30
0.0
 11
3445.6481434701918261
 21
209.5435547314195901
 31
0.0
  0
LINE
  5
118F8
  8
0
 10
3445.6645010991919662
 20
209.5435547314195901
 30
0.0
 11
3445.6686214343931169
 21
209.5435547314195901
 31
0.0
  0
LINE
  5
118F9
  8
0
 10
3445.6852392859918837
 20
209.5435547314195901
 30
0.0
 11
3445.6894188641931578
 21
209.5435547314195901
 31
0.0
  0
LINE
  5
118FA
  8
0
 10
3445.7062506213919733
 20
209.5435547314195901
 30
0.0
 11
3445.710477793391874
 21
209.5435547314195901
 31
0.0
  0
LINE
  5
118FB
  8
0
 10
3445.727476542992008
 20
209.5435547314195901
 30
0.0
 11
3445.7317395268919427
 21
209.5435547314195901
 31
0.0
  0
LINE
  5
118FC
  8
0
 10
3445.7488578903921734
 20
209.5435547314195901
 30
0.0
 11
3445.7531448045920115
 21
209.5435547314195901
 31
0.0
  0
LINE
  5
118FD
  8
0
 10
3445.3783641034351604
 20
209.4275547314844061
 30
0.0
 11
3445.3788737882860005
 21
209.4275547314842925
 31
0.0
  0
LINE
  5
118FE
  8
0
 10
3445.381364518691953
 20
209.4275547314196047
 30
0.0
 11
3445.3820988483671499
 21
209.4275547314202015
 31
0.0
  0
LINE
  5
118FF
  8
0
 10
3445.3854850359930424
 20
209.4275547314196047
 30
0.0
 11
3445.3864419637930041
 21
209.4275547314697974
 31
0.0
  0
LINE
  5
11900
  8
0
 10
3445.3907141707918527
 20
209.4275547314196047
 30
0.0
 11
3445.3918910295919886
 21
209.4275547314576045
 31
0.0
  0
LINE
  5
11901
  8
0
 10
3445.3970373484921765
 20
209.4275547314196047
 30
0.0
 11
3445.3984308581589175
 21
209.4275547314391872
 31
0.0
  0
LINE
  5
11902
  8
0
 10
3445.4044369453931722
 20
209.4275547314196047
 30
0.0
 11
3445.4060432219571339
 21
209.4275547314196047
 31
0.0
  0
LINE
  5
11903
  8
0
 10
3445.412892337293215
 20
209.4275547314196047
 30
0.0
 11
3445.4147069039381677
 21
209.4275547314196047
 31
0.0
  0
LINE
  5
11904
  8
0
 10
3445.4223799575920566
 20
209.4275547314196899
 30
0.0
 11
3445.4243977566911781
 21
209.4275547314196899
 31
0.0
  0
LINE
  5
11905
  8
0
 10
3445.4328733626971371
 20
209.4275547314196047
 30
0.0
 11
3445.4350887700920794
 21
209.4275547314427115
 31
0.0
  0
LINE
  5
11906
  8
0
 10
3445.4443433053929766
 20
209.4275547314198036
 30
0.0
 11
3445.4467501465787791
 21
209.4275547314196047
 31
0.0
  0
LINE
  5
11907
  8
0
 10
3445.4567578170931483
 20
209.4275547314196047
 30
0.0
 11
3445.4593493836850939
 21
209.4275547314196047
 31
0.0
  0
LINE
  5
11908
  8
0
 10
3445.4700822961931408
 20
209.4275547314196047
 30
0.0
 11
3445.4728513650920831
 21
209.4275547314196047
 31
0.0
  0
LINE
  5
11909
  8
0
 10
3445.4842796050920697
 20
209.4275547314196047
 30
0.0
 11
3445.487218458292773
 21
209.4275547314196047
 31
0.0
  0
LINE
  5
1190A
  8
0
 10
3445.4993101731920433
 20
209.4275547314196047
 30
0.0
 11
3445.5024106197920446
 21
209.4275547314196047
 31
0.0
  0
LINE
  5
1190B
  8
0
 10
3445.515132107791942
 20
209.4275547314196047
 30
0.0
 11
3445.5183855060931819
 21
209.4275547314196047
 31
0.0
  0
LINE
  5
1190C
  8
0
 10
3445.531701310193057
 20
209.4275547314196047
 30
0.0
 11
3445.5350985923919325
 21
209.4275547314196047
 31
0.0
  0
LINE
  5
1190D
  8
0
 10
3445.5489715989920114
 20
209.4275547314196047
 30
0.0
 11
3445.552503296391933
 21
209.4275547314196047
 31
0.0
  0
LINE
  5
1190E
  8
0
 10
3445.5668948389920843
 20
209.4275547314196899
 30
0.0
 11
3445.5705511079931966
 21
209.4275547314196899
 31
0.0
  0
LINE
  5
1190F
  8
0
 10
3445.5854210747920661
 20
209.4275547314196047
 30
0.0
 11
3445.5891917247918173
 21
209.4275547314196047
 31
0.0
  0
LINE
  5
11910
  8
0
 10
3445.6083731918920421
 20
209.4275547314196047
 30
0.0
 11
3445.6044986703918767
 21
209.4275547314196047
 31
0.0
  0
LINE
  5
11911
  8
0
 10
3445.6240744532919962
 20
209.4275547314196047
 30
0.0
 11
3445.6280420472921833
 21
209.4275547314196047
 31
0.0
  0
LINE
  5
11912
  8
0
 10
3445.6481434701918261
 20
209.4275547314196047
 30
0.0
 11
3445.644093862092177
 21
209.4275547314196047
 31
0.0
  0
LINE
  5
11913
  8
0
 10
3445.6686214343931169
 20
209.4275547314196047
 30
0.0
 11
3445.6645010991919662
 21
209.4275547314196047
 31
0.0
  0
LINE
  5
11914
  8
0
 10
3445.6894188641931578
 20
209.4275547314196047
 30
0.0
 11
3445.6852392859918837
 21
209.4275547314196047
 31
0.0
  0
LINE
  5
11915
  8
0
 10
3445.710477793391874
 20
209.4275547314196047
 30
0.0
 11
3445.7062506213919733
 21
209.4275547314196047
 31
0.0
  0
LINE
  5
11916
  8
0
 10
3445.7317395268919427
 20
209.4275547314196047
 30
0.0
 11
3445.727476542992008
 21
209.4275547314196047
 31
0.0
  0
LINE
  5
11917
  8
0
 10
3445.7531448045920115
 20
209.4275547314196047
 30
0.0
 11
3445.7488578903921734
 21
209.4275547314196047
 31
0.0
  0
LINE
  5
11918
  8
0
 10
3446.189706391980053
 20
209.5435544354942863
 30
0.0
 11
3446.1897063075539336
 21
209.4275544354518104
 31
0.0
  0
LINE
  5
11919
  8
0
 10
3446.1897063075539336
 20
209.4275544354158001
 30
0.0
 11
3446.1849623065149899
 21
209.4231905899781054
 31
0.0
  0
LINE
  5
1191A
  8
0
 10
3446.188117976454123
 20
209.4275544366082897
 30
0.0
 11
3446.1848067823179917
 21
209.4238146517537018
 31
0.0
  0
ARC
  5
1191B
  8
0
 10
3446.1892299388441643
 20
209.4198276744457985
 30
0.0
 40
0.0059548553051683
 50
137.9689012726329906
 51
151.4284255064318074
  0
ARC
  5
1191C
  8
0
 10
3446.1840775546570512
 20
209.422633530340903
 30
0.0
 40
0.0000880086120725
 50
151.4284255063664091
 51
232.5031283776797011
  0
ARC
  5
1191D
  8
0
 10
3446.180518081118862
 20
209.4283628166043059
 30
0.0
 40
0.0068193157753187
 50
303.1971962033265982
 51
310.670753898313194
  0
ARC
  5
1191E
  8
0
 10
3446.1838551333930809
 20
209.4232627215122022
 30
0.0
 40
0.00072449109929
 50
288.3005755422291827
 51
303.1971962033002796
  0
ARC
  5
1191F
  8
0
 10
3446.1840109929221398
 20
209.4227914617144961
 30
0.0
 40
0.0002281263245756
 50
273.264133105931819
 51
288.3005755422022958
  0
LINE
  5
11920
  8
0
 10
3446.1881179765109664
 20
209.427554436592601
 30
0.0
 11
3446.1880636550199597
 21
209.543554436647895
 31
0.0
  0
LINE
  5
11921
  8
0
 10
3446.1880636550199597
 20
209.543554436647895
 30
0.0
 11
3446.1840069260611017
 21
209.5464946924018079
 31
0.0
  0
LINE
  5
11922
  8
0
 10
3446.1897063920200708
 20
209.5435544354517106
 30
0.0
 11
3446.1840769318209823
 21
209.5465507420620099
 31
0.0
  0
ARC
  5
11923
  8
0
 10
3446.1840690338531203
 20
209.5464888633239866
 30
0.0
 40
0.000062380735128
 50
82.7263119229263282
 51
174.6382563346626
  0
LINE
  5
11924
  8
0
 10
3446.187608376118078
 20
209.543554437014194
 30
0.0
 11
3446.1876082916610358
 21
209.4275544370034936
 31
0.0
  0
LINE
  5
11925
  8
0
 10
3446.1876082916610358
 20
209.4275544370034936
 30
0.0
 11
3446.1822027338598673
 21
209.4228929434154907
 31
0.0
  0
LINE
  5
11926
  8
0
 10
3446.1851175612550833
 20
209.4275544387930097
 30
0.0
 11
3446.1851176457789734
 21
209.5435544387929951
 31
0.0
  0
LINE
  5
11927
  8
0
 10
3446.187608376118078
 20
209.543554437014194
 30
0.0
 11
3446.1853968720502053
 21
209.5447628883397044
 31
0.0
  0
LINE
  5
11928
  8
0
 10
3446.1853968720502053
 20
209.5447628883397044
 30
0.0
 11
3446.182366192777863
 21
209.5462998105977022
 31
0.0
  0
LINE
  5
11929
  8
0
 10
3446.1851176457198562
 20
209.5435544388325013
 30
0.0
 11
3446.1833380061461867
 21
209.5448004518343055
 31
0.0
  0
LINE
  5
1192A
  8
0
 10
3446.1833380061461867
 20
209.5448004518343055
 30
0.0
 11
3446.1817660132701349
 21
209.5460485735063969
 31
0.0
  0
ARC
  5
1192B
  8
0
 10
3446.1774687999918569
 20
209.532575515298106
 30
0.0
 40
0.0145719160569603
 50
70.3615104294379137
 51
73.9172890759938639
  0
ARC
  5
1192C
  8
0
 10
3446.182606445224792
 20
209.5471157343839081
 30
0.0
 40
0.0013583660075023
 50
206.6130817276637117
 51
231.7781508120629894
  0
LINE
  5
1192D
  8
0
 10
3446.1815055810211561
 20
209.5465771272230882
 30
0.0
 11
3446.1813919954051926
 21
209.5465072363612933
 31
0.0
  0
ARC
  5
1192E
  8
0
 10
3446.215995764580839
 20
209.3992400785240875
 30
0.0
 40
0.0418947065645008
 50
137.4801363165981911
 51
145.1921838241792102
  0
LINE
  5
1192F
  8
0
 10
3446.1822027338598673
 20
209.4228929434154907
 30
0.0
 11
3446.1815054798198616
 21
209.4225637073232065
 31
0.0
  0
LINE
  5
11930
  8
0
 10
3446.1815054798198616
 20
209.4225637073232065
 30
0.0
 11
3446.1814002781920863
 21
209.4226627548997897
 31
0.0
  0
LINE
  5
11931
  8
0
 10
3446.1814002781920863
 20
209.4226627548997897
 30
0.0
 11
3446.1815972214772046
 21
209.4231546487775972
 31
0.0
  0
LINE
  5
11932
  8
0
 10
3446.1843832315789768
 20
209.4275544393277073
 30
0.0
 11
3446.1843833161519797
 21
209.5435544393276928
 31
0.0
  0
LINE
  5
11933
  8
0
 10
3446.1843833161519797
 20
209.5435544393276928
 30
0.0
 11
3446.1793382869900597
 21
209.546122436701296
 31
0.0
  0
LINE
  5
11934
  8
0
 10
3446.1793382869900597
 20
209.546122436701296
 30
0.0
 11
3446.1785381895138016
 21
209.5464299047839063
 31
0.0
  0
LINE
  5
11935
  8
0
 10
3446.1785381895138016
 20
209.5464299047839063
 30
0.0
 11
3446.1778770479209015
 21
209.5465771298651987
 31
0.0
  0
LINE
  5
11936
  8
0
 10
3446.1778770479209015
 20
209.5465771298651987
 30
0.0
 11
3446.1776816662331839
 21
209.546456685007513
 31
0.0
  0
LINE
  5
11937
  8
0
 10
3446.1776816662331839
 20
209.546456685007513
 30
0.0
 11
3446.1785336139992069
 21
209.5454492916871914
 31
0.0
  0
LINE
  5
11938
  8
0
 10
3446.1785336139992069
 20
209.5454492916871914
 30
0.0
 11
3446.180997128420131
 21
209.5435544417933897
 31
0.0
  0
LINE
  5
11939
  8
0
 10
3446.180997128420131
 20
209.5435544417933897
 30
0.0
 11
3446.1809970439539939
 21
209.4275544417934043
 31
0.0
  0
LINE
  5
1193A
  8
0
 10
3446.1809970439539939
 20
209.4275544417934043
 30
0.0
 11
3446.178974473020844
 21
209.425037645266201
 31
0.0
  0
LINE
  5
1193B
  8
0
 10
3446.178974473020844
 20
209.425037645266201
 30
0.0
 11
3446.1781876462468972
 21
209.4238944479988902
 31
0.0
  0
ARC
  5
1193C
  8
0
 10
3446.1816312661449047
 20
209.4215862436105908
 30
0.0
 40
0.0041456393359682
 50
146.1666734050550929
 51
161.1936244454263942
  0
ARC
  5
1193D
  8
0
 10
3446.1781609329727871
 20
209.4227680723166998
 30
0.0
 40
0.0004795881337509
 50
161.1936244453910092
 51
181.754434427012086
  0
LINE
  5
1193E
  8
0
 10
3446.177876942920193
 20
209.4225637099652886
 30
0.0
 11
3446.1776815696580343
 21
209.4227533893075872
 31
0.0
  0
LINE
  5
1193F
  8
0
 10
3446.177876942920193
 20
209.4225637099652886
 30
0.0
 11
3446.1787040081599116
 21
209.422892945963099
 31
0.0
  0
LINE
  5
11940
  8
0
 10
3446.1787040081599116
 20
209.422892945963099
 30
0.0
 11
3446.1792266845059203
 21
209.4232305876824967
 31
0.0
  0
LINE
  5
11941
  8
0
 10
3446.1843832315789768
 20
209.4275544393277073
 30
0.0
 11
3446.1792266845059203
 21
209.4232305876824967
 31
0.0
  0
LINE
  5
11942
  8
0
 10
3446.1800402005860633
 20
209.5435544425145054
 30
0.0
 11
3446.1800401161540321
 21
209.4275544425404121
 31
0.0
  0
LINE
  5
11943
  8
0
 10
3446.1800401161540321
 20
209.4275544425404121
 30
0.0
 11
3446.1766001986670744
 21
209.4246877228949018
 31
0.0
  0
LINE
  5
11944
  8
0
 10
3446.1766001986670744
 20
209.4246877228949018
 30
0.0
 11
3446.1750035349618884
 21
209.4234452464575895
 31
0.0
  0
LINE
  5
11945
  8
0
 10
3446.1757679091538193
 20
209.4275544456010039
 30
0.0
 11
3446.1744768946068689
 21
209.4258868312317077
 31
0.0
  0
LINE
  5
11946
  8
0
 10
3446.1744768946068689
 20
209.4258868312317077
 30
0.0
 11
3446.1731967444889051
 21
209.4239085020728055
 31
0.0
  0
ARC
  5
11947
  8
0
 10
3446.1753942072191421
 20
209.422561248076704
 30
0.0
 40
0.0025775833217212
 50
148.4877355178657865
 51
173.0315278270176123
  0
ARC
  5
11948
  8
0
 10
3446.1731261879440353
 20
209.4228384590876999
 30
0.0
 40
0.0002926856486776
 50
173.031527826817296
 51
223.0660815758710953
  0
ARC
  5
11949
  8
0
 10
3446.1731216958041841
 20
209.4228889423310989
 30
0.0
 40
0.0003263303514025
 50
230.0977692213614034
 51
269.9999582800464282
  0
ARC
  5
1194A
  8
0
 10
3446.1731037865260987
 20
209.4238892713457858
 30
0.0
 40
0.0013267802407646
 50
270.7734089043057111
 51
292.4373049646047207
  0
ARC
  5
1194B
  8
0
 10
3446.1713335653957984
 20
209.4281762251634973
 30
0.0
 40
0.0059648462042124
 50
292.4373049645788001
 51
302.6598693105094071
  0
ARC
  5
1194C
  8
0
 10
3446.1184688391049349
 20
209.5106485038587891
 30
0.0
 40
0.1039258386403996
 50
302.6598693105094071
 51
302.9557225948278187
  0
LINE
  5
1194D
  8
0
 10
3446.1757679091538193
 20
209.4275544456010039
 30
0.0
 11
3446.1757679936199565
 21
209.5435544456009893
 31
0.0
  0
LINE
  5
1194E
  8
0
 10
3446.1800402005860633
 20
209.5435544424900911
 30
0.0
 11
3446.1751417496880094
 21
209.5459825980570088
 31
0.0
  0
LINE
  5
1194F
  8
0
 10
3446.1751417496880094
 20
209.5459825980570088
 30
0.0
 11
3446.1731485936211357
 21
209.5465771333082898
 31
0.0
  0
LINE
  5
11950
  8
0
 10
3446.1731485936211357
 20
209.5465771333082898
 30
0.0
 11
3446.1728357564797989
 21
209.5463839324361004
 31
0.0
  0
LINE
  5
11951
  8
0
 10
3446.1757679936199565
 20
209.5435544456009893
 30
0.0
 11
3446.1741527489189139
 21
209.5448366029098111
 31
0.0
  0
LINE
  5
11952
  8
0
 10
3446.1741527489189139
 20
209.5448366029098111
 30
0.0
 11
3446.1735536100218269
 21
209.5453836320452012
 31
0.0
  0
ARC
  5
11953
  8
0
 10
3446.1770244379767973
 20
209.5490274498085057
 30
0.0
 40
0.005032301122085
 50
217.3668512538104949
 51
226.3928498717750983
  0
ARC
  5
11954
  8
0
 10
3446.1740406084209098
 20
209.546748874064491
 30
0.0
 40
0.001277950813502
 50
203.6266251522417008
 51
217.3668512538002062
  0
ARC
  5
11955
  8
0
 10
3446.1732455741398553
 20
209.5464010920711075
 30
0.0
 40
0.0004101767515111
 50
182.3976533813865899
 51
203.6266251522716004
  0
LINE
  5
11956
  8
0
 10
3446.1745911348198206
 20
209.5435544464579039
 30
0.0
 11
3446.1745910503541381
 21
209.4275544464960035
 31
0.0
  0
LINE
  5
11957
  8
0
 10
3446.1745910503541381
 20
209.4275544464960035
 30
0.0
 11
3446.1721431751329874
 21
209.4254648488403063
 31
0.0
  0
LINE
  5
11958
  8
0
 10
3446.1721431751329874
 20
209.4254648488403063
 30
0.0
 11
3446.1701793575489319
 21
209.4239757077702961
 31
0.0
  0
LINE
  5
11959
  8
0
 10
3446.1694447314548597
 20
209.4275544502052071
 30
0.0
 11
3446.1694448159191779
 21
209.5435544502051926
 31
0.0
  0
LINE
  5
1195A
  8
0
 10
3446.1694447314548597
 20
209.4275544502052071
 30
0.0
 11
3446.1688348179691275
 21
209.4267386462798015
 31
0.0
  0
LINE
  5
1195B
  8
0
 10
3446.1688348179691275
 20
209.4267386462798015
 30
0.0
 11
3446.168173603572086
 21
209.4257885750606931
 31
0.0
  0
ARC
  5
1195C
  8
0
 10
3446.179487793869157
 20
209.4181279273892073
 30
0.0
 40
0.0136636900145363
 50
145.8987327797910893
 51
154.6329526724009042
  0
ARC
  5
1195D
  8
0
 10
3446.1700434634381054
 20
209.4226057705776043
 30
0.0
 40
0.0032115870249789
 50
154.6329526724038033
 51
166.8884540253017121
  0
ARC
  5
1195E
  8
0
 10
3446.168356285254049
 20
209.4229987476601877
 30
0.0
 40
0.0014792472168679
 50
166.8884540253048954
 51
181.0006986823385944
  0
ARC
  5
1195F
  8
0
 10
3446.1673737411761067
 20
209.4229815853045125
 30
0.0
 40
0.0004965532605895
 50
181.0006986824280943
 51
211.3102301367588041
  0
ARC
  5
11960
  8
0
 10
3446.1671962221471404
 20
209.4228736086253093
 30
0.0
 40
0.0002887746072184
 50
211.3102301368828932
 51
252.9016268055736987
  0
ARC
  5
11961
  8
0
 10
3446.1673373074650044
 20
209.423332259954293
 30
0.0
 40
0.000768635116572
 50
252.9016268056010972
 51
272.5696164461455169
  0
ARC
  5
11962
  8
0
 10
3446.1673020794219156
 20
209.4241172271838138
 30
0.0
 40
0.0015543924368811
 50
272.5696164461455169
 51
284.4720225474218864
  0
ARC
  5
11963
  8
0
 10
3446.1669321499248326
 20
209.4255505252795899
 30
0.0
 40
0.0030346597319567
 50
284.4720225474218864
 51
294.1425116027963895
  0
ARC
  5
11964
  8
0
 10
3446.1640365785438007
 20
209.4320107921799092
 30
0.0
 40
0.0101141640962144
 50
294.1425116027963895
 51
307.3977188058818228
  0
LINE
  5
11965
  8
0
 10
3446.1680512217881187
 20
209.4275544512395015
 30
0.0
 11
3446.1680513062160571
 21
209.5435544512882018
 31
0.0
  0
ARC
  5
11966
  8
0
 10
3446.1521044882738352
 20
209.5026828937610901
 30
0.0
 40
0.0466490417728549
 50
61.1813580765249085
 51
69.2188204840703776
  0
ARC
  5
11967
  8
0
 10
3446.1670506939781262
 20
209.5420680249295913
 30
0.0
 40
0.0045233059087126
 50
69.2188204840692265
 51
83.0374916911339938
  0
ARC
  5
11968
  8
0
 10
3446.167399471193221
 20
209.5449240361145939
 30
0.0
 40
0.0016460771317146
 50
83.0374916911079453
 51
102.7635488490485045
  0
ARC
  5
11969
  8
0
 10
3446.167081803093879
 20
209.5463263864517103
 30
0.0
 40
0.0002081969249056
 50
102.7635488490745956
 51
188.8207180696219893
  0
ARC
  5
1196A
  8
0
 10
3446.1679949785930148
 20
209.5464680916232112
 30
0.0
 40
0.0011323018141391
 50
188.820718069581801
 51
205.9413120151114072
  0
ARC
  5
1196B
  8
0
 10
3446.1684172803338697
 20
209.5466735267494016
 30
0.0
 40
0.0016019211835338
 50
205.9413120151201895
 51
222.2817865503224084
  0
ARC
  5
1196C
  8
0
 10
3446.1530283078350294
 20
209.532679578892413
 30
0.0
 40
0.0191983444687043
 50
40.5828077592052878
 51
42.2817865503223871
  0
ARC
  5
1196D
  8
0
 10
3446.1809164066698941
 20
209.558450790556293
 30
0.0
 40
0.0188015518022859
 50
224.9444053961269105
 51
232.4003275387622125
  0
ARC
  5
1196E
  8
0
 10
3446.1453599646029033
 20
209.5013186766477133
 30
0.0
 40
0.0479453610234708
 50
61.7529040623704404
 51
69.3555519073672002
  0
ARC
  5
1196F
  8
0
 10
3446.1601707125291796
 20
209.5406294101802018
 30
0.0
 40
0.0059371234387684
 50
69.3555519073660633
 51
89.2013443768466345
  0
ARC
  5
11970
  8
0
 10
3446.1602474685219022
 20
209.5461355501051059
 30
0.0
 40
0.0004304485478206
 50
89.201344376820586
 51
212.609626039454696
  0
ARC
  5
11971
  8
0
 10
3446.1676309076901816
 20
209.5508592044402008
 30
0.0
 40
0.0091956116509554
 50
212.6096260394533033
 51
232.5961071351999863
  0
LINE
  5
11972
  8
0
 10
3446.1620452190200012
 20
209.5435544555932097
 30
0.0
 11
3446.162045134553864
 21
209.4275544555931958
 31
0.0
  0
ARC
  5
11973
  8
0
 10
3446.1708826450058041
 20
209.4202917928178067
 30
0.0
 40
0.0114388750139628
 50
140.5866472937402136
 51
165.2801380783868126
  0
ARC
  5
11974
  8
0
 10
3446.160364848088193
 20
209.4231102201569001
 30
0.0
 40
0.0005527197399025
 50
170.8268854372221028
 51
278.6053149928098946
  0
ARC
  5
11975
  8
0
 10
3446.1602010557940048
 20
209.4259549454822036
 30
0.0
 40
0.0034001693498623
 50
274.1572849944686254
 51
300.7852589161415722
  0
ARC
  5
11976
  8
0
 10
3446.1975878055018256
 20
209.3632013865650094
 30
0.0
 40
0.069646241995888
 50
119.5550814783979945
 51
120.7852589161416006
  0
ARC
  5
11977
  8
0
 10
3446.1591378040980089
 20
209.431009351553314
 30
0.0
 40
0.0083045291603305
 50
299.5550814783979945
 51
309.5827603014652141
  0
ARC
  5
11978
  8
0
 10
3446.3484090278311669
 20
209.2020795296886888
 30
0.0
 40
0.2887349622749189
 50
128.6563789503362045
 51
129.5827603014652141
  0
LINE
  5
11979
  8
0
 10
3446.16043894245513
 20
209.5435544567627915
 30
0.0
 11
3446.1604388579889928
 21
209.4275544567628913
 31
0.0
  0
ARC
  5
1197A
  8
0
 10
3446.1237057835987798
 20
209.4709089632133896
 30
0.0
 40
0.0568236920987621
 50
303.4880905664575153
 51
310.2736839907054218
  0
ARC
  5
1197B
  8
0
 10
3446.1516082008151898
 20
209.4287339648788873
 30
0.0
 40
0.0062541818087462
 50
279.7396946270952185
 51
303.4880905664809916
  0
ARC
  5
1197C
  8
0
 10
3446.1525242486732168
 20
209.4233971293265881
 30
0.0
 40
0.0008392988559443
 50
179.801989236240189
 51
279.7396946270952185
  0
ARC
  5
1197D
  8
0
 10
3446.1550375538599837
 20
209.4233884434605955
 30
0.0
 40
0.0033526190518443
 50
147.4930938668614999
 51
179.801989236240189
  0
ARC
  5
1197E
  8
0
 10
3446.122731647270939
 20
209.4439750506089979
 30
0.0
 40
0.0349550824507927
 50
327.4930938668600788
 51
331.981115397530175
  0
LINE
  5
1197F
  8
0
 10
3446.1535897426529118
 20
209.4275544617482865
 30
0.0
 11
3446.153589827119049
 21
209.5435544617500057
 31
0.0
  0
LINE
  5
11980
  8
0
 10
3446.1604389424201145
 20
209.5435544567627915
 30
0.0
 11
3446.1560223591141039
 21
209.5456342229865072
 31
0.0
  0
ARC
  5
11981
  8
0
 10
3446.1505683600607881
 20
209.5328259541078069
 30
0.0
 40
0.013921129887241
 50
66.9347932733385704
 51
80.5318379287296011
  0
ARC
  5
11982
  8
0
 10
3446.1525528075280818
 20
209.5447251596976059
 30
0.0
 40
0.0018575845783897
 50
80.5318379287296011
 51
108.1568318309106047
  0
ARC
  5
11983
  8
0
 10
3446.1521050445999208
 20
209.5460905045054005
 30
0.0
 40
0.0004206927650318
 50
108.1568318309378043
 51
183.2603160149228074
  0
ARC
  5
11984
  8
0
 10
3446.1528318935611424
 20
209.5461319092717929
 30
0.0
 40
0.0011487200762024
 50
183.2603160149342045
 51
207.9130504136410025
  0
ARC
  5
11985
  8
0
 10
3446.1555816560057792
 20
209.547588635543093
 30
0.0
 40
0.0042605113499963
 50
207.9130504136618072
 51
219.1625134597007047
  0
ARC
  5
11986
  8
0
 10
3446.1603913273870603
 20
209.5515060706495944
 30
0.0
 40
0.0104636747856112
 50
219.162513459699511
 51
229.457593561321687
  0
LINE
  5
11987
  8
0
 10
3446.1517752605200258
 20
209.5435544630713025
 30
0.0
 11
3446.1517751760547981
 21
209.4275544630712886
 31
0.0
  0
LINE
  5
11988
  8
0
 10
3446.1441021223540702
 20
209.4275544686583999
 30
0.0
 11
3446.1441022068152051
 21
209.5435544686584137
 31
0.0
  0
ARC
  5
11989
  8
0
 10
3446.1391478022460433
 20
209.5223489951870022
 30
0.0
 40
0.0246804492269055
 50
59.2269948145699487
 51
78.7294750769349179
  0
ARC
  5
1198A
  8
0
 10
3446.1435718934280885
 20
209.544548838276711
 30
0.0
 40
0.0020440710716705
 50
78.7294750769349179
 51
110.2787976351772983
  0
ARC
  5
1198B
  8
0
 10
3446.1430584115219062
 20
209.5459385404807904
 30
0.0
 40
0.0005625394711533
 50
110.2787976351510935
 51
180.9824569556400888
  0
ARC
  5
1198C
  8
0
 10
3446.1438525678581755
 20
209.5459521593004979
 30
0.0
 40
0.0013568125718018
 50
180.9824569556091944
 51
217.7645057192690103
  0
ARC
  5
1198D
  8
0
 10
3446.1621488315349779
 20
209.5601260508288135
 30
0.0
 40
0.0245009795599222
 50
217.7645057192677029
 51
222.5601675944485009
  0
LINE
  5
1198E
  8
0
 10
3446.1420844078202208
 20
209.5435544701277024
 30
0.0
 11
3446.1420843233540836
 21
209.4275544701276885
 31
0.0
  0
ARC
  5
1198F
  8
0
 10
3446.1510812794190315
 20
209.422407752248489
 30
0.0
 40
0.0086716390108609
 50
143.593415860851394
 51
171.9138475821320924
  0
ARC
  5
11990
  8
0
 10
3446.1434257012588205
 20
209.4234954147096914
 30
0.0
 40
0.000939182312583
 50
171.9138475821482928
 51
277.2469818105348054
  0
ARC
  5
11991
  8
0
 10
3446.1426837039398379
 20
209.4293304454338909
 30
0.0
 40
0.0068212009774803
 50
277.2469818105348054
 51
293.2426958130417916
  0
ARC
  5
11992
  8
0
 10
3446.1378445268419455
 20
209.440597895403414
 30
0.0
 40
0.0190838704991177
 50
293.2426958130417916
 51
316.8838624993471171
  0
LINE
  5
11993
  8
0
 10
3445.8133373598197977
 20
209.5435547095050026
 30
0.0
 11
3445.8133372753541153
 21
209.4275547095049888
 31
0.0
  0
LINE
  5
11994
  8
0
 10
3445.796147094420121
 20
209.543554722022094
 30
0.0
 11
3445.7961470099548933
 21
209.4275547220221085
 31
0.0
  0
LINE
  5
11995
  8
0
 10
3445.8347426375198665
 20
209.5435546939187077
 30
0.0
 11
3445.8347425530541841
 21
209.4275546939186938
 31
0.0
  0
LINE
  5
11996
  8
0
 10
3445.817624274019181
 20
209.5435547063833894
 30
0.0
 11
3445.8176241895548628
 21
209.4275547063834892
 31
0.0
  0
LINE
  5
11997
  8
0
 10
3445.8560043710199352
 20
209.5435546784370047
 30
0.0
 11
3445.856004286553798
 21
209.4275546784369908
 31
0.0
  0
LINE
  5
11998
  8
0
 10
3445.8390056214198012
 20
209.5435546908146023
 30
0.0
 11
3445.8390055369541187
 21
209.4275546908145884
 31
0.0
  0
LINE
  5
11999
  8
0
 10
3445.8770633002200157
 20
209.5435546631028956
 30
0.0
 11
3445.877063215754788
 21
209.4275546631029101
 31
0.0
  0
LINE
  5
1199A
  8
0
 10
3445.860231543019836
 20
209.5435546753589904
 30
0.0
 11
3445.8602314585541535
 21
209.4275546753590049
 31
0.0
  0
LINE
  5
1199B
  8
0
 10
3445.8978607300200565
 20
209.5435546479592119
 30
0.0
 11
3445.8978606455548288
 21
209.4275546479593118
 31
0.0
  0
LINE
  5
1199C
  8
0
 10
3445.8812428784199255
 20
209.5435546600594989
 30
0.0
 11
3445.8812427939537884
 21
209.4275546600595987
 31
0.0
  0
LINE
  5
1199D
  8
0
 10
3445.9183386942199832
 20
209.5435546330481884
 30
0.0
 11
3445.918338609753846
 21
209.427554633048203
 31
0.0
  0
LINE
  5
1199E
  8
0
 10
3445.901981065219843
 20
209.5435546449589879
 30
0.0
 11
3445.9019809807541606
 21
209.4275546449590877
 31
0.0
  0
LINE
  5
1199F
  8
0
 10
3445.9384401171200807
 20
209.543554618411406
 30
0.0
 11
3445.9384400326539435
 21
209.4275546184113921
 31
0.0
  0
LINE
  5
119A0
  8
0
 10
3445.922388302320087
 20
209.5435546300994929
 30
0.0
 11
3445.9223882178539498
 21
209.4275546300995074
 31
0.0
  0
LINE
  5
119A1
  8
0
 10
3445.9581089725202219
 20
209.5435546040895076
 30
0.0
 11
3445.9581088880540847
 21
209.4275546040894938
 31
0.0
  0
LINE
  5
119A2
  8
0
 10
3445.942407711119813
 20
209.5435546155223108
 30
0.0
 11
3445.9424076266550401
 21
209.4275546155224106
 31
0.0
  0
LINE
  5
119A3
  8
0
 10
3445.977290439619992
 20
209.5435545901225112
 30
0.0
 11
3445.977290355155219
 21
209.4275545901224973
 31
0.0
  0
LINE
  5
119A4
  8
0
 10
3445.9619834940199326
 20
209.5435546012681982
 30
0.0
 11
3445.9619834095537954
 21
209.427554601268298
 31
0.0
  0
LINE
  5
119A5
  8
0
 10
3445.9810610896201979
 20
209.5435545873768888
 30
0.0
 11
3445.9810610051540607
 21
209.4275545873769033
 31
0.0
  0
LINE
  5
119A6
  8
0
 10
3445.9959310564190673
 20
209.5435545765492975
 30
0.0
 11
3445.9959309719552039
 21
209.4275545765493121
 31
0.0
  0
LINE
  5
119A7
  8
0
 10
3445.9995873254201797
 20
209.5435545738870076
 30
0.0
 11
3445.999587240954952
 21
209.4275545738869937
 31
0.0
  0
LINE
  5
119A8
  8
0
 10
3446.0139788680198762
 20
209.5435545634078096
 30
0.0
 11
3446.0139787835541938
 21
209.4275545634077957
 31
0.0
  0
LINE
  5
119A9
  8
0
 10
3446.0175105654197978
 20
209.5435545608362133
 30
0.0
 11
3446.0175104809550248
 21
209.4275545608361995
 31
0.0
  0
LINE
  5
119AA
  8
0
 10
3446.0313835720189672
 20
209.5435545507345125
 30
0.0
 11
3446.0313834875541943
 21
209.4275545507346123
 31
0.0
  0
LINE
  5
119AB
  8
0
 10
3446.034780854219207
 20
209.5435545482608006
 30
0.0
 11
3446.0347807697539793
 21
209.4275545482607868
 31
0.0
  0
LINE
  5
119AC
  8
0
 10
3446.0480966583199915
 20
209.543554538564905
 30
0.0
 11
3446.0480965738552186
 21
209.4275545385648911
 31
0.0
  0
LINE
  5
119AD
  8
0
 10
3446.0513500566189578
 20
209.5435545361958987
 30
0.0
 11
3446.0513499721550943
 21
209.4275545361959985
 31
0.0
  0
LINE
  5
119AE
  8
0
 10
3446.0640715446202194
 20
209.5435545269328088
 30
0.0
 11
3446.0640714601540822
 21
209.4275545269327949
 31
0.0
  0
LINE
  5
119AF
  8
0
 10
3446.0671719912202207
 20
209.5435545246751872
 30
0.0
 11
3446.0671719067540835
 21
209.4275545246752017
 31
0.0
  0
LINE
  5
119B0
  8
0
 10
3446.0792637061199457
 20
209.5435545158705963
 30
0.0
 11
3446.0792636216551728
 21
209.4275545158706109
 31
0.0
  0
LINE
  5
119B1
  8
0
 10
3446.0822025593201943
 20
209.5435545137306974
 30
0.0
 11
3446.0822024748549666
 21
209.427554513730712
 31
0.0
  0
LINE
  5
119B2
  8
0
 10
3446.0936307993201808
 20
209.5435545054091904
 30
0.0
 11
3446.0936307148540436
 21
209.4275545054092049
 31
0.0
  0
LINE
  5
119B3
  8
0
 10
3446.0963998682200327
 20
209.5435545033928975
 30
0.0
 11
3446.096399783754805
 21
209.4275545033929973
 31
0.0
  0
LINE
  5
119B4
  8
0
 10
3446.1071327807198941
 20
209.5435544955776948
 30
0.0
 11
3446.1071326962551211
 21
209.4275544955777093
 31
0.0
  0
LINE
  5
119B5
  8
0
 10
3446.1097243473200251
 20
209.5435544936906922
 30
0.0
 11
3446.1097242628547974
 21
209.4275544936907067
 31
0.0
  0
LINE
  5
119B6
  8
0
 10
3446.1197320178198424
 20
209.5435544864035933
 30
0.0
 11
3446.11973193335416
 21
209.4275544864036078
 31
0.0
  0
LINE
  5
119B7
  8
0
 10
3446.1221388590201968
 20
209.5435544846511107
 30
0.0
 11
3446.1221387745540596
 21
209.4275544846510968
 31
0.0
  0
LINE
  5
119B8
  8
0
 10
3446.1313933943201846
 20
209.5435544779124086
 30
0.0
 11
3446.1313933098549569
 21
209.4275544779123948
 31
0.0
  0
LINE
  5
119B9
  8
0
 10
3446.1336088017151269
 20
209.5435544762991924
 30
0.0
 11
3446.1336087172498992
 21
209.4275544762992922
 31
0.0
  0
ARC
  5
119BA
  8
0
 10
3446.1254954403980264
 20
209.5129682203001948
 30
0.0
 40
0.0347952945491887
 50
61.5260642671250366
 51
72.5774704846090231
  0
ARC
  5
119BB
  8
0
 10
3446.1330695628048488
 20
209.5371040116980907
 30
0.0
 40
0.0094989755158781
 50
72.5774704846085399
 51
82.143703691417457
  0
ARC
  5
119BC
  8
0
 10
3446.1336864008871999
 20
209.5415743683018093
 30
0.0
 40
0.0049862626529154
 50
82.143703691417457
 51
99.0876041888423345
  0
ARC
  5
119BD
  8
0
 10
3446.1330153639551099
 20
209.5457696035524862
 30
0.0
 40
0.0007376994400582
 50
99.0876041888423345
 51
179.5123143149222926
  0
ARC
  5
119BE
  8
0
 10
3446.1335323285129562
 20
209.5457652031882105
 30
0.0
 40
0.0012546827260609
 50
179.512314314906007
 51
208.541103791885007
  0
ARC
  5
119BF
  8
0
 10
3446.1374829621609024
 20
209.5476252875405123
 30
0.0
 40
0.005619663983139
 50
205.9553093152863141
 51
226.4178729976189004
  0
ARC
  5
119C0
  8
0
 10
3446.1136365427860255
 20
209.5102266734643877
 30
0.0
 40
0.0377630550368088
 50
61.9515803591365994
 51
69.8098885405770631
  0
ARC
  5
119C1
  8
0
 10
3446.1214070349587928
 20
209.5313575058694084
 30
0.0
 40
0.015248778971537
 50
69.8098885405770631
 51
78.5491950844977964
  0
ARC
  5
119C2
  8
0
 10
3446.1207436545892051
 20
209.5280824962781878
 30
0.0
 40
0.018590299783788
 50
78.5491950844977964
 51
84.1860848356533609
  0
ARC
  5
119C3
  8
0
 10
3446.1224278348699954
 20
209.5446229854532021
 30
0.0
 40
0.0019642886755618
 50
84.1860848356796083
 51
114.5897291659372002
  0
ARC
  5
119C4
  8
0
 10
3446.1220050319411712
 20
209.5455469046864891
 30
0.0
 40
0.0009482231919478
 50
114.5897291659122033
 51
176.3081488761239086
  0
ARC
  5
119C5
  8
0
 10
3446.1223978442581029
 20
209.5455215587541034
 30
0.0
 40
0.0013418523734601
 50
176.3081488761449975
 51
216.2748144258100069
  0
ARC
  5
119C6
  8
0
 10
3446.0944220993619638
 20
209.5249902579409138
 30
0.0
 40
0.0333593956672629
 50
33.8135207550274899
 51
36.2748144258100211
  0
ARC
  5
119C7
  8
0
 10
3446.1031036092322211
 20
209.512428160104804
 30
0.0
 40
0.0352895474755028
 50
61.8878288354001
 51
71.0278225072263183
  0
ARC
  5
119C8
  8
0
 10
3446.1090651273589174
 20
209.5297690160386992
 30
0.0
 40
0.0169525634568987
 50
71.0278225072263183
 51
77.921081431271574
  0
ARC
  5
119C9
  8
0
 10
3446.1103721927370316
 20
209.5358768951128923
 30
0.0
 40
0.0107063960969397
 50
77.921081431271574
 51
88.0638256930533174
  0
ARC
  5
119CA
  8
0
 10
3446.1106293693110274
 20
209.5434844348395131
 30
0.0
 40
0.0030945106221132
 50
88.0638256930533174
 51
110.860661868569693
  0
ARC
  5
119CB
  8
0
 10
3446.1099042357009239
 20
209.5453872912073905
 30
0.0
 40
0.0010581704957462
 50
110.860661868569693
 51
147.8577699314616041
  0
ARC
  5
119CC
  8
0
 10
3446.1097992551481184
 20
209.5454532532581027
 30
0.0
 40
0.0009341869943613
 50
147.8577699314600977
 51
188.1491186066463968
  0
ARC
  5
119CD
  8
0
 10
3446.1117038970619433
 20
209.5457259900350095
 30
0.0
 40
0.0028582572031774
 50
188.1491186066496084
 51
203.8553856746626991
  0
ARC
  5
119CE
  8
0
 10
3446.1129559462119687
 20
209.5462796558720981
 30
0.0
 40
0.0042272615621602
 50
203.8553856746553095
 51
220.1404673392270865
  0
ARC
  5
119CF
  8
0
 10
3446.0910031218168115
 20
209.5134336640761887
 30
0.0
 40
0.0341676804402762
 50
61.8310191158172415
 51
70.6402417792662192
  0
ARC
  5
119D0
  8
0
 10
3446.0959112263199131
 20
209.527402288972695
 30
0.0
 40
0.0193618717385687
 50
70.6402417792662192
 51
76.986750187925324
  0
ARC
  5
119D1
  8
0
 10
3446.0969922119279545
 20
209.5320796169532116
 30
0.0
 40
0.0145612543905806
 50
76.9867501878999434
 51
81.8775414785367133
  0
ARC
  5
119D2
  8
0
 10
3446.0978877446568731
 20
209.5383543252941081
 30
0.0
 40
0.0082229625360342
 50
81.8775414785109348
 51
89.7177845834071519
  0
ARC
  5
119D3
  8
0
 10
3446.0979076003868613
 20
209.5423854314960863
 30
0.0
 40
0.0041918074333547
 50
89.7177845834071519
 51
109.3669785723162988
  0
ARC
  5
119D4
  8
0
 10
3446.0968514137762213
 20
209.5453901621528985
 30
0.0
 40
0.0010068527276661
 50
109.3669785722895966
 51
131.2515063176377907
  0
ARC
  5
119D5
  8
0
 10
3446.09717220065113
 20
209.545024394225095
 30
0.0
 40
0.001493361100339
 50
131.2515063176346075
 51
155.0449788157789897
  0
ARC
  5
119D6
  8
0
 10
3446.0965549498960172
 20
209.5453116332718082
 30
0.0
 40
0.0008125492576491
 50
155.044978815783395
 51
185.7984821057318072
  0
ARC
  5
119D7
  8
0
 10
3446.1017668884110208
 20
209.5458409031799079
 30
0.0
 40
0.0060512924011586
 50
185.7984821057333988
 51
190.4151389711759066
  0
ARC
  5
119D8
  8
0
 10
3446.0971422175398402
 20
209.5449908540668105
 30
0.0
 40
0.0013491477666477
 50
190.4151389712143043
 51
208.4180106030534887
  0
ARC
  5
119D9
  8
0
 10
3446.124652113142929
 20
209.5598765767678913
 30
0.0
 40
0.032628199805091
 50
208.4180106030534887
 51
210.0161689483929877
  0
ARC
  5
119DA
  8
0
 10
3446.0783328715019707
 20
209.5152337136105132
 30
0.0
 40
0.0321884116357169
 50
61.6235919795591229
 51
70.7857135410827283
  0
ARC
  5
119DB
  8
0
 10
3446.0824091113750001
 20
209.5269296890799069
 30
0.0
 40
0.0198024690522822
 50
70.7857135410827283
 51
80.3554586733874459
  0
ARC
  5
119DC
  8
0
 10
3446.0842459191680973
 20
209.5377384415031941
 30
0.0
 40
0.0088387565505889
 50
80.3554586733874459
 51
90.0028188263461999
  0
ARC
  5
119DD
  8
0
 10
3446.0842457272901811
 20
209.5416385696740065
 30
0.0
 40
0.0049386283750272
 50
90.0028188263461999
 51
109.2546111061282943
  0
ARC
  5
119DE
  8
0
 10
3446.0830526200797976
 20
209.5450542208546949
 30
0.0
 40
0.0013205933001258
 50
109.2546111061289054
 51
146.1830117088508132
  0
ARC
  5
119DF
  8
0
 10
3446.0830929110829857
 20
209.5450272310754087
 30
0.0
 40
0.001369088796074
 50
146.1830117088775012
 51
180.296241719959113
  0
ARC
  5
119E0
  8
0
 10
3446.0842467260940793
 20
209.545033196806088
 30
0.0
 40
0.0025229192291422
 50
180.2962417199574929
 51
215.8807412639243068
  0
ARC
  5
119E1
  8
0
 10
3446.0643953432968374
 20
209.5162461191538057
 30
0.0
 40
0.0310936769178411
 50
61.433422083968658
 51
69.3596462876528932
  0
ARC
  5
119E2
  8
0
 10
3446.0669899948770762
 20
209.5231343434130054
 30
0.0
 40
0.0237329806009872
 50
69.3596462876528932
 51
75.9044807506158747
  0
ARC
  5
119E3
  8
0
 10
3446.0689944654618557
 20
209.5311171174400897
 30
0.0
 40
0.0155023923177545
 50
75.9044807506158747
 51
83.3942332205198653
  0
ARC
  5
119E4
  8
0
 10
3446.0697439646160092
 20
209.5375891439927045
 30
0.0
 40
0.008987112071898
 50
83.3942332205198653
 51
92.8387638895358549
  0
ARC
  5
119E5
  8
0
 10
3446.0695253260919344
 20
209.5419983914862883
 30
0.0
 40
0.0045724471623023
 50
92.8387638895098206
 51
111.2900238515704956
  0
ARC
  5
119E6
  8
0
 10
3446.0684620701299536
 20
209.5447269056568871
 30
0.0
 40
0.0016440853640266
 50
111.2900238515698987
 51
161.9040584104575089
  0
ARC
  5
119E7
  8
0
 10
3446.0680465131817982
 20
209.5448626980247866
 30
0.0
 40
0.0012069044594078
 50
161.9040584104668028
 51
183.0673503313082051
  0
LINE
  5
119E8
  8
0
 10
3446.066841337824826
 20
209.5447981168159117
 30
0.0
 11
3446.0671719912202207
 21
209.5435545246751872
 31
0.0
  0
ARC
  5
119E9
  8
0
 10
3446.0505573164750786
 20
209.5192223348034872
 30
0.0
 40
0.0278332523462287
 50
60.9519754866734331
 51
74.176044029290523
  0
ARC
  5
119EA
  8
0
 10
3446.0537189969218161
 20
209.5303776718849917
 30
0.0
 40
0.0162385221359641
 50
74.176044029290523
 51
81.9231890556128803
  0
ARC
  5
119EB
  8
0
 10
3446.0543289663792166
 20
209.5346760109495108
 30
0.0
 40
0.0118971189697073
 50
81.9231890556386873
 51
91.3522202280744722
  0
ARC
  5
119EC
  8
0
 10
3446.054170604115825
 20
209.5413848327939093
 30
0.0
 40
0.005186428308817
 50
91.3522202280484379
 51
108.275147058511493
  0
ARC
  5
119ED
  8
0
 10
3446.0532703391040741
 20
209.5441109487555877
 30
0.0
 40
0.0023155076673953
 50
108.2751470585109956
 51
145.8376662088965929
  0
ARC
  5
119EE
  8
0
 10
3446.0524115278008139
 20
209.5446937713460898
 30
0.0
 40
0.0012776064067446
 50
145.8376662089073079
 51
185.8257361390705
  0
LINE
  5
119EF
  8
0
 10
3446.0511405199549699
 20
209.5445640902485138
 30
0.0
 11
3446.0513500566189578
 21
209.5435545361958987
 31
0.0
  0
ARC
  5
119F0
  8
0
 10
3446.034802614623004
 20
209.5198794159649083
 30
0.0
 40
0.0271522195765144
 50
60.684938728294668
 51
71.5780235029029086
  0
ARC
  5
119F1
  8
0
 10
3446.036950181201064
 20
209.5263269813056013
 30
0.0
 40
0.0203564016690981
 50
71.578023502903406
 51
81.2366641530068136
  0
ARC
  5
119F2
  8
0
 10
3446.0383795604398074
 20
209.535599452536303
 30
0.0
 40
0.0109744057337537
 50
81.2366641529807936
 51
94.5633828900800637
  0
ARC
  5
119F3
  8
0
 10
3446.037875921081195
 20
209.5419095447859092
 30
0.0
 40
0.0046442464306628
 50
94.5633828900801916
 51
120.5785960059598949
  0
ARC
  5
119F4
  8
0
 10
3446.0363655958039999
 20
209.5444655441270925
 30
0.0
 40
0.0016753720522744
 50
120.5785960059598949
 51
166.1926851571701889
  0
ARC
  5
119F5
  8
0
 10
3446.0372375057918362
 20
209.5442512644586941
 30
0.0
 40
0.0025732266080027
 50
166.1926851571734005
 51
178.4971007030979138
  0
ARC
  5
119F6
  8
0
 10
3446.0368656743780775
 20
209.5442610200354068
 30
0.0
 40
0.0022012672389133
 50
178.4971007030896999
 51
198.719701014101787
  0
ARC
  5
119F7
  8
0
 10
3446.0187594560911748
 20
209.5215030366663029
 30
0.0
 40
0.0254093993565374
 50
60.2095982546032218
 51
73.202741106057573
  0
ARC
  5
119F8
  8
0
 10
3446.0207050213912225
 20
209.5279481741945062
 30
0.0
 40
0.0186770132942186
 50
73.202741106032164
 51
84.1148648662024385
  0
ARC
  5
119F9
  8
0
 10
3446.0216079780570908
 20
209.5367081318651117
 30
0.0
 40
0.009870641218824
 50
84.1148648662024385
 51
98.5116749485509757
  0
ARC
  5
119FA
  8
0
 10
3446.0208305287169424
 20
209.5419029256979115
 30
0.0
 40
0.0046179932731646
 50
98.5116749485512031
 51
119.2112598735282063
  0
ARC
  5
119FB
  8
0
 10
3446.0196807061820437
 20
209.5439593418061008
 30
0.0
 40
0.0022619501768878
 50
119.2112598735022999
 51
151.4122095396510019
  0
ARC
  5
119FC
  8
0
 10
3446.0194867066370534
 20
209.5440650601684069
 30
0.0
 40
0.0020410153545937
 50
151.4122095396596137
 51
194.4846298557044975
  0
ARC
  5
119FD
  8
0
 10
3446.0018674745529097
 20
209.522847652517612
 30
0.0
 40
0.0239887892632721
 50
59.6767970639538419
 51
69.2617754607005054
  0
ARC
  5
119FE
  8
0
 10
3446.0022463782529485
 20
209.5238483724635046
 30
0.0
 40
0.0229187385990698
 50
69.2617754607005054
 51
75.9928764941960679
  0
ARC
  5
119FF
  8
0
 10
3446.0035458696070236
 20
209.5290575884422992
 30
0.0
 40
0.017549883144594
 50
75.9928764941964658
 51
83.1719497708887729
  0
ARC
  5
11A00
  8
0
 10
3446.0040742098990449
 20
209.5334700087340991
 30
0.0
 40
0.013105943867789
 50
83.1719497708887729
 51
91.5189715791149041
  0
ARC
  5
11A01
  8
0
 10
3446.003944474913169
 20
209.538362480491287
 30
0.0
 40
0.008211752304189
 50
91.5189715791409242
 51
102.5388302691949036
  0
ARC
  5
11A02
  8
0
 10
3446.0032479485312251
 20
209.5414942621295893
 30
0.0
 40
0.0050034497573144
 50
102.5388302691956
 51
114.1700411595065958
  0
ARC
  5
11A03
  8
0
 10
3446.0026158763930653
 20
209.542902655530213
 30
0.0
 40
0.0034597246656573
 50
114.1700411595065958
 51
131.7412304731118979
  0
ARC
  5
11A04
  8
0
 10
3446.00176088399121
 20
209.5438608887697001
 30
0.0
 40
0.0021755039104962
 50
131.7412304731140864
 51
159.0785368970655043
  0
ARC
  5
11A05
  8
0
 10
3446.0019174657882104
 20
209.5438010287768975
 30
0.0
 40
0.0023431376719778
 50
159.0785368970684885
 51
186.0376274601879061
  0
ARC
  5
11A06
  8
0
 10
3445.9845432231909399
 20
209.524618183623403
 30
0.0
 40
0.0220968260773642
 50
58.9784399198722227
 51
68.8910139927595679
  0
ARC
  5
11A07
  8
0
 10
3445.9844261992438987
 20
209.5243150505386893
 30
0.0
 40
0.0224217634115457
 50
68.8910139927595679
 51
77.376843102737439
  0
ARC
  5
11A08
  8
0
 10
3445.9858104346139953
 20
209.5304960281519016
 30
0.0
 40
0.0160876816458151
 50
77.3768431027377943
 51
87.092899712234825
  0
ARC
  5
11A09
  8
0
 10
3445.9860493120841056
 20
209.5352000020405967
 30
0.0
 40
0.0113776463177867
 50
87.092899712260845
 51
96.742720720490027
  0
ARC
  5
11A0A
  8
0
 10
3445.9855055104530948
 20
209.5397995651553913
 30
0.0
 40
0.006746048207125
 50
96.742720720490027
 51
113.0309502702396998
  0
ARC
  5
11A0B
  8
0
 10
3445.9842153072218025
 20
209.5428345342604928
 30
0.0
 40
0.0034482213698301
 50
113.0309502702384066
 51
134.1163384168042114
  0
ARC
  5
11A0C
  8
0
 10
3445.9835421260440853
 20
209.5435288070848117
 30
0.0
 40
0.0024811703621874
 50
134.1163384168019093
 51
179.4046646158070928
  0
ARC
  5
11A0D
  8
0
 10
3445.9663102227059426
 20
209.5257593328792893
 30
0.0
 40
0.0209101971255951
 50
58.3241474929516173
 51
71.0262870818221899
  0
ARC
  5
11A0E
  8
0
 10
3445.9661833431600826
 20
209.5253902979962106
 30
0.0
 40
0.0213004344429306
 50
71.0262870818221899
 51
77.7446141737313354
  0
ARC
  5
11A0F
  8
0
 10
3445.9671522263788574
 20
209.5298506813799122
 30
0.0
 40
0.016736033647745
 50
77.7446141737313354
 51
85.2301247627668062
  0
ARC
  5
11A10
  8
0
 10
3445.9674874365141477
 20
209.5338679218181994
 30
0.0
 40
0.0127048320186649
 50
85.2301247627668062
 51
99.2305609167307523
  0
ARC
  5
11A11
  8
0
 10
3445.966371157111098
 20
209.5407368226439928
 30
0.0
 40
0.0057458178456836
 50
99.2305609167307523
 51
120.9551953897591972
  0
ARC
  5
11A12
  8
0
 10
3445.9649748261681452
 20
209.5430648292733053
 30
0.0
 40
0.003031162256614
 50
120.9551953897839951
 51
170.7014443648284896
  0
ARC
  5
11A13
  8
0
 10
3445.9476103112519922
 20
209.527058356022394
 30
0.0
 40
0.0195537231416355
 50
57.5262148472439705
 51
72.8316633903191928
  0
ARC
  5
11A14
  8
0
 10
3445.9473912611301785
 20
209.5263493325647062
 30
0.0
 40
0.0202958129070826
 50
72.8316633903191928
 51
80.9175546018478826
  0
ARC
  5
11A15
  8
0
 10
3445.9482454986909943
 20
209.5316929991082873
 30
0.0
 40
0.0148842979675445
 50
80.9175546018736185
 51
89.9985817612080155
  0
ARC
  5
11A16
  8
0
 10
3445.9482455740671867
 20
209.5347381529101085
 30
0.0
 40
0.0118391441647629
 50
89.9985817612080155
 51
100.7063728181826008
  0
ARC
  5
11A17
  8
0
 10
3445.947284939697056
 20
209.5398190689261924
 30
0.0
 40
0.0066682133050211
 50
100.7063728181826008
 51
117.4772704308014966
  0
ARC
  5
11A18
  8
0
 10
3445.94600301820401
 20
209.5422840041867119
 30
0.0
 40
0.0038898633360813
 50
117.4772704308008002
 51
147.295690540140896
  0
ARC
  5
11A19
  8
0
 10
3445.944607648550118
 20
209.5431799637989911
 30
0.0
 40
0.002231611213726
 50
147.2956905401171923
 51
170.3351893655103027
  0
ARC
  5
11A1A
  8
0
 10
3445.9282960921009362
 20
209.5281063458974984
 30
0.0
 40
0.0184810813332126
 50
56.7093110243726883
 51
76.7192497464625518
  0
ARC
  5
11A1B
  8
0
 10
3445.9285053340458944
 20
209.5289928318406965
 30
0.0
 40
0.01757023583639
 50
76.7192497464368159
 51
92.6660125587616648
  0
ARC
  5
11A1C
  8
0
 10
3445.9280884510130818
 20
209.5379456769607032
 30
0.0
 40
0.0086076900370704
 50
92.6660125587617358
 51
113.8589496346367014
  0
ARC
  5
11A1D
  8
0
 10
3445.9265085541619555
 20
209.5415178242116951
 30
0.0
 40
0.0047017573641721
 50
113.858949634635394
 51
139.199764811101204
  0
ARC
  5
11A1E
  8
0
 10
3445.9250336041218361
 20
209.5427909774992941
 30
0.0
 40
0.0027533228866491
 50
139.1997648110962871
 51
163.8974914520375989
  0
ARC
  5
11A1F
  8
0
 10
3445.9089064507788862
 20
209.5298408158861037
 30
0.0
 40
0.0166443983811295
 50
55.4801470813167725
 51
73.2369153383870923
  0
ARC
  5
11A20
  8
0
 10
3445.9075430012208017
 20
209.5253143150349047
 30
0.0
 40
0.0213717871586837
 50
73.2369153383870923
 51
78.9936116835820599
  0
ARC
  5
11A21
  8
0
 10
3445.9086714650329668
 20
209.5311163042098883
 30
0.0
 40
0.0154610757834628
 50
78.9936116835817614
 51
90.1515377558746849
  0
ARC
  5
11A22
  8
0
 10
3445.9086650129597729
 20
209.533555799828008
 30
0.0
 40
0.0130215716329693
 50
90.1515377558746849
 51
103.8682940838638018
  0
ARC
  5
11A23
  8
0
 10
3445.9071194733860466
 20
209.5398158887792874
 30
0.0
 40
0.0065735171780647
 50
103.8682940838634039
 51
126.6860395739354033
  0
ARC
  5
11A24
  8
0
 10
3445.9054473548007991
 20
209.5420603490705105
 30
0.0
 40
0.0037746633839809
 50
126.686039573933499
 51
156.6794263684234068
  0
ARC
  5
11A25
  8
0
 10
3445.8892733949560352
 20
209.5316984240560885
 30
0.0
 40
0.0146394114891634
 50
54.0845912358886522
 51
67.9259108795785806
  0
ARC
  5
11A26
  8
0
 10
3445.8876720265661788
 20
209.5277496072592953
 30
0.0
 40
0.0189005773877453
 50
67.9259108795785806
 51
75.1741387616635279
  0
ARC
  5
11A27
  8
0
 10
3445.8882604687769344
 20
209.5299727082183949
 30
0.0
 40
0.016600916084245
 50
75.17413876166394
 51
83.9742655906519104
  0
ARC
  5
11A28
  8
0
 10
3445.8882982228610672
 20
209.5303303689588006
 30
0.0
 40
0.0162412682341912
 50
83.9742655906520667
 51
95.3024416103678078
  0
ARC
  5
11A29
  8
0
 10
3445.8877463195949531
 20
209.5362769503454956
 30
0.0
 40
0.0102691306432069
 50
95.3024416103678078
 51
109.4342608352169037
  0
ARC
  5
11A2A
  8
0
 10
3445.8867549001361112
 20
209.5390868743716908
 30
0.0
 40
0.0072894350924708
 50
109.4342608352158948
 51
125.6251908883985067
  0
ARC
  5
11A2B
  8
0
 10
3445.8849362562518763
 20
209.5416247711137032
 30
0.0
 40
0.0041671946390399
 50
125.6251908883985067
 51
152.4117255603881063
  0
ARC
  5
11A2C
  8
0
 10
3445.8676962717440801
 20
209.5305532627737932
 30
0.0
 40
0.0160242826046451
 50
54.2286438796389021
 51
90.2787185637761667
  0
ARC
  5
11A2D
  8
0
 10
3445.8676864604622097
 20
209.5325701382849104
 30
0.0
 40
0.0140073832297843
 50
90.2787185637761667
 51
107.2625747690477027
  0
ARC
  5
11A2E
  8
0
 10
3445.8654164896738621
 20
209.5398749775831106
 30
0.0
 40
0.006357975112459
 50
107.2625747690477027
 51
144.6371102903964925
  0
ARC
  5
11A2F
  8
0
 10
3445.8469256047210365
 20
209.5314381102699883
 30
0.0
 40
0.0151405158978405
 50
53.1563192426682818
 51
90.737773399118467
  0
ARC
  5
11A30
  8
0
 10
3445.8469299144949218
 20
209.5311034299693063
 30
0.0
 40
0.0154752239464616
 50
90.737773399118467
 51
106.6299487180254033
  0
ARC
  5
11A31
  8
0
 10
3445.8445032770619036
 20
209.5392279097222001
 30
0.0
 40
0.0069960883486112
 50
106.6299487180249059
 51
141.7964428678318995
  0
ARC
  5
11A32
  8
0
 10
3445.826183448079064
 20
209.5329920364314091
 30
0.0
 40
0.0135951997810072
 50
50.981272132128943
 51
129.0186444279952127
  0
ARC
  5
11A33
  8
0
 10
3445.8048832147710527
 20
209.5332698629385959
 30
0.0
 40
0.0133135508937147
 50
50.5797914095138026
 51
91.7219455031608959
  0
ARC
  5
11A34
  8
0
 10
3445.8049094998459623
 20
209.5323955202740933
 30
0.0
 40
0.014188288568674
 50
91.7219455031608959
 51
128.1396389689134878
  0
ARC
  5
11A35
  8
0
 10
3445.8043533929399018
 20
209.4331436707360865
 30
0.0
 40
0.0105804834890097
 50
270.702203791120894
 51
328.1138522377710274
  0
ARC
  5
11A36
  8
0
 10
3445.8044201222251104
 20
209.4319160938279083
 30
0.0
 40
0.0093523232769752
 50
207.7970439539064103
 51
270.3851498964139068
  0
ARC
  5
11A37
  8
0
 10
3446.1196203662739208
 20
209.4527828386474937
 30
0.0
 40
0.0337801708321864
 50
300.3414268708179975
 51
311.6826512416328114
  0
ARC
  5
11A38
  8
0
 10
3446.1317761387308565
 20
209.4320152126043979
 30
0.0
 40
0.0097165656261761
 50
289.3929233371096075
 51
300.3414268708405075
  0
ARC
  5
11A39
  8
0
 10
3446.1332784280070882
 20
209.4277475486410935
 30
0.0
 40
0.0051922061385447
 50
273.2595128372757927
 51
289.392923337135926
  0
ARC
  5
11A3A
  8
0
 10
3446.1334962689697932
 20
209.4239224678399864
 30
0.0
 40
0.0013609272633807
 50
228.8231293372633957
 51
273.2595128372757927
  0
ARC
  5
11A3B
  8
0
 10
3446.1332681501157822
 20
209.4236616774292088
 30
0.0
 40
0.0010144451579509
 50
167.5448006841932056
 51
228.8231293372624009
  0
ARC
  5
11A3C
  8
0
 10
3446.1847898002079091
 20
209.4122818610431978
 30
0.0
 40
0.0537778856181154
 50
165.4551335722375995
 51
167.5448006841947119
  0
ARC
  5
11A3D
  8
0
 10
3446.1374174869288254
 20
209.4245727590565878
 30
0.0
 40
0.0048370821973156
 50
141.9441800018624917
 51
165.4551335722391912
  0
ARC
  5
11A3E
  8
0
 10
3446.1084616868120065
 20
209.4535317720205114
 30
0.0
 40
0.0346508173542458
 50
302.2664495917613863
 51
311.4366609063487203
  0
ARC
  5
11A3F
  8
0
 10
3446.1190356411229914
 20
209.4367837252875972
 30
0.0
 40
0.0148441119461173
 50
290.081132199453009
 51
302.2664495917613863
  0
ARC
  5
11A40
  8
0
 10
3446.1227214905329674
 20
209.4267013818387113
 30
0.0
 40
0.004109162700816
 50
258.5750929220054104
 51
290.081132199453009
  0
ARC
  5
11A41
  8
0
 10
3446.1220534299459359
 20
209.4233955879770122
 30
0.0
 40
0.000736540871372
 50
215.1471699045802097
 51
258.5750929220050125
  0
ARC
  5
11A42
  8
0
 10
3446.123214697855019
 20
209.4242131698269986
 30
0.0
 40
0.002156746222388
 50
181.4604945028029022
 51
215.1471699045762023
  0
ARC
  5
11A43
  8
0
 10
3446.1247240746979514
 20
209.4242516528387057
 30
0.0
 40
0.00366661356561
 50
158.9901680238610027
 51
181.4604945028061138
  0
ARC
  5
11A44
  8
0
 10
3446.1527748878452257
 20
209.413478431343492
 30
0.0
 40
0.0337150814066393
 50
155.3231348911913017
 51
158.9901680238610027
  0
ARC
  5
11A45
  8
0
 10
3446.0984747799598154
 20
209.4515476271782006
 30
0.0
 40
0.0320552238365474
 50
300.8695662790112237
 51
311.53991379594828
  0
ARC
  5
11A46
  8
0
 10
3446.1080439622642189
 20
209.4355393982040994
 30
0.0
 40
0.0134049518585907
 50
291.7461940333486154
 51
300.8695662790120195
  0
ARC
  5
11A47
  8
0
 10
3446.1082814591118222
 20
209.4349439927432002
 30
0.0
 40
0.0127639273539835
 50
289.2402640533787803
 51
291.7461940333237749
  0
LINE
  5
11A48
  8
0
 10
3446.1124875588598115
 20
209.4228929941785964
 30
0.0
 11
3446.1107337871208074
 21
209.4225637588556026
 31
0.0
  0
ARC
  5
11A49
  8
0
 10
3446.1105849867039979
 20
209.4243519425837121
 30
0.0
 40
0.001794364123949
 50
222.4851407959029927
 51
274.7568036242914218
  0
ARC
  5
11A4A
  8
0
 10
3446.1101955274189095
 20
209.4239952546678012
 30
0.0
 40
0.001266249738887
 50
188.882637938091591
 51
222.4851407959054086
  0
ARC
  5
11A4B
  8
0
 10
3446.1136275284347903
 20
209.4245316262498022
 30
0.0
 40
0.0047399114163592
 50
172.8835657001214088
 51
188.882637938091591
  0
ARC
  5
11A4C
  8
0
 10
3446.1140555611168566
 20
209.4244781872779981
 30
0.0
 40
0.0051712670705723
 50
158.3752984391283007
 51
172.8835657001214088
  0
ARC
  5
11A4D
  8
0
 10
3446.176001618394821
 20
209.3999211100168907
 30
0.0
 40
0.0718073237954048
 50
157.3670108823440899
 51
158.3752984391283007
  0
ARC
  5
11A4E
  8
0
 10
3446.0866492543850654
 20
209.450598257442806
 30
0.0
 40
0.0308315804335876
 50
301.1062640613778854
 51
311.6336754302748204
  0
ARC
  5
11A4F
  8
0
 10
3446.0950155699770221
 20
209.4367326852081987
 30
0.0
 40
0.0146374663798556
 50
289.2600816855587027
 51
301.1062640613769759
  0
ARC
  5
11A50
  8
0
 10
3446.0977644752388187
 20
209.4288654771499978
 30
0.0
 40
0.0063038331524542
 50
271.4874534726843081
 51
289.2600816855587027
  0
ARC
  5
11A51
  8
0
 10
3446.0978653195638799
 20
209.4249818893785005
 30
0.0
 40
0.0024189362997177
 50
229.6277908430884906
 51
271.4874534727102855
  0
ARC
  5
11A52
  8
0
 10
3446.0980654986419722
 20
209.4246471032963939
 30
0.0
 40
0.0023230966064396
 50
181.6411922379674877
 51
220.4791227324899126
  0
ARC
  5
11A53
  8
0
 10
3446.101951803438169
 20
209.424652693609687
 30
0.0
 40
0.0062088673535414
 50
161.3998872726428999
 51
180.6655837263992055
  0
ARC
  5
11A54
  8
0
 10
3446.1174393561750549
 20
209.4194405223429101
 30
0.0
 40
0.0225499511332104
 50
158.9107010287611956
 51
161.3998872726428999
  0
ARC
  5
11A55
  8
0
 10
3446.0748591547749129
 20
209.4483983684957025
 30
0.0
 40
0.0280506345057626
 50
299.2477914338534219
 51
312.0055578572312811
  0
ARC
  5
11A56
  8
0
 10
3446.0823160481359082
 20
209.4350819232892889
 30
0.0
 40
0.0127884927313659
 50
289.1110472165302099
 51
299.2477914338526261
  0
ARC
  5
11A57
  8
0
 10
3446.0833932834480038
 20
209.4319729920821089
 30
0.0
 40
0.0094982208325683
 50
280.845862239736789
 51
289.111047216529073
  0
ARC
  5
11A58
  8
0
 10
3446.0842915758707932
 20
209.4272843712118117
 30
0.0
 40
0.0047243235838848
 50
263.8424170846644188
 51
280.8458622397370732
  0
ARC
  5
11A59
  8
0
 10
3446.0840512850832056
 20
209.4250571007532074
 30
0.0
 40
0.0024841286462319
 50
227.2575238322176006
 51
263.8424170846906236
  0
ARC
  5
11A5A
  8
0
 10
3446.0834100039000987
 20
209.4243631838926945
 30
0.0
 40
0.0015392677228656
 50
199.4219528445302956
 51
227.2575238322241944
  0
ARC
  5
11A5B
  8
0
 10
3446.0857954295388481
 20
209.4252042523249884
 30
0.0
 40
0.0040686256624496
 50
176.3277337640973883
 51
199.4219528445348999
  0
ARC
  5
11A5C
  8
0
 10
3446.0886155644311657
 20
209.425023253121509
 30
0.0
 40
0.0068945629441259
 50
158.4607410250276018
 51
176.3277337640990083
  0
ARC
  5
11A5D
  8
0
 10
3446.0605889565799771
 20
209.4481831800088969
 30
0.0
 40
0.0278259752706824
 50
301.241158578601528
 51
312.1538340622603869
  0
ARC
  5
11A5E
  8
0
 10
3446.0667081036540367
 20
209.4380956282213049
 30
0.0
 40
0.0160275574965715
 50
291.150000478358379
 51
301.2411585786006185
  0
ARC
  5
11A5F
  8
0
 10
3446.0693117719702059
 20
209.4313655568471972
 30
0.0
 40
0.0088113985874362
 50
272.6790340212335195
 51
291.1500004783578106
  0
ARC
  5
11A60
  8
0
 10
3446.069583931373927
 20
209.4255491994165084
 30
0.0
 40
0.0029886771874461
 50
227.8633368733939051
 51
272.6790340212334058
  0
ARC
  5
11A61
  8
0
 10
3446.0691588864988262
 20
209.4250793976214027
 30
0.0
 40
0.002355134077413
 50
169.7670164270116118
 51
227.8633368733995042
  0
ARC
  5
11A62
  8
0
 10
3446.0133923449998292
 20
209.4351465281546041
 30
0.0
 40
0.0543127957236291
 50
349.767016427013175
 51
351.964712587499605
  0
ARC
  5
11A63
  8
0
 10
3446.0469488591188565
 20
209.4460939574537122
 30
0.0
 40
0.025236757919071
 50
299.0939982642526047
 51
312.7248722118657724
  0
ARC
  5
11A64
  8
0
 10
3446.0524965080658149
 20
209.4361243421168979
 30
0.0
 40
0.0138275669391449
 50
286.8337416353052731
 51
299.0939982642526047
  0
ARC
  5
11A65
  8
0
 10
3446.0542959961971974
 20
209.4301768105036103
 30
0.0
 40
0.0076137685984564
 50
270.8084751642688275
 51
286.8337416353311937
  0
ARC
  5
11A66
  8
0
 10
3446.0543519626039597
 20
209.4262107936552013
 30
0.0
 40
0.0036473568850277
 50
229.4441031762752061
 51
270.8084751642688275
  0
ARC
  5
11A67
  8
0
 10
3446.053637373679976
 20
209.4253757684820982
 30
0.0
 40
0.0025483098566837
 50
168.4758523593860104
 51
229.4441031762970908
  0
ARC
  5
11A68
  8
0
 10
3446.0403237283599083
 20
209.4280903041108104
 30
0.0
 40
0.0110392526679215
 50
348.4758523593876021
 51
357.2181718265013046
  0
ARC
  5
11A69
  8
0
 10
3446.0314746837630082
 20
209.4453018419214914
 30
0.0
 40
0.0243157152201289
 50
299.9357423656944093
 51
313.1245297771051241
  0
ARC
  5
11A6A
  8
0
 10
3446.0361770623799202
 20
209.4371359471658991
 30
0.0
 40
0.0148926476823394
 50
290.9952576684731866
 51
299.9357423656717856
  0
ARC
  5
11A6B
  8
0
 10
3446.0374942087241834
 20
209.433703814567707
 30
0.0
 40
0.0112164528202325
 50
278.7164755207339226
 51
290.9952576684719929
  0
ARC
  5
11A6C
  8
0
 10
3446.0383745311669372
 20
209.4279619247162998
 30
0.0
 40
0.0054074712684568
 50
255.2497460052316001
 51
278.7164755207596727
  0
ARC
  5
11A6D
  8
0
 10
3446.037745095577975
 20
209.4255712039243065
 30
0.0
 40
0.0029352789081746
 50
223.4465533059791937
 51
255.2497460052312022
  0
ARC
  5
11A6E
  8
0
 10
3446.0381672648418316
 20
209.4259710798127969
 30
0.0
 40
0.0035167663229304
 50
174.7865699042372114
 51
223.4465533059803874
  0
ARC
  5
11A6F
  8
0
 10
3448.053691692036864
 20
209.2420676269942135
 30
0.0
 40
2.027413798432431
 50
174.7507016276913134
 51
174.7865699042372114
  0
ARC
  5
11A70
  8
0
 10
3446.0168386454588472
 20
209.4425007644184973
 30
0.0
 40
0.0208552567735871
 50
292.5949373484135094
 51
314.2202558493095808
  0
ARC
  5
11A71
  8
0
 10
3446.021409236116142
 20
209.4315178903862034
 30
0.0
 40
0.0089592985955136
 50
273.4229223224367047
 51
292.5949373484141915
  0
ARC
  5
11A72
  8
0
 10
3446.0216298757000004
 20
209.4278290325302976
 30
0.0
 40
0.0052638481348341
 50
239.7826140396086032
 51
273.4229223224367047
  0
ARC
  5
11A73
  8
0
 10
3446.0201096876689917
 20
209.4252189100961914
 30
0.0
 40
0.0022433000437462
 50
207.4226876127451078
 51
239.7826140395845016
  0
ARC
  5
11A74
  8
0
 10
3446.0237001186342241
 20
209.4270818168193102
 30
0.0
 40
0.0062882494830086
 50
189.2919789582433054
 51
207.4226876127422088
  0
ARC
  5
11A75
  8
0
 10
3446.0215341377897857
 20
209.4267669017924902
 30
0.0
 40
0.0041000269637458
 50
168.9240121603374121
 51
189.8362756355504075
  0
ARC
  5
11A76
  8
0
 10
3446.0006356983208207
 20
209.4407509124789044
 30
0.0
 40
0.0187665008019739
 50
287.8834197753320723
 51
315.3167843381526154
  0
ARC
  5
11A77
  8
0
 10
3446.0042145453758167
 20
209.4296596159946091
 30
0.0
 40
0.0071121023211587
 50
259.4938069030238807
 51
287.8834197753320723
  0
ARC
  5
11A78
  8
0
 10
3446.0036482235332187
 20
209.426605858932902
 30
0.0
 40
0.0040062767269446
 50
200.4575385131047085
 51
259.4938069030235965
  0
ARC
  5
11A79
  8
0
 10
3446.0048271923537868
 20
209.4270456617246907
 30
0.0
 40
0.0052646065618499
 50
174.4527435324644102
 51
200.4575385131032021
  0
ARC
  5
11A7A
  8
0
 10
3445.9824778375868846
 20
209.4407133102592127
 30
0.0
 40
0.0188185838245336
 50
291.7350192066526802
 51
315.6338234903873854
  0
ARC
  5
11A7B
  8
0
 10
3445.9859621742311901
 20
209.4319731124309101
 30
0.0
 40
0.0094094574074075
 50
270.3685299616536781
 51
291.7350192066522254
  0
ARC
  5
11A7C
  8
0
 10
3445.9859875131501212
 20
209.4280336957845918
 30
0.0
 40
0.0054699592701722
 50
228.9260734625383975
 51
270.3685299616536781
  0
ARC
  5
11A7D
  8
0
 10
3445.9850362360748477
 20
209.4269422241341942
 30
0.0
 40
0.0040221200398309
 50
171.2427254057126049
 51
228.9260734625383975
  0
ARC
  5
11A7E
  8
0
 10
3445.9638507255690456
 20
209.4404553586925886
 30
0.0
 40
0.0186293712481305
 50
296.2924445128581965
 51
316.1719699797955059
  0
ARC
  5
11A7F
  8
0
 10
3445.9668020931972023
 20
209.4344817370420913
 30
0.0
 40
0.0119664344709327
 50
277.1925417551212263
 51
296.2924445128589923
  0
ARC
  5
11A80
  8
0
 10
3445.9674997146239548
 20
209.4289537078819023
 30
0.0
 40
0.0063945602753333
 50
232.4377108499504061
 51
277.1925417551213968
  0
ARC
  5
11A81
  8
0
 10
3445.9661516143291919
 20
209.4272007785176868
 30
0.0
 40
0.0041831951404956
 50
175.1480149114979952
 51
232.4377108499525093
  0
ARC
  5
11A82
  8
0
 10
3445.9452287436120059
 20
209.4395231916452929
 30
0.0
 40
0.0175825256702551
 50
295.602770914216876
 51
317.1009101316255965
  0
ARC
  5
11A83
  8
0
 10
3445.9478054180822255
 20
209.4341459245486874
 30
0.0
 40
0.0116197869744109
 50
277.3893598111012011
 51
295.6027709141927176
  0
ARC
  5
11A84
  8
0
 10
3445.9483428962748803
 20
209.4300015460073041
 30
0.0
 40
0.0074407013923951
 50
245.5161652570934052
 51
277.3893598111010874
  0
ARC
  5
11A85
  8
0
 10
3445.9472782815360006
 20
209.4276637144697872
 30
0.0
 40
0.0048718765949244
 50
181.2831671071016046
 51
245.5161652570934052
  0
ARC
  5
11A86
  8
0
 10
3445.9256971909908316
 20
209.439029308832005
 30
0.0
 40
0.0171478434185873
 50
303.8393880219504126
 51
317.9975560494165734
  0
ARC
  5
11A87
  8
0
 10
3445.9270431116810869
 20
209.4370217832936021
 30
0.0
 40
0.0147308905244801
 50
293.5125202761511218
 51
303.8393880219504126
  0
ARC
  5
11A88
  8
0
 10
3445.9279605527190142
 20
209.4349130735959079
 30
0.0
 40
0.0124312482376365
 50
282.0236709499461085
 51
293.512520276151804
  0
ARC
  5
11A89
  8
0
 10
3445.9286893929879625
 20
209.4314911019579029
 30
0.0
 40
0.0089325201790361
 50
261.404191341878402
 51
282.0236709499461085
  0
ARC
  5
11A8A
  8
0
 10
3445.9282660639300957
 20
209.4286905834269135
 30
0.0
 40
0.0061001869476356
 50
236.442382765064508
 51
261.4041913418524246
  0
ARC
  5
11A8B
  8
0
 10
3445.9279893591551627
 20
209.4282734401442099
 30
0.0
 40
0.0055996132264556
 50
201.881416986799394
 51
236.4423827650662986
  0
ARC
  5
11A8C
  8
0
 10
3445.9298362495578658
 20
209.4290151896045131
 30
0.0
 40
0.0075898886905995
 50
191.0949166584632053
 51
201.8814169868009003
  0
ARC
  5
11A8D
  8
0
 10
3445.9063455466089181
 20
209.4378799683055092
 30
0.0
 40
0.0158254893059172
 50
300.6061101411884238
 51
319.2734479557905729
  0
ARC
  5
11A8E
  8
0
 10
3445.9077371564580972
 20
209.4355274571722134
 30
0.0
 40
0.0130921970415716
 50
289.7214536414609256
 51
300.6061101411884238
  0
ARC
  5
11A8F
  8
0
 10
3445.9081465577551171
 20
209.4343853913159137
 30
0.0
 40
0.011878968356453
 50
281.2363578622661748
 51
289.7214536414859936
  0
ARC
  5
11A90
  8
0
 10
3445.9086901169771409
 20
209.4316493300561035
 30
0.0
 40
0.0090894365238338
 50
266.9657939834917215
 51
281.2363578622661748
  0
ARC
  5
11A91
  8
0
 10
3445.9086461259980751
 20
209.4308194125007105
 30
0.0
 40
0.0082583538834572
 50
251.6440237830065882
 51
266.9657939834917215
  0
ARC
  5
11A92
  8
0
 10
3445.9078349465557949
 20
209.4283746469997993
 30
0.0
 40
0.0056825257758408
 50
232.7056989453660947
 51
251.6440237830061051
  0
ARC
  5
11A93
  8
0
 10
3445.9084871574650606
 20
209.4292309728757004
 30
0.0
 40
0.0067589425513105
 50
214.0325125933489971
 51
232.7056989453660947
  0
ARC
  5
11A94
  8
0
 10
3445.90796274617378
 20
209.4288768198630066
 30
0.0
 40
0.0061261459343762
 50
192.4639275369333973
 51
214.0325125933462971
  0
ARC
  5
11A95
  8
0
 10
3445.8869020737329265
 20
209.4364386799333033
 30
0.0
 40
0.0141073144316856
 50
287.2812368655651198
 51
320.9685773074385793
  0
ARC
  5
11A96
  8
0
 10
3445.8883615339250355
 20
209.4317474824065073
 30
0.0
 40
0.0091943358763356
 50
264.7663057407851852
 51
287.2812368655655177
  0
ARC
  5
11A97
  8
0
 10
3445.8882496687729144
 20
209.4305262485557932
 30
0.0
 40
0.0079679892979763
 50
236.8550548819594894
 51
264.7663057407851852
  0
ARC
  5
11A98
  8
0
 10
3445.8873274445081734
 20
209.4291139822410059
 30
0.0
 40
0.0062812783744969
 50
194.3739316042428982
 51
236.8550548819594894
  0
ARC
  5
11A99
  8
0
 10
3445.8662727393639216
 20
209.435930667556903
 30
0.0
 40
0.0136598620540289
 50
299.0056848908006941
 51
322.1799386769453122
  0
ARC
  5
11A9A
  8
0
 10
3445.8671989715289783
 20
209.4342600914301897
 30
0.0
 40
0.0117496969781058
 50
281.0609433546698028
 51
299.0056848907998983
  0
ARC
  5
11A9B
  8
0
 10
3445.8676804540418743
 20
209.4317970685991952
 30
0.0
 40
0.0092400541994361
 50
252.4988088858611945
 51
281.0609433546438822
  0
ARC
  5
11A9C
  8
0
 10
3445.8670301156621463
 20
209.4297346082776983
 30
0.0
 40
0.0070774903074049
 50
220.1049175918606977
 51
252.4988088858611945
  0
ARC
  5
11A9D
  8
0
 10
3445.8677438170570895
 20
209.4303357053572938
 30
0.0
 40
0.0080105966149392
 50
200.3142497098567105
 51
220.1049175918618914
  0
ARC
  5
11A9E
  8
0
 10
3445.845966782531832
 20
209.4348306851057941
 30
0.0
 40
0.0123972480839314
 50
286.3931367133039885
 51
324.0623174035920897
  0
ARC
  5
11A9F
  8
0
 10
3445.8467768598211478
 20
209.4320770608283908
 30
0.0
 40
0.0095269394112929
 50
258.8358558473312883
 51
286.3931367133034769
  0
ARC
  5
11AA0
  8
0
 10
3445.8465218104770429
 20
209.4307847234252904
 30
0.0
 40
0.0082096747713156
 50
226.1607843122669124
 51
258.8358558473315725
  0
ARC
  5
11AA1
  8
0
 10
3445.8462795989998995
 20
209.430532493437795
 30
0.0
 40
0.0078599800963849
 50
202.2628544378987101
 51
226.1607843122691861
  0
ARC
  5
11AA2
  8
0
 10
3445.8252621737378831
 20
209.4339470982847899
 30
0.0
 40
0.0114341779572141
 50
279.0608230878904124
 51
326.0091070375460163
  0
ARC
  5
11AA3
  8
0
 10
3445.8256392269549906
 20
209.4315827253226985
 30
0.0
 40
0.0090399288824681
 50
238.4588478009711991
 51
279.0608230878904124
  0
ARC
  5
11AA4
  8
0
 10
3445.8254072043350789
 20
209.4312047085286963
 30
0.0
 40
0.0085963849813672
 50
205.1251786323857118
 51
238.458847800971995
  0
LINE
  5
11AA5
  8
0
 10
3446.1851176457198562
 20
209.5435544387929951
 30
0.0
 11
3446.1843833161519797
 21
209.5435544393276928
 31
0.0
  0
LINE
  5
11AA6
  8
0
 10
3446.180997128420131
 20
209.5435544417933897
 30
0.0
 11
3446.1800402005860633
 21
209.5435544425145054
 31
0.0
  0
LINE
  5
11AA7
  8
0
 10
3446.1757679936199565
 20
209.5435544456009893
 30
0.0
 11
3446.1745911348198206
 21
209.5435544465262865
 31
0.0
  0
LINE
  5
11AA8
  8
0
 10
3446.1694448159200874
 20
209.5435544502051926
 30
0.0
 11
3446.1680513062160571
 21
209.5435544512193928
 31
0.0
  0
LINE
  5
11AA9
  8
0
 10
3446.1620452190200012
 20
209.5435544555932097
 30
0.0
 11
3446.1604389424201145
 21
209.5435544567627915
 31
0.0
  0
LINE
  5
11AAA
  8
0
 10
3446.153589827119049
 20
209.5435544617471066
 30
0.0
 11
3446.1517752605200258
 21
209.5435544630682898
 31
0.0
  0
LINE
  5
11AAB
  8
0
 10
3446.1441022068152051
 20
209.5435544686584137
 30
0.0
 11
3446.1420844078179471
 21
209.5435544701965966
 31
0.0
  0
LINE
  5
11AAC
  8
0
 10
3446.1336088017201291
 20
209.5435544762991924
 30
0.0
 11
3446.1313933943201846
 21
209.5435544779124086
 31
0.0
  0
LINE
  5
11AAD
  8
0
 10
3446.1221388590201968
 20
209.543554484650997
 30
0.0
 11
3446.1197320178198424
 21
209.5435544864035933
 31
0.0
  0
LINE
  5
11AAE
  8
0
 10
3446.1097243473200251
 20
209.5435544936906922
 30
0.0
 11
3446.1071327807198941
 21
209.5435544955776948
 31
0.0
  0
LINE
  5
11AAF
  8
0
 10
3446.0963998682191232
 20
209.5435545033928975
 30
0.0
 11
3446.0936307993201808
 21
209.5435545054091904
 31
0.0
  0
LINE
  5
11AB0
  8
0
 10
3446.0822025593201943
 20
209.5435545137306974
 30
0.0
 11
3446.0792637061199457
 21
209.5435545158705963
 31
0.0
  0
LINE
  5
11AB1
  8
0
 10
3446.0671719912202207
 20
209.5435545246751872
 30
0.0
 11
3446.0640715446202194
 21
209.5435545269328088
 31
0.0
  0
LINE
  5
11AB2
  8
0
 10
3446.0513500566189578
 20
209.5435545361958987
 30
0.0
 11
3446.0480966583199915
 21
209.543554538564905
 31
0.0
  0
LINE
  5
11AB3
  8
0
 10
3446.034780854219207
 20
209.5435545482608006
 30
0.0
 11
3446.0313835720189672
 21
209.5435545507345125
 31
0.0
  0
LINE
  5
11AB4
  8
0
 10
3446.0175105654197978
 20
209.5435545608362133
 30
0.0
 11
3446.0139788680198762
 21
209.5435545634078096
 31
0.0
  0
LINE
  5
11AB5
  8
0
 10
3445.9995873254201797
 20
209.5435545738868939
 30
0.0
 11
3445.9959310564199768
 21
209.5435545765492122
 31
0.0
  0
LINE
  5
11AB6
  8
0
 10
3445.9810610896201979
 20
209.5435545873768888
 30
0.0
 11
3445.977290439619992
 21
209.5435545901225112
 31
0.0
  0
LINE
  5
11AB7
  8
0
 10
3445.9619834940199326
 20
209.5435546012681982
 30
0.0
 11
3445.9581089725202219
 21
209.5435546040893939
 31
0.0
  0
LINE
  5
11AB8
  8
0
 10
3445.942407711119813
 20
209.5435546155223108
 30
0.0
 11
3445.9384401171200807
 21
209.543554618411406
 31
0.0
  0
LINE
  5
11AB9
  8
0
 10
3445.922388302320087
 20
209.5435546300994929
 30
0.0
 11
3445.9183386942199832
 21
209.5435546330481884
 31
0.0
  0
LINE
  5
11ABA
  8
0
 10
3445.901981065219843
 20
209.5435546449589879
 30
0.0
 11
3445.8978607300200565
 21
209.5435546479592119
 31
0.0
  0
LINE
  5
11ABB
  8
0
 10
3445.8812428784199255
 20
209.5435546600594989
 30
0.0
 11
3445.8770633002200157
 21
209.5435546631028956
 31
0.0
  0
LINE
  5
11ABC
  8
0
 10
3445.860231543019836
 20
209.5435546753589904
 30
0.0
 11
3445.8560043710199352
 21
209.5435546784370047
 31
0.0
  0
LINE
  5
11ABD
  8
0
 10
3445.8390056214198012
 20
209.5435546908146023
 30
0.0
 11
3445.8347426375198665
 21
209.5435546939187077
 31
0.0
  0
LINE
  5
11ABE
  8
0
 10
3445.817624274019181
 20
209.5435547063833894
 30
0.0
 11
3445.8133373598197977
 21
209.5435547095050026
 31
0.0
  0
LINE
  5
11ABF
  8
0
 10
3446.1881179765109664
 20
209.427554436673006
 30
0.0
 11
3446.1876082916610358
 21
209.4275544370441935
 31
0.0
  0
LINE
  5
11AC0
  8
0
 10
3446.1851175612550833
 20
209.4275544387930097
 30
0.0
 11
3446.1843832315789768
 21
209.4275544393283894
 31
0.0
  0
LINE
  5
11AC1
  8
0
 10
3446.1809970439539939
 20
209.4275544417934043
 30
0.0
 11
3446.1800401161540321
 21
209.4275544425404121
 31
0.0
  0
LINE
  5
11AC2
  8
0
 10
3446.1757679091538193
 20
209.4275544456010039
 30
0.0
 11
3446.1745910503541381
 21
209.4275544464960035
 31
0.0
  0
LINE
  5
11AC3
  8
0
 10
3446.1694447314548597
 20
209.4275544502052071
 30
0.0
 11
3446.1680512217881187
 21
209.4275544512395015
 31
0.0
  0
LINE
  5
11AC4
  8
0
 10
3446.1620451345547735
 20
209.4275544555931958
 30
0.0
 11
3446.1604388579889928
 21
209.4275544567628913
 31
0.0
  0
LINE
  5
11AC5
  8
0
 10
3446.1535897426538213
 20
209.4275544617499918
 30
0.0
 11
3446.1517751760088686
 21
209.4275544630712886
 31
0.0
  0
LINE
  5
11AC6
  8
0
 10
3446.1441021223540702
 20
209.4275544686585135
 30
0.0
 11
3446.1420843232549487
 21
209.4275544701278022
 31
0.0
  0
LINE
  5
11AC7
  8
0
 10
3446.1336087172498992
 20
209.4275544762992922
 30
0.0
 11
3446.1313933098549569
 21
209.4275544779355016
 31
0.0
  0
LINE
  5
11AC8
  8
0
 10
3446.1221387745540596
 20
209.4275544846512105
 30
0.0
 11
3446.1197319333668929
 21
209.4275544864036078
 31
0.0
  0
LINE
  5
11AC9
  8
0
 10
3446.1097242628547974
 20
209.4275544936907067
 30
0.0
 11
3446.1071326962619423
 21
209.4275544955777093
 31
0.0
  0
LINE
  5
11ACA
  8
0
 10
3446.096399783754805
 20
209.4275545033929973
 30
0.0
 11
3446.0936307148540436
 21
209.4275545054092049
 31
0.0
  0
LINE
  5
11ACB
  8
0
 10
3446.0822024748549666
 20
209.427554513730712
 30
0.0
 11
3446.0792636216551728
 21
209.4275545158706109
 31
0.0
  0
LINE
  5
11ACC
  8
0
 10
3446.0671719067540835
 20
209.4275545246752017
 30
0.0
 11
3446.0640714601540822
 21
209.4275545269327949
 31
0.0
  0
LINE
  5
11ACD
  8
0
 10
3446.0513499721550943
 20
209.4275545361959985
 30
0.0
 11
3446.0480965738552186
 21
209.4275545385650048
 31
0.0
  0
LINE
  5
11ACE
  8
0
 10
3446.0347807697539793
 20
209.4275545482607868
 30
0.0
 11
3446.0313834875541943
 21
209.4275545507346123
 31
0.0
  0
LINE
  5
11ACF
  8
0
 10
3446.0175104809550248
 20
209.4275545608361995
 30
0.0
 11
3446.0139787835541938
 21
209.4275545634077957
 31
0.0
  0
LINE
  5
11AD0
  8
0
 10
3445.999587240954952
 20
209.4275545738871074
 30
0.0
 11
3445.9959309719552039
 21
209.4275545765493973
 31
0.0
  0
LINE
  5
11AD1
  8
0
 10
3445.9810610051540607
 20
209.4275545873769033
 30
0.0
 11
3445.977290355155219
 21
209.4275545901224973
 31
0.0
  0
LINE
  5
11AD2
  8
0
 10
3445.9581088880540847
 20
209.4275546040894938
 30
0.0
 11
3445.9619834095537954
 21
209.427554601268298
 31
0.0
  0
LINE
  5
11AD3
  8
0
 10
3445.9424076266550401
 20
209.4275546155224106
 30
0.0
 11
3445.9384400326539435
 21
209.4275546184113921
 31
0.0
  0
LINE
  5
11AD4
  8
0
 10
3445.918338609753846
 20
209.427554633048203
 30
0.0
 11
3445.9223882178539498
 21
209.4275546300995074
 31
0.0
  0
LINE
  5
11AD5
  8
0
 10
3445.8978606455548288
 20
209.4275546479593118
 30
0.0
 11
3445.9019809807541606
 21
209.4275546449590877
 31
0.0
  0
LINE
  5
11AD6
  8
0
 10
3445.877063215754788
 20
209.4275546631029101
 30
0.0
 11
3445.8812427939537884
 21
209.4275546600595987
 31
0.0
  0
LINE
  5
11AD7
  8
0
 10
3445.856004286553798
 20
209.4275546784369908
 30
0.0
 11
3445.8602314585541535
 21
209.4275546753590049
 31
0.0
  0
LINE
  5
11AD8
  8
0
 10
3445.8347425530541841
 20
209.4275546939186938
 30
0.0
 11
3445.8390055369541187
 21
209.4275546908145884
 31
0.0
  0
LINE
  5
11AD9
  8
0
 10
3445.8133372753541153
 20
209.4275547095049888
 30
0.0
 11
3445.8176241895548628
 21
209.4275547063834892
 31
0.0
  0
ARC
  5
11ADA
  8
0
 10
3445.783241093442939
 20
209.5328116341356122
 30
0.0
 40
0.0137657830839519
 50
51.2990785882256191
 51
128.700921411752006
  0
ARC
  5
11ADB
  8
0
 10
3445.783241093442939
 20
209.4324813831721031
 30
0.0
 40
0.0099173858527505
 50
209.7864806400872055
 51
330.2135193599169725
  0
LINE
  5
11ADC
  8
0
 10
3445.7703350699930525
 20
209.4275547314196047
 30
0.0
 11
3445.7746339658920078
 21
209.4275547314196047
 31
0.0
  0
LINE
  5
11ADD
  8
0
 10
3445.7746339658920078
 20
209.4275547314196047
 30
0.0
 11
3445.7746339658920078
 21
209.5435547314195901
 31
0.0
  0
LINE
  5
11ADE
  8
0
 10
3445.7746339658920078
 20
209.5435547314195901
 30
0.0
 11
3445.7703350699930525
 21
209.5435547314195901
 31
0.0
  0
LINE
  5
11ADF
  8
0
 10
3445.796147094420121
 20
209.543554722022094
 30
0.0
 11
3445.7918482209920512
 21
209.5435547314195901
 31
0.0
  0
LINE
  5
11AE0
  8
0
 10
3445.7918482209920512
 20
209.5435547314195901
 30
0.0
 11
3445.7918482209920512
 21
209.4275547314196047
 31
0.0
  0
LINE
  5
11AE1
  8
0
 10
3445.7918482209920512
 20
209.4275547314196047
 30
0.0
 11
3445.7961471168919161
 21
209.4275547314196047
 31
0.0
  0
ARC
  5
11AE2
  8
0
 10
3437.5968066228051612
 20
209.6891562693365927
 30
0.0
 40
7.805320027532737
 50
1.414774766630684
 51
2.601749938147496
  0
ARC
  5
11AE3
  8
0
 10
3437.3540038302348876
 20
209.6781232280141865
 30
0.0
 40
8.0483733634087802
 50
2.601749938147496
 51
4.1525994136825304
  0
ARC
  5
11AE4
  8
0
 10
3437.6497688012541403
 20
209.6995968598978948
 30
0.0
 40
7.7518298843918476
 50
4.1525994136825304
 51
4.9611661981272546
  0
ARC
  5
11AE5
  8
0
 10
3445.4166728423178938
 20
210.3738086996634991
 30
0.0
 40
0.0442819662664408
 50
137.1840862180752083
 51
184.961166198128808
  0
ARC
  5
11AE6
  8
0
 10
3445.417741176393065
 20
210.3728188601506019
 30
0.0
 40
0.0457383727888947
 50
90.6325082369534414
 51
137.1840862180752083
  0
ARC
  5
11AE7
  8
0
 10
3445.4171239459637945
 20
210.4287284277517927
 30
0.0
 40
0.010174601758657
 50
270.6325082369535266
 51
314.7079497776016979
  0
ARC
  5
11AE8
  8
0
 10
3445.4173651230721589
 20
210.428484779350299
 30
0.0
 40
0.009831773898818
 50
314.7079497776214794
 51
0.405536227234315
  0
LINE
  5
11AE9
  8
0
 10
3445.4271966506998979
 20
210.4285543674986911
 30
0.0
 11
3445.4272242826000365
 21
210.4785543674985888
 31
0.0
  0
ARC
  5
11AEA
  8
0
 10
3445.4471772167921699
 20
210.4786014297247903
 30
0.0
 40
0.0199529896948214
 50
89.8692911636663752
 51
180.135141122793101
  0
LINE
  5
11AEB
  8
0
 10
3445.3997472473761263
 20
209.8818693763934107
 30
0.0
 11
3445.4021732383098424
 21
209.6977200789816891
 31
0.0
  0
ARC
  5
11AEC
  8
0
 10
3445.4421731814932173
 20
209.6977875034195904
 30
0.0
 40
0.040000000000004
 50
180.0977149658386054
 51
234.0788406129800876
  0
ARC
  5
11AED
  8
0
 10
3445.3864393928670324
 20
209.6208541257504976
 30
0.0
 40
0.0549999989164821
 50
34.5634839716533975
 51
54.0788406129800521
  0
ARC
  5
11AEE
  8
0
 10
3445.3855395514888187
 20
209.6202342128067073
 30
0.0
 40
0.0560927049903513
 50
15.40404628550254
 51
34.5634839716533975
  0
LINE
  5
11AEF
  8
0
 10
3445.4396172184920033
 20
209.6351337928196017
 30
0.0
 11
3445.4449061461209567
 21
209.6019797059196037
 31
0.0
  0
ARC
  5
11AF0
  8
0
 10
3445.4548896175269874
 20
209.6025544192561085
 30
0.0
 40
0.0099999998365108
 50
183.2946803130325861
 51
270.000000372301372
  0
ARC
  5
11AF1
  8
0
 10
3445.7831772115919193
 20
208.5502167569505048
 30
0.0
 40
2.3158437382701909
 50
88.6139548013460683
 51
91.3860451986539459
  0
ARC
  5
11AF2
  8
0
 10
3445.8423687993649764
 20
210.6116639522905132
 30
0.0
 40
0.2537388088597823
 50
64.5416312032805592
 51
90.7168074781108942
  0
ARC
  5
11AF3
  8
0
 10
3445.843539627634982
 20
210.6349687461473934
 30
0.0
 40
0.2323665070531532
 50
42.7013687697982007
 51
62.3316359050174214
  0
ARC
  5
11AF4
  8
0
 10
3445.8503616180760218
 20
210.6374522816767865
 30
0.0
 40
0.2256861469504546
 50
25.3591669420415187
 51
43.412581809838251
  0
ARC
  5
11AF5
  8
0
 10
3445.8574444144751396
 20
210.6401676335991056
 30
0.0
 40
0.2181236526107041
 50
11.0293178060674606
 51
25.5114656998981992
  0
ARC
  5
11AF6
  8
0
 10
3445.7260174245079725
 20
210.6152789876200018
 30
0.0
 40
0.3518853135109288
 50
0.1605233720837067
 51
10.9129750847491298
  0
ARC
  5
11AF7
  8
0
 10
3444.9665518679539673
 20
210.6131512167418123
 30
0.0
 40
1.1113538507140399
 50
357.5304442853214937
 51
0.1605233720837067
  0
ARC
  5
11AF8
  8
0
 10
3444.6369703908139854
 20
210.6273656009051933
 30
0.0
 40
1.4412417086155549
 50
354.8723395376021017
 51
357.5304442853214937
  0
LINE
  5
11AF9
  8
0
 10
3445.4187410934919171
 20
209.5695544194196032
 30
0.0
 11
3446.1477410934930958
 21
209.5695544194196032
 31
0.0
  0
ARC
  5
11AFA
  8
0
 10
3453.969548286996087
 20
209.6891718627175862
 30
0.0
 40
7.805320027532737
 50
177.3983591987260979
 51
178.5853343702422933
  0
ARC
  5
11AFB
  8
0
 10
3454.2123511005811451
 20
209.678139283885514
 30
0.0
 40
8.0483733634087802
 50
175.8475097231923883
 51
177.3983591987260979
  0
ARC
  5
11AFC
  8
0
 10
3453.9165860886610062
 20
209.6996123523967128
 30
0.0
 40
7.7518298843918476
 50
175.0389429387450946
 51
175.8475097231923883
  0
ARC
  5
11AFD
  8
0
 10
3446.1496807633729986
 20
210.3738093977794108
 30
0.0
 40
0.0442819662664408
 50
355.038942938743503
 51
42.8160229188064676
  0
ARC
  5
11AFE
  8
0
 10
3446.14861243118321
 20
210.3728195562316046
 30
0.0
 40
0.0457383727888947
 50
42.8160229188064676
 51
89.3676008999350273
  0
ARC
  5
11AFF
  8
0
 10
3446.1492295551170173
 20
210.4287291250084024
 30
0.0
 40
0.010174601758657
 50
225.292159359254498
 51
269.3676008999349847
  0
ARC
  5
11B00
  8
0
 10
3446.148988378471131
 20
210.4284854761475003
 30
0.0
 40
0.009831773898818
 50
179.5945729096384014
 51
225.2921593592533043
  0
LINE
  5
11B01
  8
0
 10
3446.13915685071197
 20
210.4285550455687996
 30
0.0
 11
3446.1391291235718199
 21
210.4785550455160035
 31
0.0
  0
ARC
  5
11B02
  8
0
 10
3446.1191761892901013
 20
210.478602069735814
 30
0.0
 40
0.0199529896948214
 50
359.8649680140795795
 51
90.1308179732148744
  0
LINE
  5
11B03
  8
0
 10
3446.1666072953598814
 20
209.8818701067501138
 30
0.0
 11
3446.1641816551941702
 21
209.6977208047177044
 31
0.0
  0
LINE
  5
11B04
  8
0
 10
3446.1191306325767982
 20
210.4985550074229934
 30
0.0
 11
3446.0724442993919183
 21
210.4985544194196052
 31
0.0
  0
ARC
  5
11B05
  8
0
 10
3443.4039320730212239
 20
210.7194109378241933
 30
0.0
 40
2.6776361426900541
 50
353.7639778412100213
 51
355.2688806436921141
  0
ARC
  5
11B06
  8
0
 10
3443.0694381706448439
 20
210.7559613985652902
 30
0.0
 40
3.014121070891965
 50
352.6367227315723767
 51
353.7639778412100213
  0
ARC
  5
11B07
  8
0
 10
3444.4879094733660168
 20
210.57265854519909
 30
0.0
 40
1.5838550911890561
 50
345.7363229613861222
 51
352.6367227315723767
  0
ARC
  5
11B08
  8
0
 10
3445.2366889509958128
 20
210.3823025026354117
 30
0.0
 40
0.811258088178905
 50
332.4668334774531218
 51
345.7363229613861222
  0
ARC
  5
11B09
  8
0
 10
3445.7220347763650352
 20
210.1292902658497894
 30
0.0
 40
0.2639229420708099
 50
311.5009057131567261
 51
332.4668334774531218
  0
ARC
  5
11B0A
  8
0
 10
3445.7880201412858696
 20
210.0547097539266872
 30
0.0
 40
0.1643422153083055
 50
294.6447999719039785
 51
311.5009057131567261
  0
ARC
  5
11B0B
  8
0
 10
3445.7828357672651691
 20
210.061785140548011
 30
0.0
 40
0.1729439213883908
 50
279.8466648649941249
 51
295.2284737607440093
  0
ARC
  5
11B0C
  8
0
 10
3445.7832738030429027
 20
210.0592614403788048
 30
0.0
 40
0.1703824886083767
 50
269.9675363332639222
 51
279.8466648649684885
  0
ARC
  5
11B0D
  8
0
 10
3445.7239856238202265
 20
210.6116639522905132
 30
0.0
 40
0.2537388088597823
 50
89.2831925218891058
 51
115.4583687967193981
  0
ARC
  5
11B0E
  8
0
 10
3445.7228147955488566
 20
210.6349687461473934
 30
0.0
 40
0.2323665070531532
 50
117.6683640949826071
 51
137.2986312302018064
  0
ARC
  5
11B0F
  8
0
 10
3445.7159928051091811
 20
210.6374522816767865
 30
0.0
 40
0.2256861469504546
 50
136.5874181901617135
 51
154.6408330579585026
  0
ARC
  5
11B10
  8
0
 10
3445.7089100087100633
 20
210.6401676335991056
 30
0.0
 40
0.2181236526107041
 50
154.4885343001018043
 51
168.9706821939325039
  0
ARC
  5
11B11
  8
0
 10
3445.8403369986758662
 20
210.6152789876200018
 30
0.0
 40
0.3518853135109288
 50
169.0870249152507938
 51
179.839476627916298
  0
ARC
  5
11B12
  8
0
 10
3446.5998025552298714
 20
210.6131512167418123
 30
0.0
 40
1.1113538507140399
 50
179.839476627916298
 51
182.4695557146783926
  0
ARC
  5
11B13
  8
0
 10
3446.9293840323698532
 20
210.6273656009051933
 30
0.0
 40
1.4412417086155549
 50
182.4695557146783926
 51
185.127660462397813
  0
ARC
  5
11B14
  8
0
 10
3448.162422350163979
 20
210.7194109378241933
 30
0.0
 40
2.6776361426900541
 50
184.7311193563078859
 51
186.2360221587900071
  0
ARC
  5
11B15
  8
0
 10
3448.4969162525389947
 20
210.7559613985652902
 30
0.0
 40
3.014121070891965
 50
186.2360221587900071
 51
187.3632772684275096
  0
ARC
  5
11B16
  8
0
 10
3447.0784449498178219
 20
210.57265854519909
 30
0.0
 40
1.5838550911890561
 50
187.3632772684275096
 51
194.2636770386137925
  0
ARC
  5
11B17
  8
0
 10
3446.3296654721880259
 20
210.3823025026354117
 30
0.0
 40
0.811258088178905
 50
194.2636770386137925
 51
207.5331665225469067
  0
ARC
  5
11B18
  8
0
 10
3445.8443196468201677
 20
210.1292902658497894
 30
0.0
 40
0.2639229420708099
 50
207.5331665225469067
 51
228.4990942868433876
  0
ARC
  5
11B19
  8
0
 10
3445.7783342818988785
 20
210.0547097539266872
 30
0.0
 40
0.1643422153083055
 50
228.4990942868433876
 51
245.355200028095993
  0
ARC
  5
11B1A
  8
0
 10
3445.7835186559200338
 20
210.061785140548011
 30
0.0
 40
0.1729439213883908
 50
244.7715262392559055
 51
260.1533351350058751
  0
ARC
  5
11B1B
  8
0
 10
3445.7830806201418454
 20
210.0592614403788048
 30
0.0
 40
0.1703824886083767
 50
260.1533351350315115
 51
270.0324636667360778
  0
LINE
  5
11B1C
  8
0
 10
3445.4472227354990537
 20
210.498554367498599
 30
0.0
 11
3445.4939203575509055
 21
210.4985544194196052
 31
0.0
  0
ARC
  5
11B1D
  8
0
 10
3446.1241812985231263
 20
209.6977874928541041
 30
0.0
 40
0.040000000000004
 50
305.921157611824583
 51
359.902283258947989
  0
ARC
  5
11B1E
  8
0
 10
3446.1799150847650708
 20
209.6208541134583072
 30
0.0
 40
0.0549999989164821
 50
125.9211576118245972
 51
145.4365142531354991
  0
ARC
  5
11B1F
  8
0
 10
3446.1808149261241851
 20
209.6202342004866068
 30
0.0
 40
0.0560927049903513
 50
145.4365142531354991
 51
164.5959519392818038
  0
LINE
  5
11B20
  8
0
 10
3446.1267372595821143
 20
209.6351337821749041
 30
0.0
 11
3446.1214483309249772
 21
209.6019796954388141
 31
0.0
  0
ARC
  5
11B21
  8
0
 10
3446.1114648595371364
 20
209.6025544090846893
 30
0.0
 40
0.0099999998365108
 50
269.9999978524601829
 51
356.7053179117547188
  0
ARC
  5
11B22
  8
0
 10
3444.8808373378878969
 20
208.8197323919976895
 30
0.0
 40
0.48505606010468
 50
283.2734502509339904
 51
294.1596632777248033
  0
ARC
  5
11B23
  8
0
 10
3446.684155897537039
 20
208.8140508856565134
 30
0.0
 40
0.479263781413282
 50
245.7247561918935048
 51
256.7350494228455204
  0
LINE
  5
11B6F
  8
0
 62
     7
 10
3445.4271966506998979
 20
210.4285543675055976
 30
0.0
 11
3445.5006301346920736
 21
210.4285544194196973
 31
0.0
  0
LINE
  5
11B70
  8
0
 62
     7
 10
3446.1391566045731452
 20
210.4284854761475003
 30
0.0
 11
3446.0657242884922198
 21
210.428554419419612
 31
0.0
  0
ENDSEC
  0
EOF
