  0
SECTION
  2
HEADER
  9
$ACADVER
  1
AC1009
  9
$INSBASE
 10
3074.4076221582831749
 20
130.0993468899609127
 30
0.0
  9
$EXTMIN
 10
3073.0326221582831749
 20
130.0945806922321992
 30
0.0
  9
$EXTMAX
 10
3077.1476221582829567
 20
132.9693468899610025
 30
0.0
  9
$LIMMIN
 10
0.0
 20
0.0
  9
$LIMMAX
 10
11.6929133858000007
 20
8.2677165353999982
  9
$ORTHOMODE
 70
     0
  9
$REGENMODE
 70
     1
  9
$FILLMODE
 70
     1
  9
$QTEXTMODE
 70
     0
  9
$MIRRTEXT
 70
     0
  9
$DRAGMODE
 70
     2
  9
$LTSCALE
 40
0.6431102362
  9
$OSMODE
 70
  4095
  9
$ATTMODE
 70
     1
  9
$TEXTSIZE
 40
0.2
  9
$TRACEWID
 40
0.05
  9
$TEXTSTYLE
  7
STANDARD
  9
$CLAYER
  8
0
  9
$CELTYPE
  6
BYLAYER
  9
$CECOLOR
 62
   256
  9
$DIMSCALE
 40
1.0
  9
$DIMASZ
 40
0.1875
  9
$DIMEXO
 40
0.0625
  9
$DIMDLI
 40
0.4443307087
  9
$DIMRND
 40
0.0
  9
$DIMDLE
 40
0.0
  9
$DIMEXE
 40
0.125
  9
$DIMTP
 40
0.01
  9
$DIMTM
 40
0.01
  9
$DIMTXT
 40
2.0
  9
$DIMCEN
 40
0.1052362205
  9
$DIMTSZ
 40
0.0
  9
$DIMTOL
 70
     1
  9
$DIMLIM
 70
     0
  9
$DIMTIH
 70
     1
  9
$DIMTOH
 70
     1
  9
$DIMSE1
 70
     0
  9
$DIMSE2
 70
     0
  9
$DIMTAD
 70
     0
  9
$DIMZIN
 70
     0
  9
$DIMBLK
  1

  9
$DIMASO
 70
     1
  9
$DIMSHO
 70
     1
  9
$DIMPOST
  1
\X
  9
$DIMAPOST
  1

  9
$DIMALT
 70
     1
  9
$DIMALTD
 70
     2
  9
$DIMALTF
 40
25.3999999999999986
  9
$DIMLFAC
 40
1.0
  9
$DIMTOFL
 70
     0
  9
$DIMTVP
 40
0.0
  9
$DIMTIX
 70
     0
  9
$DIMSOXD
 70
     0
  9
$DIMSAH
 70
     0
  9
$DIMBLK1
  1

  9
$DIMBLK2
  1

  9
$DIMSTYLE
  2
STANDARD
  9
$DIMCLRD
 70
     0
  9
$DIMCLRE
 70
     0
  9
$DIMCLRT
 70
     0
  9
$DIMTFAC
 40
1.0
  9
$DIMGAP
 40
0.09
  9
$LUNITS
 70
     2
  9
$LUPREC
 70
     4
  9
$SKETCHINC
 40
0.1
  9
$FILLETRAD
 40
0.0
  9
$AUNITS
 70
     0
  9
$AUPREC
 70
     0
  9
$MENU
  1
.
  9
$ELEVATION
 40
0.0
  9
$PELEVATION
 40
0.0
  9
$THICKNESS
 40
0.0
  9
$LIMCHECK
 70
     0
  9
$BLIPMODE
 70
     0
  9
$CHAMFERA
 40
0.0
  9
$CHAMFERB
 40
0.0
  9
$SKPOLY
 70
     0
  9
$TDCREATE
 40
2458060.468368056230247
  9
$TDUPDATE
 40
2460124.5599537040106952
  9
$TDINDWG
 40
0.6703658565
  9
$TDUSRTIMER
 40
0.6703658565
  9
$USRTIMER
 70
     1
  9
$ANGBASE
 50
0.0
  9
$ANGDIR
 70
     0
  9
$PDMODE
 70
     0
  9
$PDSIZE
 40
0.3125
  9
$PLINEWID
 40
0.0
  9
$COORDS
 70
     1
  9
$SPLFRAME
 70
     0
  9
$SPLINETYPE
 70
     6
  9
$SPLINESEGS
 70
     8
  9
$ATTDIA
 70
     1
  9
$ATTREQ
 70
     1
  9
$HANDLING
 70
     1
  9
$HANDSEED
  5
2D4F8
  9
$SURFTAB1
 70
     6
  9
$SURFTAB2
 70
     6
  9
$SURFTYPE
 70
     6
  9
$SURFU
 70
     6
  9
$SURFV
 70
     6
  9
$UCSNAME
  2

  9
$UCSORG
 10
0.0
 20
0.0
 30
0.0
  9
$UCSXDIR
 10
1.0
 20
0.0
 30
0.0
  9
$UCSYDIR
 10
0.0
 20
1.0
 30
0.0
  9
$PUCSNAME
  2

  9
$PUCSORG
 10
0.0
 20
0.0
 30
0.0
  9
$PUCSXDIR
 10
1.0
 20
0.0
 30
0.0
  9
$PUCSYDIR
 10
0.0
 20
1.0
 30
0.0
  9
$USERI1
 70
     0
  9
$USERI2
 70
     0
  9
$USERI3
 70
     0
  9
$USERI4
 70
     0
  9
$USERI5
 70
     0
  9
$USERR1
 40
0.0
  9
$USERR2
 40
0.0
  9
$USERR3
 40
0.0
  9
$USERR4
 40
0.0
  9
$USERR5
 40
0.0
  9
$WORLDVIEW
 70
     1
  9
$SHADEDGE
 70
     3
  9
$SHADEDIF
 70
    70
  9
$TILEMODE
 70
     1
  9
$MAXACTVP
 70
    64
  9
$PLIMCHECK
 70
     0
  9
$PEXTMIN
 10
1.0000000000000000E+20
 20
1.0000000000000000E+20
 30
1.0000000000000000E+20
  9
$PEXTMAX
 10
-1.0000000000000000E+20
 20
-1.0000000000000000E+20
 30
-1.0000000000000000E+20
  9
$PLIMMIN
 10
0.0
 20
0.0
  9
$PLIMMAX
 10
12.0
 20
9.0
  9
$UNITMODE
 70
     0
  9
$VISRETAIN
 70
     1
  9
$PLINEGEN
 70
     0
  9
$PSLTSCALE
 70
     1
  0
ENDSEC
  0
SECTION
  2
TABLES
  0
TABLE
  2
VPORT
 70
     1
  0
VPORT
  2
*ACTIVE
 70
     0
 10
0.0
 20
0.0
 11
1.0
 21
1.0
 12
-228.6029930760925879
 22
-63.7295477847911584
 13
0.0
 23
0.0
 14
1.0
 24
1.0
 15
0.0
 25
0.0
 16
0.0
 26
0.0
 36
96.5995694866707311
 17
3303.693115234375
 27
195.2615115758877096
 37
0.0
 40
2.8941684442826552
 41
1.576576576576576
 42
50.0
 43
0.0
 44
0.0
 50
0.0
 51
0.0
 71
     0
 72
   100
 73
     1
 74
     1
 75
     0
 76
     0
 77
     0
 78
     0
  0
ENDTAB
  0
TABLE
  2
LTYPE
 70
     2
  0
LTYPE
  2
CONTINUOUS
 70
     0
  3
Solid line
 72
    65
 73
     0
 40
0.0
  0
LTYPE
  2
PHANTOM2
 70
     0
  3
___ _ _ ___ _ _ ___ _ _ ___ _ _
 72
    65
 73
     6
 40
1.25
 49
0.625
 49
-0.125
 49
0.125
 49
-0.125
 49
0.125
 49
-0.125
  0
ENDTAB
  0
TABLE
  2
LAYER
 70
     2
  0
LAYER
  2
0
 70
     0
 62
   255
  6
CONTINUOUS
  0
LAYER
  2
DEFPOINTS
 70
     0
 62
     7
  6
CONTINUOUS
  0
ENDTAB
  0
TABLE
  2
STYLE
 70
     1
  0
STYLE
  2
STANDARD
 70
     0
 40
0.0
 41
0.8
 50
0.0
 71
     0
 42
0.2
  3
txt
  4

  0
ENDTAB
  0
TABLE
  2
VIEW
 70
     0
  0
ENDTAB
  0
TABLE
  2
UCS
 70
     0
  0
ENDTAB
  0
TABLE
  2
APPID
 70
     9
  0
APPID
  2
ACAD
 70
     0
  0
APPID
  2
ACAD_MLEADERVER
 70
     0
  0
APPID
  2
ACAD_EXEMPT_FROM_CAD_STANDARDS
 70
     0
  0
APPID
  2
ACAD_NAV_VCDISPLAY
 70
     0
  0
APPID
  2
ACAECLAYERSTANDARD
 70
     0
  0
APPID
  2
ACCMTRANSPARENCY
 70
     0
  0
APPID
  2
ACAD_DSTYLE_DIMJAG
 70
     0
  0
APPID
  2
ACAD_DSTYLE_DIMTALN
 70
     0
  0
APPID
  2
ACDBATTR
 70
     0
  0
ENDTAB
  0
TABLE
  2
DIMSTYLE
 70
     1
  0
DIMSTYLE
  2
STANDARD
 70
     0
  3

  4

  5

  6

  7

 40
1.0
 41
0.1875
 42
0.0625
 43
0.38
 44
0.125
 45
0.0
 46
0.0
 47
0.01
 48
0.01
140
0.15625
141
0.09
142
0.0
143
25.3999999999999986
144
1.0
145
0.0
146
1.0
147
0.09
 71
     1
 72
     0
 73
     1
 74
     1
 75
     0
 76
     0
 77
     0
 78
     4
170
     0
171
     2
172
     0
173
     0
174
     0
175
     0
176
     0
177
     0
178
     0
  0
ENDTAB
  0
ENDSEC
  0
SECTION
  2
BLOCKS
  0
BLOCK
  8
0
  2
$MODEL_SPACE
 70
     0
 10
0.0
 20
0.0
 30
0.0
  3
$MODEL_SPACE
  1

  0
ENDBLK
  5
21
  8
0
  0
BLOCK
 67
     1
  8
0
  2
$PAPER_SPACE
 70
     0
 10
0.0
 20
0.0
 30
0.0
  3
$PAPER_SPACE
  1

  0
ENDBLK
  5
1D
 67
     1
  8
0
  0
ENDSEC
  0
SECTION
  2
ENTITIES
  0
ATTDEF
  5
28FC7
  8
DEFPOINTS
 10
3074.4076108757130896
 20
130.0979140255655011
 30
0.0
 40
0.001
  1
P24614-LV
  3

  2
MODELNUMBER
 70
     0
1001
ACDBATTR
1070
     0
1070
     1
  0
ATTDEF
  5
28FC8
  8
DEFPOINTS
 10
3074.4076108757130896
 20
130.0962473588988075
 30
0.0
 40
0.001
  1
ONE
  3

  2
TRADENAME
 70
     0
1001
ACDBATTR
1070
     0
1070
     1
  0
ATTDEF
  5
28FC9
  8
DEFPOINTS
 10
3074.4076108757130896
 20
130.0945806922321992
 30
0.0
 40
0.001
  1
LEVER HANDLE
  3

  2
PRODUCT
 70
     0
1001
ACDBATTR
1070
     0
1070
     1
  0
LINE
  5
2D3D9
  8
0
 10
3073.0326221582831749
 20
130.0993468899609127
 30
0.0
 11
3075.7826221582818107
 21
130.0993468899609127
 31
0.0
  0
LINE
  5
2D3DA
  8
0
 10
3074.0526221582817925
 20
130.6293468899609138
 30
0.0
 11
3074.0526221582817925
 21
131.9843468899609036
 31
0.0
  0
LINE
  5
2D3DB
  8
0
 10
3074.0526221582817925
 20
132.0293468899608911
 30
0.0
 11
3074.0526221582817925
 21
132.9393468899608877
 31
0.0
  0
LINE
  5
2D3DC
  8
0
 10
3075.7726221589828128
 20
130.6293468899609138
 30
0.0
 11
3073.0426221574821284
 21
130.6293468899609138
 31
0.0
  0
LINE
  5
2D3DD
  8
0
 10
3074.7626221582818289
 20
130.6293468899609138
 30
0.0
 11
3074.7626221582818289
 21
131.9843468899609036
 31
0.0
  0
LINE
  5
2D3DE
  8
0
 10
3077.1176221582818471
 20
131.9993468899608899
 30
0.0
 11
3074.0676459685828377
 21
131.9993468899608899
 31
0.0
  0
LINE
  5
2D3DF
  8
0
 10
3075.7826221582818107
 20
130.6193468899608945
 30
0.0
 11
3075.7826221582818107
 21
130.0993468899609127
 31
0.0
  0
LINE
  5
2D3E0
  8
0
 10
3074.0826221582829021
 20
132.9693468899608888
 30
0.0
 11
3077.1176221582818471
 21
132.9693468899608888
 31
0.0
  0
LINE
  5
2D3E1
  8
0
 10
3077.1476221582829567
 20
132.0293468899608911
 30
0.0
 11
3077.1476221582829567
 21
132.9393468899608877
 31
0.0
  0
ARC
  5
2D3E2
  8
0
 10
2826.9564775198819007
 20
128.9229819748609032
 30
0.0
 40
247.8026931578000074
 50
0.7182579596999725
 51
0.9295432444348048
  0
ARC
  5
2D3E3
  8
0
 10
3074.0826221582829021
 20
132.9393468899608877
 30
0.0
 40
0.03
 50
90.0
 51
180.0
  0
ARC
  5
2D3E4
  8
0
 10
3077.1176221582818471
 20
132.0293468899608911
 30
0.0
 40
0.03
 50
270.0
 51
0.0
  0
ARC
  5
2D3E5
  8
0
 10
3077.1176221582818471
 20
132.9393468899608877
 30
0.0
 40
0.03
 50
0.0
 51
90.0
  0
ARC
  5
2D3E6
  8
0
 10
3074.0826221582829021
 20
132.0293468899608911
 30
0.0
 40
0.03
 50
180.0
 51
270.0
  0
ARC
  5
2D3E7
  8
0
 10
3074.0676221904550403
 20
131.9843468766343051
 30
0.0
 40
0.0150000321731761
 50
89.9091744026666646
 51
179.9999490963957953
  0
ARC
  5
2D3E8
  8
0
 10
3074.7476221582828657
 20
131.9843468899609036
 30
0.0
 40
0.015
 50
0.0
 51
90.0
  0
ARC
  5
2D3E9
  8
0
 10
3075.7726221582829567
 20
130.6193468899608945
 30
0.0
 40
0.01
 50
0.0
 51
89.9999957944977638
  0
ARC
  5
2D3EA
  8
0
 10
3073.0426221582829385
 20
130.6193468899608945
 30
0.0
 40
0.01
 50
90.0000042055022362
 51
180.0
  0
ARC
  5
2D3EB
  8
0
 10
3074.7106131285349875
 20
132.0284310257027869
 30
0.0
 40
0.0291010649428579
 50
271.9544406025848957
 51
1.8033573876204581
  0
ARC
  5
2D3EC
  8
0
 10
3074.6979967400211535
 20
132.9407371629820886
 30
0.0
 40
0.0286570994949589
 50
4.63915575211242
 51
86.7050821918083443
  0
LINE
  5
2D3EE
  8
0
 10
3073.0326221582831749
 20
130.0993468899609127
 30
0.0
 11
3073.0326221582831749
 21
130.6193468899608945
 31
0.0
  0
ENDSEC
  0
EOF
