  0
SECTION
  2
HEADER
  9
$ACADVER
  1
AC1009
  9
$INSBASE
 10
3060.4465178753180226
 20
129.9284054164415068
 30
0.0
  9
$EXTMIN
 10
3059.0715178753180226
 20
129.9238660227404978
 30
0.0
  9
$EXTMAX
 10
3061.8215178753180226
 20
132.7984054164415113
 30
0.0
  9
$LIMMIN
 10
0.0
 20
0.0
  9
$LIMMAX
 10
11.6929133858000007
 20
8.2677165353999982
  9
$ORTHOMODE
 70
     0
  9
$REGENMODE
 70
     1
  9
$FILLMODE
 70
     1
  9
$QTEXTMODE
 70
     0
  9
$MIRRTEXT
 70
     0
  9
$DRAGMODE
 70
     2
  9
$LTSCALE
 40
0.6431102362
  9
$OSMODE
 70
  4095
  9
$ATTMODE
 70
     1
  9
$TEXTSIZE
 40
0.2
  9
$TRACEWID
 40
0.05
  9
$TEXTSTYLE
  7
STANDARD
  9
$CLAYER
  8
0
  9
$CELTYPE
  6
BYLAYER
  9
$CECOLOR
 62
   256
  9
$DIMSCALE
 40
1.0
  9
$DIMASZ
 40
0.1875
  9
$DIMEXO
 40
0.0625
  9
$DIMDLI
 40
0.4443307087
  9
$DIMRND
 40
0.0
  9
$DIMDLE
 40
0.0
  9
$DIMEXE
 40
0.125
  9
$DIMTP
 40
0.01
  9
$DIMTM
 40
0.01
  9
$DIMTXT
 40
2.0
  9
$DIMCEN
 40
0.1052362205
  9
$DIMTSZ
 40
0.0
  9
$DIMTOL
 70
     1
  9
$DIMLIM
 70
     0
  9
$DIMTIH
 70
     1
  9
$DIMTOH
 70
     1
  9
$DIMSE1
 70
     0
  9
$DIMSE2
 70
     0
  9
$DIMTAD
 70
     0
  9
$DIMZIN
 70
     0
  9
$DIMBLK
  1

  9
$DIMASO
 70
     1
  9
$DIMSHO
 70
     1
  9
$DIMPOST
  1
\X
  9
$DIMAPOST
  1

  9
$DIMALT
 70
     1
  9
$DIMALTD
 70
     2
  9
$DIMALTF
 40
25.3999999999999986
  9
$DIMLFAC
 40
1.0
  9
$DIMTOFL
 70
     0
  9
$DIMTVP
 40
0.0
  9
$DIMTIX
 70
     0
  9
$DIMSOXD
 70
     0
  9
$DIMSAH
 70
     0
  9
$DIMBLK1
  1

  9
$DIMBLK2
  1

  9
$DIMSTYLE
  2
STANDARD
  9
$DIMCLRD
 70
     0
  9
$DIMCLRE
 70
     0
  9
$DIMCLRT
 70
     0
  9
$DIMTFAC
 40
1.0
  9
$DIMGAP
 40
0.09
  9
$LUNITS
 70
     2
  9
$LUPREC
 70
     4
  9
$SKETCHINC
 40
0.1
  9
$FILLETRAD
 40
0.0
  9
$AUNITS
 70
     0
  9
$AUPREC
 70
     0
  9
$MENU
  1
.
  9
$ELEVATION
 40
0.0
  9
$PELEVATION
 40
0.0
  9
$THICKNESS
 40
0.0
  9
$LIMCHECK
 70
     0
  9
$BLIPMODE
 70
     0
  9
$CHAMFERA
 40
0.0
  9
$CHAMFERB
 40
0.0
  9
$SKPOLY
 70
     0
  9
$TDCREATE
 40
2458060.468368056230247
  9
$TDUPDATE
 40
2460124.5600694450549781
  9
$TDINDWG
 40
0.671071875
  9
$TDUSRTIMER
 40
0.671071875
  9
$USRTIMER
 70
     1
  9
$ANGBASE
 50
0.0
  9
$ANGDIR
 70
     0
  9
$PDMODE
 70
     0
  9
$PDSIZE
 40
0.3125
  9
$PLINEWID
 40
0.0
  9
$COORDS
 70
     1
  9
$SPLFRAME
 70
     0
  9
$SPLINETYPE
 70
     6
  9
$SPLINESEGS
 70
     8
  9
$ATTDIA
 70
     1
  9
$ATTREQ
 70
     1
  9
$HANDLING
 70
     1
  9
$HANDSEED
  5
2D57E
  9
$SURFTAB1
 70
     6
  9
$SURFTAB2
 70
     6
  9
$SURFTYPE
 70
     6
  9
$SURFU
 70
     6
  9
$SURFV
 70
     6
  9
$UCSNAME
  2

  9
$UCSORG
 10
0.0
 20
0.0
 30
0.0
  9
$UCSXDIR
 10
1.0
 20
0.0
 30
0.0
  9
$UCSYDIR
 10
0.0
 20
1.0
 30
0.0
  9
$PUCSNAME
  2

  9
$PUCSORG
 10
0.0
 20
0.0
 30
0.0
  9
$PUCSXDIR
 10
1.0
 20
0.0
 30
0.0
  9
$PUCSYDIR
 10
0.0
 20
1.0
 30
0.0
  9
$USERI1
 70
     0
  9
$USERI2
 70
     0
  9
$USERI3
 70
     0
  9
$USERI4
 70
     0
  9
$USERI5
 70
     0
  9
$USERR1
 40
0.0
  9
$USERR2
 40
0.0
  9
$USERR3
 40
0.0
  9
$USERR4
 40
0.0
  9
$USERR5
 40
0.0
  9
$WORLDVIEW
 70
     1
  9
$SHADEDGE
 70
     3
  9
$SHADEDIF
 70
    70
  9
$TILEMODE
 70
     1
  9
$MAXACTVP
 70
    64
  9
$PLIMCHECK
 70
     0
  9
$PEXTMIN
 10
1.0000000000000000E+20
 20
1.0000000000000000E+20
 30
1.0000000000000000E+20
  9
$PEXTMAX
 10
-1.0000000000000000E+20
 20
-1.0000000000000000E+20
 30
-1.0000000000000000E+20
  9
$PLIMMIN
 10
0.0
 20
0.0
  9
$PLIMMAX
 10
12.0
 20
9.0
  9
$UNITMODE
 70
     0
  9
$VISRETAIN
 70
     1
  9
$PLINEGEN
 70
     0
  9
$PSLTSCALE
 70
     1
  0
ENDSEC
  0
SECTION
  2
TABLES
  0
TABLE
  2
VPORT
 70
     1
  0
VPORT
  2
*ACTIVE
 70
     0
 10
0.0
 20
0.0
 11
1.0
 21
1.0
 12
-243.2465973590572048
 22
-63.9003758562967192
 13
0.0
 23
0.0
 14
1.0
 24
1.0
 15
0.0
 25
0.0
 16
0.0
 26
0.0
 36
96.5995694866707311
 17
3303.693115234375
 27
195.2615115758877096
 37
0.0
 40
2.8939401095189861
 41
1.576576576576576
 42
50.0
 43
0.0
 44
0.0
 50
0.0
 51
0.0
 71
     0
 72
   100
 73
     1
 74
     1
 75
     0
 76
     0
 77
     0
 78
     0
  0
ENDTAB
  0
TABLE
  2
LTYPE
 70
     2
  0
LTYPE
  2
CONTINUOUS
 70
     0
  3
Solid line
 72
    65
 73
     0
 40
0.0
  0
LTYPE
  2
PHANTOM2
 70
     0
  3
___ _ _ ___ _ _ ___ _ _ ___ _ _
 72
    65
 73
     6
 40
1.25
 49
0.625
 49
-0.125
 49
0.125
 49
-0.125
 49
0.125
 49
-0.125
  0
ENDTAB
  0
TABLE
  2
LAYER
 70
     2
  0
LAYER
  2
0
 70
     0
 62
   255
  6
CONTINUOUS
  0
LAYER
  2
DEFPOINTS
 70
     0
 62
     7
  6
CONTINUOUS
  0
ENDTAB
  0
TABLE
  2
STYLE
 70
     1
  0
STYLE
  2
STANDARD
 70
     0
 40
0.0
 41
0.8
 50
0.0
 71
     0
 42
0.2
  3
txt
  4

  0
ENDTAB
  0
TABLE
  2
VIEW
 70
     0
  0
ENDTAB
  0
TABLE
  2
UCS
 70
     0
  0
ENDTAB
  0
TABLE
  2
APPID
 70
     9
  0
APPID
  2
ACAD
 70
     0
  0
APPID
  2
ACAD_MLEADERVER
 70
     0
  0
APPID
  2
ACAD_EXEMPT_FROM_CAD_STANDARDS
 70
     0
  0
APPID
  2
ACAD_NAV_VCDISPLAY
 70
     0
  0
APPID
  2
ACAECLAYERSTANDARD
 70
     0
  0
APPID
  2
ACCMTRANSPARENCY
 70
     0
  0
APPID
  2
ACAD_DSTYLE_DIMJAG
 70
     0
  0
APPID
  2
ACAD_DSTYLE_DIMTALN
 70
     0
  0
APPID
  2
ACDBATTR
 70
     0
  0
ENDTAB
  0
TABLE
  2
DIMSTYLE
 70
     1
  0
DIMSTYLE
  2
STANDARD
 70
     0
  3

  4

  5

  6

  7

 40
1.0
 41
0.1875
 42
0.0625
 43
0.38
 44
0.125
 45
0.0
 46
0.0
 47
0.01
 48
0.01
140
0.15625
141
0.09
142
0.0
143
25.3999999999999986
144
1.0
145
0.0
146
1.0
147
0.09
 71
     1
 72
     0
 73
     1
 74
     1
 75
     0
 76
     0
 77
     0
 78
     4
170
     0
171
     2
172
     0
173
     0
174
     0
175
     0
176
     0
177
     0
178
     0
  0
ENDTAB
  0
ENDSEC
  0
SECTION
  2
BLOCKS
  0
BLOCK
  8
0
  2
$MODEL_SPACE
 70
     0
 10
0.0
 20
0.0
 30
0.0
  3
$MODEL_SPACE
  1

  0
ENDBLK
  5
21
  8
0
  0
BLOCK
 67
     1
  8
0
  2
$PAPER_SPACE
 70
     0
 10
0.0
 20
0.0
 30
0.0
  3
$PAPER_SPACE
  1

  0
ENDBLK
  5
1D
 67
     1
  8
0
  0
ENDSEC
  0
SECTION
  2
ENTITIES
  0
ATTDEF
  5
28FC7
  8
DEFPOINTS
 10
3060.4464287629120918
 20
129.9271993560739133
 30
0.0
 40
0.001
  1
P24614-LV
  3

  2
MODELNUMBER
 70
     0
1001
ACDBATTR
1070
     0
1070
     1
  0
ATTDEF
  5
28FC8
  8
DEFPOINTS
 10
3060.4464287629120918
 20
129.9255326894071914
 30
0.0
 40
0.001
  1
ONE
  3

  2
TRADENAME
 70
     0
1001
ACDBATTR
1070
     0
1070
     1
  0
ATTDEF
  5
28FC9
  8
DEFPOINTS
 10
3060.4464287629120918
 20
129.9238660227404978
 30
0.0
 40
0.001
  1
LEVER HANDLE
  3

  2
PRODUCT
 70
     0
1001
ACDBATTR
1070
     0
1070
     1
  0
LINE
  5
2D45C
  8
0
 10
3059.0715178753180226
 20
129.9284054164415068
 30
0.0
 11
3059.0715178753180226
 21
130.4484054164414886
 31
0.0
  0
LINE
  5
2D45D
  8
0
 10
3061.8115178761181596
 20
130.4584054164415079
 30
0.0
 11
3059.0815178746179299
 21
130.4584054164415079
 31
0.0
  0
LINE
  5
2D45E
  8
0
 10
3060.0915178753180044
 20
130.4584054164415079
 30
0.0
 11
3060.0915178753180044
 21
131.8134054164414977
 31
0.0
  0
LINE
  5
2D45F
  8
0
 10
3060.0915178753180044
 20
131.8584054164415136
 30
0.0
 11
3060.0915178753180044
 21
132.7684054164415102
 31
0.0
  0
LINE
  5
2D460
  8
0
 10
3060.3076393825181185
 20
132.7673236461415058
 30
0.0
 11
3060.340474434117823
 21
131.8573236461415092
 31
0.0
  0
LINE
  5
2D461
  8
0
 10
3060.5525613166178118
 20
131.8573236461415092
 30
0.0
 11
3060.585396368217971
 21
132.7673236461415058
 31
0.0
  0
LINE
  5
2D462
  8
0
 10
3060.8015178753180408
 20
130.4584054164415079
 30
0.0
 11
3060.8015178753180408
 21
131.8134054164414977
 31
0.0
  0
LINE
  5
2D463
  8
0
 10
3060.8015178753180408
 20
131.8584054164415136
 30
0.0
 11
3060.8015178753180408
 21
132.7684054164415102
 31
0.0
  0
LINE
  5
2D464
  8
0
 10
3060.786517875624213
 20
131.8284054164415124
 30
0.0
 11
3060.1065178751177882
 21
131.8284054164415124
 31
0.0
  0
LINE
  5
2D465
  8
0
 10
3061.8215178753180226
 20
129.9284054164415068
 30
0.0
 11
3061.8215178753180226
 21
130.4484054164414886
 31
0.0
  0
ARC
  5
2D466
  8
0
 10
3059.0815178753177861
 20
130.4484054164414886
 30
0.0
 40
0.01
 50
90.0000042055022362
 51
180.0
  0
ARC
  5
2D467
  8
0
 10
3060.370454923917805
 20
131.8584054164415136
 30
0.0
 40
0.03
 50
182.0664769855995075
 51
270.0
  0
ARC
  5
2D468
  8
0
 10
3060.3376198724340611
 20
132.7684054163997018
 30
0.0
 40
0.0300000000417828
 50
90.0
 51
182.0664769923421034
  0
ARC
  5
2D469
  8
0
 10
3060.1215178753182045
 20
132.7684054164415102
 30
0.0
 40
0.0299999999999976
 50
90.0
 51
180.0000000000032117
  0
ARC
  5
2D46A
  8
0
 10
3060.1215178753182045
 20
131.8584054164415136
 30
0.0
 40
0.03
 50
180.0
 51
270.0
  0
ARC
  5
2D46B
  8
0
 10
3060.106517875317877
 20
131.8134054164414977
 30
0.0
 40
0.015
 50
90.000001169587577
 51
180.0
  0
ARC
  5
2D46C
  8
0
 10
3061.8115178753178043
 20
130.4484054164414886
 30
0.0
 40
0.01
 50
0.0
 51
89.9999957944977638
  0
ARC
  5
2D46D
  8
0
 10
3060.5554158783179446
 20
132.7684054164415102
 30
0.0
 40
0.03
 50
357.9335230144005209
 51
90.0
  0
ARC
  5
2D46E
  8
0
 10
3060.5225808267027787
 20
131.8584054164851125
 30
0.0
 40
0.0300000000436578
 50
270.0
 51
357.9335228445020221
  0
ARC
  5
2D46F
  8
0
 10
3060.7715178753178407
 20
132.7684054164415102
 30
0.0
 40
0.03
 50
0.0
 51
90.0
  0
ARC
  5
2D470
  8
0
 10
3060.7715178753178407
 20
131.8584054164415136
 30
0.0
 40
0.03
 50
270.0
 51
0.0
  0
ARC
  5
2D471
  8
0
 10
3060.7865178753181681
 20
131.8134054164414977
 30
0.0
 40
0.015
 50
0.0
 51
89.9999988304124372
  0
LINE
  5
2D472
  8
0
 10
3059.0715178753180226
 20
129.9284054164415068
 30
0.0
 11
3061.8215178753180226
 21
129.9284054164415068
 31
0.0
  0
LINE
  5
2D474
  8
0
 10
3060.7715178753178407
 20
132.7984054164415113
 30
0.0
 11
3060.1215178753182045
 21
132.7984054164415113
 31
0.0
  0
ENDSEC
  0
EOF
