  0
SECTION
  2
HEADER
  9
$ACADVER
  1
AC1009
  9
$INSBASE
 10
3083.7404322432262234
 20
139.146997585583506
 30
0.0
  9
$EXTMIN
 10
3080.2158159648411129
 20
136.3126281969566094
 30
-0.0015258207003583
  9
$EXTMAX
 10
3087.281824044530822
 20
139.1578712099779125
 30
0.0000000349246037
  9
$LIMMIN
 10
0.0
 20
0.0
  9
$LIMMAX
 10
11.6929133858000007
 20
8.2677165353999982
  9
$ORTHOMODE
 70
     1
  9
$REGENMODE
 70
     1
  9
$FILLMODE
 70
     1
  9
$QTEXTMODE
 70
     0
  9
$MIRRTEXT
 70
     0
  9
$DRAGMODE
 70
     2
  9
$LTSCALE
 40
0.6431102362
  9
$OSMODE
 70
  4095
  9
$ATTMODE
 70
     1
  9
$TEXTSIZE
 40
0.2
  9
$TRACEWID
 40
0.05
  9
$TEXTSTYLE
  7
STANDARD
  9
$CLAYER
  8
0
  9
$CELTYPE
  6
BYLAYER
  9
$CECOLOR
 62
   256
  9
$DIMSCALE
 40
1.0
  9
$DIMASZ
 40
0.1875
  9
$DIMEXO
 40
0.0625
  9
$DIMDLI
 40
0.4443307087
  9
$DIMRND
 40
0.0
  9
$DIMDLE
 40
0.0
  9
$DIMEXE
 40
0.125
  9
$DIMTP
 40
0.01
  9
$DIMTM
 40
0.01
  9
$DIMTXT
 40
2.0
  9
$DIMCEN
 40
0.1052362205
  9
$DIMTSZ
 40
0.0
  9
$DIMTOL
 70
     1
  9
$DIMLIM
 70
     0
  9
$DIMTIH
 70
     1
  9
$DIMTOH
 70
     1
  9
$DIMSE1
 70
     0
  9
$DIMSE2
 70
     0
  9
$DIMTAD
 70
     0
  9
$DIMZIN
 70
     0
  9
$DIMBLK
  1

  9
$DIMASO
 70
     1
  9
$DIMSHO
 70
     1
  9
$DIMPOST
  1
\X
  9
$DIMAPOST
  1

  9
$DIMALT
 70
     1
  9
$DIMALTD
 70
     2
  9
$DIMALTF
 40
25.3999999999999986
  9
$DIMLFAC
 40
1.0
  9
$DIMTOFL
 70
     0
  9
$DIMTVP
 40
0.0
  9
$DIMTIX
 70
     0
  9
$DIMSOXD
 70
     0
  9
$DIMSAH
 70
     0
  9
$DIMBLK1
  1

  9
$DIMBLK2
  1

  9
$DIMSTYLE
  2
STANDARD
  9
$DIMCLRD
 70
     0
  9
$DIMCLRE
 70
     0
  9
$DIMCLRT
 70
     0
  9
$DIMTFAC
 40
1.0
  9
$DIMGAP
 40
0.09
  9
$LUNITS
 70
     2
  9
$LUPREC
 70
     4
  9
$SKETCHINC
 40
0.1
  9
$FILLETRAD
 40
0.0
  9
$AUNITS
 70
     0
  9
$AUPREC
 70
     0
  9
$MENU
  1
.
  9
$ELEVATION
 40
0.0
  9
$PELEVATION
 40
0.0
  9
$THICKNESS
 40
0.0
  9
$LIMCHECK
 70
     0
  9
$BLIPMODE
 70
     0
  9
$CHAMFERA
 40
0.0
  9
$CHAMFERB
 40
0.0
  9
$SKPOLY
 70
     0
  9
$TDCREATE
 40
2458060.468368056230247
  9
$TDUPDATE
 40
2459715.3670023148879409
  9
$TDINDWG
 40
0.434972338
  9
$TDUSRTIMER
 40
0.434972338
  9
$USRTIMER
 70
     1
  9
$ANGBASE
 50
0.0
  9
$ANGDIR
 70
     0
  9
$PDMODE
 70
     0
  9
$PDSIZE
 40
0.3125
  9
$PLINEWID
 40
0.0
  9
$COORDS
 70
     1
  9
$SPLFRAME
 70
     0
  9
$SPLINETYPE
 70
     6
  9
$SPLINESEGS
 70
     8
  9
$ATTDIA
 70
     1
  9
$ATTREQ
 70
     1
  9
$HANDLING
 70
     1
  9
$HANDSEED
  5
28C8F
  9
$SURFTAB1
 70
     6
  9
$SURFTAB2
 70
     6
  9
$SURFTYPE
 70
     6
  9
$SURFU
 70
     6
  9
$SURFV
 70
     6
  9
$UCSNAME
  2

  9
$UCSORG
 10
0.0
 20
0.0
 30
0.0
  9
$UCSXDIR
 10
1.0
 20
0.0
 30
0.0
  9
$UCSYDIR
 10
0.0
 20
1.0
 30
0.0
  9
$PUCSNAME
  2

  9
$PUCSORG
 10
0.0
 20
0.0
 30
0.0
  9
$PUCSXDIR
 10
1.0
 20
0.0
 30
0.0
  9
$PUCSYDIR
 10
0.0
 20
1.0
 30
0.0
  9
$USERI1
 70
     0
  9
$USERI2
 70
     0
  9
$USERI3
 70
     0
  9
$USERI4
 70
     0
  9
$USERI5
 70
     0
  9
$USERR1
 40
0.0
  9
$USERR2
 40
0.0
  9
$USERR3
 40
0.0
  9
$USERR4
 40
0.0
  9
$USERR5
 40
0.0
  9
$WORLDVIEW
 70
     1
  9
$SHADEDGE
 70
     3
  9
$SHADEDIF
 70
    70
  9
$TILEMODE
 70
     1
  9
$MAXACTVP
 70
    64
  9
$PLIMCHECK
 70
     0
  9
$PEXTMIN
 10
1.0000000000000000E+20
 20
1.0000000000000000E+20
 30
1.0000000000000000E+20
  9
$PEXTMAX
 10
-1.0000000000000000E+20
 20
-1.0000000000000000E+20
 30
-1.0000000000000000E+20
  9
$PLIMMIN
 10
0.0
 20
0.0
  9
$PLIMMAX
 10
12.0
 20
9.0
  9
$UNITMODE
 70
     0
  9
$VISRETAIN
 70
     1
  9
$PLINEGEN
 70
     0
  9
$PSLTSCALE
 70
     1
  0
ENDSEC
  0
SECTION
  2
TABLES
  0
TABLE
  2
VPORT
 70
     1
  0
VPORT
  2
*ACTIVE
 70
     0
 10
0.0
 20
0.0
 11
1.0
 21
1.0
 12
-719.7952473781269873
 22
11.73998750671735
 13
0.0
 23
0.0
 14
1.0
 24
1.0
 15
0.0
 25
0.0
 16
0.0
 26
0.0
 36
17.1152628219792007
 17
3803.5440673828129547
 27
125.9952621967499056
 37
0.0
 40
3.1045503264282122
 41
2.2831541218637992
 42
50.0
 43
0.0
 44
0.0
 50
0.0
 51
0.0
 71
     0
 72
   100
 73
     1
 74
     1
 75
     0
 76
     0
 77
     0
 78
     0
  0
ENDTAB
  0
TABLE
  2
LTYPE
 70
     2
  0
LTYPE
  2
CONTINUOUS
 70
     0
  3
Solid line
 72
    65
 73
     0
 40
0.0
  0
LTYPE
  2
PHANTOM2
 70
     0
  3
___ _ _ ___ _ _ ___ _ _ ___ _ _
 72
    65
 73
     6
 40
1.25
 49
0.625
 49
-0.125
 49
0.125
 49
-0.125
 49
0.125
 49
-0.125
  0
ENDTAB
  0
TABLE
  2
LAYER
 70
     2
  0
LAYER
  2
0
 70
     0
 62
   255
  6
CONTINUOUS
  0
LAYER
  2
DEFPOINTS
 70
     0
 62
     7
  6
CONTINUOUS
  0
ENDTAB
  0
TABLE
  2
STYLE
 70
     1
  0
STYLE
  2
STANDARD
 70
     0
 40
0.0
 41
0.8
 50
0.0
 71
     0
 42
0.2
  3
txt
  4

  0
ENDTAB
  0
TABLE
  2
VIEW
 70
     0
  0
ENDTAB
  0
TABLE
  2
UCS
 70
     0
  0
ENDTAB
  0
TABLE
  2
APPID
 70
    10
  0
APPID
  2
ACAD
 70
     0
  0
APPID
  2
ACAD_MLEADERVER
 70
     0
  0
APPID
  2
ACAD_EXEMPT_FROM_CAD_STANDARDS
 70
     0
  0
APPID
  2
ACAD_NAV_VCDISPLAY
 70
     0
  0
APPID
  2
ACAECLAYERSTANDARD
 70
     0
  0
APPID
  2
ACCMTRANSPARENCY
 70
     0
  0
APPID
  2
ACAD_DSTYLE_DIMJAG
 70
     0
  0
APPID
  2
ACAD_DSTYLE_DIMTALN
 70
     0
  0
APPID
  2
ACDBATTR
 70
     0
  0
APPID
  2
DCO15
 70
     0
  0
ENDTAB
  0
TABLE
  2
DIMSTYLE
 70
     1
  0
DIMSTYLE
  2
STANDARD
 70
     0
  3

  4

  5

  6

  7

 40
1.0
 41
0.1875
 42
0.0625
 43
0.38
 44
0.125
 45
0.0
 46
0.0
 47
0.01
 48
0.01
140
0.15625
141
0.09
142
0.0
143
25.3999999999999986
144
1.0
145
0.0
146
1.0
147
0.09
 71
     1
 72
     0
 73
     1
 74
     1
 75
     0
 76
     0
 77
     0
 78
     4
170
     0
171
     2
172
     0
173
     0
174
     0
175
     0
176
     0
177
     0
178
     0
  0
ENDTAB
  0
ENDSEC
  0
SECTION
  2
BLOCKS
  0
BLOCK
  8
0
  2
$MODEL_SPACE
 70
     0
 10
0.0
 20
0.0
 30
0.0
  3
$MODEL_SPACE
  1

  0
ENDBLK
  5
21
  8
0
  0
BLOCK
 67
     1
  8
0
  2
$PAPER_SPACE
 70
     0
 10
0.0
 20
0.0
 30
0.0
  3
$PAPER_SPACE
  1

  0
ENDBLK
  5
1D
 67
     1
  8
0
  0
ENDSEC
  0
SECTION
  2
ENTITIES
  0
ATTDEF
  5
28997
  8
DEFPOINTS
 10
3083.7429204542700063
 20
139.1526242543810952
 30
0.0
 40
0.001
  1
P24669-00
  3

  2
MODELNUMBER
 70
     0
1001
ACDBATTR
1070
     0
1070
     1
  0
ATTDEF
  5
28998
  8
DEFPOINTS
 10
3083.7429204542700063
 20
139.1509575877144016
 30
0.0
 40
0.001
  1
PER SE
  3

  2
TRADENAME
 70
     0
1001
ACDBATTR
1070
     0
1070
     1
  0
ATTDEF
  5
28999
  8
DEFPOINTS
 10
3083.7429204542700063
 20
139.1492909210477933
 30
0.0
 40
0.001
  1
TOWEL RING
  3

  2
PRODUCT
 70
     0
1001
ACDBATTR
1070
     0
1070
     1
  0
LINE
  5
28A96
  8
0
 10
3080.3474860911260294
 20
136.3230767616834953
 30
0.0
 11
3087.1285482494781718
 21
136.3230767616834953
 31
0.0
  0
LINE
  5
28A97
  8
0
 10
3080.3641106084260173
 20
137.0760517000834966
 30
0.0
 11
3087.1119237330258329
 21
137.0760517000834966
 31
0.0
  0
LINE
  5
28A98
  8
0
 10
3082.5909411715260831
 20
139.146997585583506
 30
0.0
 11
3084.8899233149259089
 21
139.146997585583506
 31
0.0
  0
LINE
  5
28A99
  8
0
 10
3082.6192166985551921
 20
138.7742618536503016
 30
0.0
 11
3084.8623321712389043
 21
138.7742618536503016
 31
0.0
  0
LINE
  5
28A9A
  8
0
 10
3082.5429043363260462
 20
139.0889975855835132
 30
0.0
 11
3084.9379601500259014
 21
139.0889975855835132
 31
0.0
  0
LINE
  5
28A9B
  8
0
 10
3083.266354604026219
 20
138.5905032755835009
 30
0.0
 11
3084.2096797374260859
 21
138.5905032755835009
 31
0.0
  0
ARC
  5
28A9C
  8
0
 10
3080.3641106084260173
 20
137.0169965819835056
 30
0.0
 40
0.0590551180999972
 50
89.9999999996091731
 51
178.5000000716472073
  0
LINE
  5
28A9D
  8
0
 10
3080.3050757270380018
 20
137.0185424646834917
 30
0.0
 11
3080.2884309738228694
 21
136.3821318798352991
 31
0.0
  0
ARC
  5
28A9E
  8
0
 10
3080.3474860919750427
 20
136.3821318798352991
 30
0.0
 40
0.0590551181517558
 50
180.0
 51
269.9999991765805021
  0
LINE
  5
28A9F
  8
0
 10
3082.5909411715260831
 20
139.146997585583506
 30
0.0
 11
3082.5909411715260831
 21
139.1289975855835053
 31
0.0
  0
ARC
  5
28AA0
  8
0
 10
3082.5509411715261194
 20
139.1289975855835053
 30
0.0
 40
0.0400000000000009
 50
270.0
 51
0.0
  0
ARC
  5
28AA1
  8
0
 10
3082.5429043363260462
 20
139.0789975855834939
 30
0.0
 40
0.0100000000000016
 50
90.0
 51
180.3437079973078028
  0
ARC
  5
28AA2
  8
0
 10
3084.2098743361721063
 20
139.0889975855473892
 30
0.0
 40
1.67699999411665
 50
180.3437079973078028
 51
189.2066389573321885
  0
ARC
  5
28AA3
  8
0
 10
3082.6088163767508377
 20
138.8295943833898036
 30
0.0
 40
0.055064020649552
 50
189.3113958783569046
 51
257.6068674387797159
  0
ARC
  5
28AA4
  8
0
 10
3082.6083521080968239
 20
138.8237484775953021
 30
0.0
 40
0.0492612112849241
 50
256.6749636837785147
 51
269.8852046485134792
  0
ARC
  5
28AA5
  8
0
 10
3082.6076616102131993
 20
138.479112905664806
 30
0.0
 40
0.2953750523717012
 50
87.7580138486527943
 51
89.8852046485135503
  0
ARC
  5
28AA6
  8
0
 10
3082.9961541077709626
 20
138.5174560341048959
 30
0.0
 40
0.2724952525265818
 50
18.97454113097033
 51
70.4625484720289705
  0
ARC
  5
28AA7
  8
0
 10
3084.9398760184440107
 20
139.185767234050104
 30
0.0
 40
1.7829109666921721
 50
198.9745411309702945
 51
199.2712156804593917
  0
ARC
  5
28AA8
  8
0
 10
3083.2664942121277818
 20
138.6007008667183129
 30
0.0
 40
0.0101985467286008
 50
199.2712156804578001
 51
269.2156524762361869
  0
ARC
  5
28AA9
  8
0
 10
3083.2708602820448505
 20
138.5785094563898951
 30
0.0
 40
0.0121169740398266
 50
98.1758859229478134
 51
179.4037875078250011
  0
ARC
  5
28AAA
  8
0
 10
3745.6049614915991697
 20
151.9875771979548063
 30
0.0
 40
662.4819330286845798
 50
181.1597723551523131
 51
181.2881039826970948
  0
ARC
  5
28AAB
  8
0
 10
3083.3107365091332213
 20
137.0962205286060964
 30
0.0
 40
0.0203263665843602
 50
183.0440888300252027
 51
262.8619201960925125
  0
LINE
  5
28AAC
  8
0
 10
3083.2933830216261413
 20
137.0760517000834966
 30
0.0
 11
3083.2923173006388424
 21
137.0876243703384034
 31
0.0
  0
ARC
  5
28AAD
  8
0
 10
3087.1119237330258329
 20
137.0169965819835056
 30
0.0
 40
0.0590551180999972
 50
1.499999928352779
 51
90.0000000003908269
  0
LINE
  5
28AAE
  8
0
 10
3087.1709586144138484
 20
137.0185424646834917
 30
0.0
 11
3087.1876033676289808
 21
136.3836777625365926
 31
0.0
  0
ARC
  5
28AAF
  8
0
 10
3087.1083472769478249
 20
136.4018372589436012
 30
0.0
 40
0.0813098716010408
 50
284.3854717892372719
 51
347.0948975850521947
  0
LINE
  5
28AB0
  8
0
 10
3084.8850931699262219
 20
139.146997585583506
 30
0.0
 11
3084.8850931699262219
 21
139.1289975855835053
 31
0.0
  0
ARC
  5
28AB1
  8
0
 10
3084.9250931699261855
 20
139.1289975855835053
 30
0.0
 40
0.0400000000000009
 50
180.0
 51
270.0
  0
ARC
  5
28AB2
  8
0
 10
3084.933130005125804
 20
139.0789975855834939
 30
0.0
 40
0.0100000000000016
 50
359.6562920026905203
 51
90.0
  0
ARC
  5
28AB3
  8
0
 10
3083.2661600052801987
 20
139.0889975855473892
 30
0.0
 40
1.67699999411665
 50
350.7933610426678115
 51
359.6562920026905203
  0
ARC
  5
28AB4
  8
0
 10
3084.8672179647010125
 20
138.8295943833898036
 30
0.0
 40
0.055064020649552
 50
282.3931325612202272
 51
350.6886041216430954
  0
ARC
  5
28AB5
  8
0
 10
3084.8676822333550263
 20
138.8237484775953021
 30
0.0
 40
0.0492612112849241
 50
270.1147953514865208
 51
283.3250363162214853
  0
ARC
  5
28AB6
  8
0
 10
3084.8683727312391056
 20
138.479112905664806
 30
0.0
 40
0.2953750523717012
 50
90.1147953514864355
 51
92.2419861513472341
  0
ARC
  5
28AB7
  8
0
 10
3084.4798802336808876
 20
138.5174560341048959
 30
0.0
 40
0.2724952525265818
 50
109.537451527971001
 51
161.0254588690295918
  0
ARC
  5
28AB8
  8
0
 10
3082.53615832300693
 20
139.185767234050104
 30
0.0
 40
1.7829109666921721
 50
340.7287843195406936
 51
341.0254588690297055
  0
ARC
  5
28AB9
  8
0
 10
3084.2095401293240684
 20
138.6007008667183129
 30
0.0
 40
0.0101985467286008
 50
270.7843475237638131
 51
340.7287843195421146
  0
ARC
  5
28ABA
  8
0
 10
3084.2051740594060902
 20
138.5785094563898951
 30
0.0
 40
0.0121169740398266
 50
0.5962124921750397
 51
81.8241140770521866
  0
ARC
  5
28ABB
  8
0
 10
2421.8710728498522258
 20
151.9875771979548063
 30
0.0
 40
662.4819330286845798
 50
358.7118960173028768
 51
358.8402276448475732
  0
ARC
  5
28ABC
  8
0
 10
3084.1652978323190837
 20
137.0962205286060964
 30
0.0
 40
0.0203263665843602
 50
277.1380798039074875
 51
356.9559111699747973
  0
LINE
  5
28ABD
  8
0
 10
3084.1826513198261637
 20
137.0760517000834966
 30
0.0
 11
3084.1837170408130078
 21
137.0876243703384034
 31
0.0
  0
ENDSEC
  0
EOF
