  0
SECTION
  2
HEADER
  9
$ACADVER
  1
AC1009
  9
$INSBASE
 10
4196.0405832711721814
 20
181.584522579733914
 30
0.0
  9
$EXTMIN
 10
4188.8184229028438494
 20
180.5762124157151902
 30
-0.0015258207003583
  9
$EXTMAX
 10
4203.2486867610314221
 20
182.5961426753283945
 30
0.0000000349246037
  9
$LIMMIN
 10
0.0
 20
0.0
  9
$LIMMAX
 10
11.6929133858000007
 20
8.2677165353999982
  9
$ORTHOMODE
 70
     1
  9
$REGENMODE
 70
     1
  9
$FILLMODE
 70
     1
  9
$QTEXTMODE
 70
     0
  9
$MIRRTEXT
 70
     0
  9
$DRAGMODE
 70
     2
  9
$LTSCALE
 40
0.6431102362
  9
$OSMODE
 70
  4095
  9
$ATTMODE
 70
     1
  9
$TEXTSIZE
 40
0.2
  9
$TRACEWID
 40
0.05
  9
$TEXTSTYLE
  7
STANDARD
  9
$CLAYER
  8
0
  9
$CELTYPE
  6
BYLAYER
  9
$CECOLOR
 62
   256
  9
$DIMSCALE
 40
1.0
  9
$DIMASZ
 40
0.1875
  9
$DIMEXO
 40
0.0625
  9
$DIMDLI
 40
0.4443307087
  9
$DIMRND
 40
0.0
  9
$DIMDLE
 40
0.0
  9
$DIMEXE
 40
0.125
  9
$DIMTP
 40
0.01
  9
$DIMTM
 40
0.01
  9
$DIMTXT
 40
2.0
  9
$DIMCEN
 40
0.1052362205
  9
$DIMTSZ
 40
0.0
  9
$DIMTOL
 70
     1
  9
$DIMLIM
 70
     0
  9
$DIMTIH
 70
     1
  9
$DIMTOH
 70
     1
  9
$DIMSE1
 70
     0
  9
$DIMSE2
 70
     0
  9
$DIMTAD
 70
     0
  9
$DIMZIN
 70
     0
  9
$DIMBLK
  1

  9
$DIMASO
 70
     1
  9
$DIMSHO
 70
     1
  9
$DIMPOST
  1
\X
  9
$DIMAPOST
  1

  9
$DIMALT
 70
     1
  9
$DIMALTD
 70
     2
  9
$DIMALTF
 40
25.3999999999999986
  9
$DIMLFAC
 40
1.0
  9
$DIMTOFL
 70
     0
  9
$DIMTVP
 40
0.0
  9
$DIMTIX
 70
     0
  9
$DIMSOXD
 70
     0
  9
$DIMSAH
 70
     0
  9
$DIMBLK1
  1

  9
$DIMBLK2
  1

  9
$DIMSTYLE
  2
STANDARD
  9
$DIMCLRD
 70
     0
  9
$DIMCLRE
 70
     0
  9
$DIMCLRT
 70
     0
  9
$DIMTFAC
 40
1.0
  9
$DIMGAP
 40
0.09
  9
$LUNITS
 70
     2
  9
$LUPREC
 70
     4
  9
$SKETCHINC
 40
0.1
  9
$FILLETRAD
 40
0.0
  9
$AUNITS
 70
     0
  9
$AUPREC
 70
     0
  9
$MENU
  1
.
  9
$ELEVATION
 40
0.0
  9
$PELEVATION
 40
0.0
  9
$THICKNESS
 40
0.0
  9
$LIMCHECK
 70
     0
  9
$BLIPMODE
 70
     0
  9
$CHAMFERA
 40
0.0
  9
$CHAMFERB
 40
0.0
  9
$SKPOLY
 70
     0
  9
$TDCREATE
 40
2458060.468368056230247
  9
$TDUPDATE
 40
2459484.7686226852238178
  9
$TDINDWG
 40
0.4403658565
  9
$TDUSRTIMER
 40
0.4403658565
  9
$USRTIMER
 70
     1
  9
$ANGBASE
 50
0.0
  9
$ANGDIR
 70
     0
  9
$PDMODE
 70
     0
  9
$PDSIZE
 40
0.3125
  9
$PLINEWID
 40
0.0
  9
$COORDS
 70
     1
  9
$SPLFRAME
 70
     0
  9
$SPLINETYPE
 70
     6
  9
$SPLINESEGS
 70
     8
  9
$ATTDIA
 70
     1
  9
$ATTREQ
 70
     1
  9
$HANDLING
 70
     1
  9
$HANDSEED
  5
EE9E
  9
$SURFTAB1
 70
     6
  9
$SURFTAB2
 70
     6
  9
$SURFTYPE
 70
     6
  9
$SURFU
 70
     6
  9
$SURFV
 70
     6
  9
$UCSNAME
  2

  9
$UCSORG
 10
0.0
 20
0.0
 30
0.0
  9
$UCSXDIR
 10
1.0
 20
0.0
 30
0.0
  9
$UCSYDIR
 10
0.0
 20
1.0
 30
0.0
  9
$PUCSNAME
  2

  9
$PUCSORG
 10
0.0
 20
0.0
 30
0.0
  9
$PUCSXDIR
 10
1.0
 20
0.0
 30
0.0
  9
$PUCSYDIR
 10
0.0
 20
1.0
 30
0.0
  9
$USERI1
 70
     0
  9
$USERI2
 70
     0
  9
$USERI3
 70
     0
  9
$USERI4
 70
     0
  9
$USERI5
 70
     0
  9
$USERR1
 40
0.0
  9
$USERR2
 40
0.0
  9
$USERR3
 40
0.0
  9
$USERR4
 40
0.0
  9
$USERR5
 40
0.0
  9
$WORLDVIEW
 70
     1
  9
$SHADEDGE
 70
     3
  9
$SHADEDIF
 70
    70
  9
$TILEMODE
 70
     1
  9
$MAXACTVP
 70
    64
  9
$PLIMCHECK
 70
     0
  9
$PEXTMIN
 10
1.0000000000000000E+20
 20
1.0000000000000000E+20
 30
1.0000000000000000E+20
  9
$PEXTMAX
 10
-1.0000000000000000E+20
 20
-1.0000000000000000E+20
 30
-1.0000000000000000E+20
  9
$PLIMMIN
 10
0.0
 20
0.0
  9
$PLIMMAX
 10
12.0
 20
9.0
  9
$UNITMODE
 70
     0
  9
$VISRETAIN
 70
     1
  9
$PLINEGEN
 70
     0
  9
$PSLTSCALE
 70
     1
  0
ENDSEC
  0
SECTION
  2
TABLES
  0
TABLE
  2
VPORT
 70
     1
  0
VPORT
  2
*ACTIVE
 70
     0
 10
0.0
 20
0.0
 11
1.0
 21
1.0
 12
392.4894874491255905
 22
55.590915348771901
 13
0.0
 23
0.0
 14
1.0
 24
1.0
 15
0.0
 25
0.0
 16
0.0
 26
0.0
 36
17.1152628219792007
 17
3803.5440673828129547
 27
125.9952621967499056
 37
0.0
 40
5.2224503215594176
 41
2.7718023255813948
 42
50.0
 43
0.0
 44
0.0
 50
0.0
 51
0.0
 71
     0
 72
   100
 73
     1
 74
     1
 75
     0
 76
     0
 77
     0
 78
     0
  0
ENDTAB
  0
TABLE
  2
LTYPE
 70
     2
  0
LTYPE
  2
CONTINUOUS
 70
     0
  3
Solid line
 72
    65
 73
     0
 40
0.0
  0
LTYPE
  2
PHANTOM2
 70
     0
  3
___ _ _ ___ _ _ ___ _ _ ___ _ _
 72
    65
 73
     6
 40
1.25
 49
0.625
 49
-0.125
 49
0.125
 49
-0.125
 49
0.125
 49
-0.125
  0
ENDTAB
  0
TABLE
  2
LAYER
 70
     2
  0
LAYER
  2
0
 70
     0
 62
   255
  6
CONTINUOUS
  0
LAYER
  2
DEFPOINTS
 70
     0
 62
     7
  6
CONTINUOUS
  0
ENDTAB
  0
TABLE
  2
STYLE
 70
     1
  0
STYLE
  2
STANDARD
 70
     0
 40
0.0
 41
0.8
 50
0.0
 71
     0
 42
0.2
  3
txt
  4

  0
ENDTAB
  0
TABLE
  2
VIEW
 70
     0
  0
ENDTAB
  0
TABLE
  2
UCS
 70
     0
  0
ENDTAB
  0
TABLE
  2
APPID
 70
     9
  0
APPID
  2
ACAD
 70
     0
  0
APPID
  2
ACAD_MLEADERVER
 70
     0
  0
APPID
  2
ACAD_EXEMPT_FROM_CAD_STANDARDS
 70
     0
  0
APPID
  2
ACAD_NAV_VCDISPLAY
 70
     0
  0
APPID
  2
ACAECLAYERSTANDARD
 70
     0
  0
APPID
  2
ACCMTRANSPARENCY
 70
     0
  0
APPID
  2
ACAD_DSTYLE_DIMJAG
 70
     0
  0
APPID
  2
ACAD_DSTYLE_DIMTALN
 70
     0
  0
APPID
  2
ACDBATTR
 70
     0
  0
ENDTAB
  0
TABLE
  2
DIMSTYLE
 70
     1
  0
DIMSTYLE
  2
STANDARD
 70
     0
  3

  4

  5

  6

  7

 40
1.0
 41
0.1875
 42
0.0625
 43
0.38
 44
0.125
 45
0.0
 46
0.0
 47
0.01
 48
0.01
140
0.15625
141
0.09
142
0.0
143
25.3999999999999986
144
1.0
145
0.0
146
1.0
147
0.09
 71
     1
 72
     0
 73
     1
 74
     1
 75
     0
 76
     0
 77
     0
 78
     4
170
     0
171
     2
172
     0
173
     0
174
     0
175
     0
176
     0
177
     0
178
     0
  0
ENDTAB
  0
ENDSEC
  0
SECTION
  2
BLOCKS
  0
BLOCK
  8
0
  2
$MODEL_SPACE
 70
     0
 10
0.0
 20
0.0
 30
0.0
  3
$MODEL_SPACE
  1

  0
ENDBLK
  5
21
  8
0
  0
BLOCK
 67
     1
  8
0
  2
$PAPER_SPACE
 70
     0
 10
0.0
 20
0.0
 30
0.0
  3
$PAPER_SPACE
  1

  0
ENDBLK
  5
1D
 67
     1
  8
0
  0
BLOCK
  8
0
  2
_FILLED
 70
     0
 10
0.0
 20
0.0
 30
0.0
  3
_FILLED
  1

  0
SOLID
  5
EC8B
  8
0
  6
BYBLOCK
 62
     0
 10
0.0
 20
0.0
 30
0.0
 11
-1.0
 21
0.1666666667
 31
0.0
 12
-1.0
 22
-0.1666666667
 32
0.0
 13
-1.0
 23
-0.1666666667
 33
0.0
  0
ENDBLK
  5
EC8C
  8
0
  6
BYBLOCK
 62
     0
  0
ENDSEC
  0
SECTION
  2
ENTITIES
  0
ATTDEF
  5
E9F3
  8
DEFPOINTS
 10
4196.0406626234516807
 20
181.5882936991876875
 30
0.0
 40
0.001
  1
P24702-LV
  3

  2
MODELNUMBER
 70
     0
1001
ACDBATTR
1070
     0
1070
     1
  0
ATTDEF
  5
E9F4
  8
DEFPOINTS
 10
4196.0406626234516807
 20
181.5866270325209939
 30
0.0
 40
0.001
  1
PER SE
  3

  2
TRADENAME
 70
     0
1001
ACDBATTR
1070
     0
1070
     1
  0
ATTDEF
  5
E9F5
  8
DEFPOINTS
 10
4196.0406626234516807
 20
181.5849603658543003
 30
0.0
 40
0.001
  1
BATHROOM SINK FAUCET
  3

  2
PRODUCT
 70
     0
1001
ACDBATTR
1070
     0
1070
     1
  0
ARC
  5
ED16
  8
0
 10
4191.7078781403452012
 20
181.9165417925896122
 30
0.0
 40
0.1734242592938663
 50
98.0407252902405588
 51
146.3037565933707924
  0
ARC
  5
ED17
  8
0
 10
4192.0405801497727225
 20
179.3362003131618962
 30
0.0
 40
2.7751142429000089
 50
82.6094995876906921
 51
97.3903724480903605
  0
ARC
  5
ED18
  8
0
 10
4192.3733052573097666
 20
181.916663760850696
 30
0.0
 40
0.173300329566041
 50
12.1701428688764697
 51
81.9591467455313136
  0
ARC
  5
ED19
  8
0
 10
4190.4630167234272449
 20
181.5521809798823938
 30
0.0
 40
2.1180043157675681
 50
0.8749317375675918
 51
10.9141108353601997
  0
ARC
  5
ED1A
  8
0
 10
4191.0710838783861618
 20
196.1232301818621977
 30
0.0
 40
14.1190668915747697
 50
271.1075592714519757
 51
271.9990197817078865
  0
ARC
  5
ED1B
  8
0
 10
4190.9845329296176715
 20
188.9229797525846948
 30
0.0
 40
6.9255137294905973
 50
269.7107297632495033
 51
272.9752294669094113
  0
ARC
  5
ED1C
  8
0
 10
3262.3627100733679072
 20
114010.0496047980996082
 30
0.0
 40
113831.8396019618958235
 50
270.4664838540862775
 51
270.4673973306651078
  0
ARC
  5
ED1D
  8
0
 10
4189.1404946232441944
 20
181.8273359112641003
 30
0.0
 40
0.1555329612919988
 50
92.102847804161172
 51
166.9895171292637031
  0
ARC
  5
ED1E
  8
0
 10
4190.3419037602780008
 20
181.5847003391376973
 30
0.0
 40
1.3811451486830091
 50
168.4028455597751019
 51
180.0073742167074897
  0
ARC
  5
ED1F
  8
0
 10
4195.2701975671270702
 20
181.5853710265029974
 30
0.0
 40
4.4426012882444761
 50
171.5699517298565979
 51
174.6873289172804959
  0
ARC
  5
ED20
  8
0
 10
4191.24656287036305
 20
182.1816860457822997
 30
0.0
 40
0.3750187414215306
 50
94.8851464394260944
 51
171.5699517298565979
  0
ARC
  5
ED21
  8
0
 10
4192.0405832040778478
 20
172.8915408828771945
 30
0.0
 40
9.6990342625477126
 50
85.1148560343209653
 51
94.8851464394260944
  0
ARC
  5
ED22
  8
0
 10
4192.8346030786533447
 20
182.1816854010778002
 30
0.0
 40
0.3750194228838043
 50
8.4301253560650942
 51
85.1148560343209653
  0
ARC
  5
ED23
  8
0
 10
4188.805285221405029
 20
181.5845225798339015
 30
0.0
 40
4.4483480162834548
 50
359.9999999987119281
 51
8.4301253560650942
  0
ARC
  5
ED25
  8
0
 10
4191.7078781403452012
 20
181.252491446302912
 30
0.0
 40
0.1734242592938663
 50
213.6962434066292076
 51
261.959274709759427
  0
ARC
  5
ED26
  8
0
 10
4192.0405801497727225
 20
183.8328329257305995
 30
0.0
 40
2.7751142429000089
 50
262.6096275519096253
 51
277.3905004123092795
  0
ARC
  5
ED27
  8
0
 10
4192.3847325472670491
 20
181.2425872714721891
 30
0.0
 40
0.1623208948031219
 50
274.527710839600104
 51
346.7168922572419092
  0
ARC
  5
ED28
  8
0
 10
4190.3415356158566283
 20
181.6177488915627976
 30
0.0
 40
2.239484979400673
 50
349.3869688485787037
 51
359.1498950398636794
  0
ARC
  5
ED29
  8
0
 10
4191.0703171722552725
 20
167.0457882359918926
 30
0.0
 40
14.1191084689064805
 50
87.9978728924962468
 51
88.8893320902065938
  0
ARC
  5
ED2A
  8
0
 10
4190.9845329296176715
 20
174.2460654068831047
 30
0.0
 40
6.9255137294905973
 50
87.024770533090603
 51
90.2892702367504256
  0
ARC
  5
ED2B
  8
0
 10
3262.3627100733679072
 20
-113646.8805596385936951
 30
0.0
 40
113831.8396019618958235
 50
89.532602669334878
 51
89.5335161459136657
  0
ARC
  5
ED2C
  8
0
 10
4189.1404946232441944
 20
181.3417092482038129
 30
0.0
 40
0.1555329612919988
 50
193.0104828707362969
 51
267.897152195838828
  0
ARC
  5
ED2D
  8
0
 10
4190.3419037602780008
 20
181.5843448203301875
 30
0.0
 40
1.381145148683004
 50
179.9926257832925103
 51
191.5971544402248128
  0
ARC
  5
ED2E
  8
0
 10
4195.2701975671270702
 20
181.5836741329648873
 30
0.0
 40
4.4426012882444761
 50
185.3126710827193904
 51
188.4300482701432884
  0
ARC
  5
ED2F
  8
0
 10
4191.24656287036305
 20
180.9873591136854998
 30
0.0
 40
0.3750187414215306
 50
188.4300482701432884
 51
265.1148535605739198
  0
ARC
  5
ED30
  8
0
 10
4192.0405832040778478
 20
190.2775042765906903
 30
0.0
 40
9.6990342625477126
 50
265.1148535605739198
 51
274.8851439656789921
  0
ARC
  5
ED31
  8
0
 10
4192.8346030786533447
 20
180.9873597583899993
 30
0.0
 40
0.3750194228838043
 50
274.8851439656789921
 51
351.5698746439348952
  0
ARC
  5
ED32
  8
0
 10
4188.805285221405029
 20
181.584522579633898
 30
0.0
 40
4.4483480162834548
 50
351.5698746439348952
 51
0.0000000012880992
  0
ARC
  5
ED33
  8
0
 10
4196.0405832711721814
 20
190.2489776578817953
 30
0.0
 40
9.6654627702979088
 50
265.1231184257217137
 51
270.0
  0
ARC
  5
ED34
  8
0
 10
4195.2507310013552342
 20
180.9918619204705124
 30
0.0
 40
0.3747115421160092
 50
188.0964240510446075
 51
265.1231184257217137
  0
ARC
  5
ED35
  8
0
 10
4199.4168333090938177
 20
181.5845208029473099
 30
0.0
 40
4.5827577621004467
 50
171.9035344929758082
 51
188.0964240510446075
  0
ARC
  5
ED36
  8
0
 10
4195.2507321587636397
 20
182.177182596131388
 30
0.0
 40
0.3747122780442896
 50
94.8770623399012152
 51
171.9035344929758082
  0
ARC
  5
ED37
  8
0
 10
4196.0405529359532011
 20
172.920780713219699
 30
0.0
 40
9.6647495588118542
 50
89.9998201629305044
 51
94.8770623399012152
  0
ARC
  5
ED38
  8
0
 10
4195.4381635374047619
 20
187.54230907133919
 30
0.0
 40
5.7238463649286002
 50
270.8646865452151928
 51
272.4943313591801939
  0
ARC
  5
ED39
  8
0
 10
4195.5327505846244094
 20
181.679336083723598
 30
0.0
 40
0.1400192296288162
 50
93.3607049241849154
 51
178.1221827713019934
  0
ARC
  5
ED3A
  8
0
 10
4197.4021382408809586
 20
181.6190266231795931
 30
0.0
 40
2.0103794552494532
 50
178.1500969348294063
 51
181.9388137635586133
  0
ARC
  5
ED3B
  8
0
 10
4195.5328678398245756
 20
181.5557770364409009
 30
0.0
 40
0.1400392907153556
 50
181.9503519949419115
 51
262.6919135508949807
  0
ARC
  5
ED3C
  8
0
 10
4194.7595521554585503
 20
172.4730918785996039
 30
0.0
 40
8.9756362564912155
 50
84.1825399504207041
 51
85.1715559976985475
  0
ARC
  5
ED3D
  8
0
 10
4196.0620332620692352
 20
184.0908143321385069
 30
0.0
 40
2.7168449229343801
 50
261.688875226147502
 51
269.5470259272163958
  0
ARC
  5
ED3E
  8
0
 10
4196.0570805053666845
 20
221.2995284422098905
 30
0.0
 40
40.0523763300487303
 50
269.5793631209318733
 51
269.9763985822693826
  0
ARC
  5
ED3F
  8
0
 10
4195.8130840049652761
 20
187.9116821665188013
 30
0.0
 40
6.6636386237750767
 50
268.618208975628022
 51
269.5696926756721155
  0
ARC
  5
ED40
  8
0
 10
4195.6545747404343274
 20
181.3403910653314881
 30
0.0
 40
0.0904360615923195
 50
262.1241800260083892
 51
268.618208975628022
  0
ARC
  5
ED41
  8
0
 10
4195.6461111697371962
 20
181.279207747150906
 30
0.0
 40
0.0286701288094933
 50
194.4232190861679044
 51
262.1241800260083892
  0
ARC
  5
ED42
  8
0
 10
4195.470641181672363
 20
181.2550750604034988
 30
0.0
 40
0.1486775926599166
 50
6.5623261669259714
 51
29.3363723570448798
  0
ARC
  5
ED43
  8
0
 10
4195.4703400442576822
 20
181.2554573157165123
 30
0.0
 40
0.1487536080467221
 50
29.1511918145460101
 51
65.2473555901010656
  0
ARC
  5
ED44
  8
0
 10
4195.5665208869777416
 20
181.5395504008056946
 30
0.0
 40
0.1501902833293355
 50
221.4962076739602139
 51
242.968221170202213
  0
ARC
  5
ED45
  8
0
 10
4195.6543571880683885
 20
181.7117027332259909
 30
0.0
 40
0.3434560106244802
 50
242.968221170202213
 51
249.2410130246148867
  0
ARC
  5
ED46
  8
0
 10
4195.7530279590464488
 20
180.1560276255119959
 30
0.0
 40
1.098887208026901
 50
90.0579444486197218
 51
93.7922770611741754
  0
ARC
  5
ED47
  8
0
 10
4195.7427555811918864
 20
190.3134061145325973
 30
0.0
 40
9.0584964753320154
 50
270.0579444486198213
 51
270.9766020276925929
  0
ARC
  5
ED48
  8
0
 10
4195.9802532152161803
 20
176.3811247357957086
 30
0.0
 40
4.8758090165992281
 50
89.2910415928945582
 51
90.976602027692536
  0
ARC
  5
ED49
  8
0
 10
4195.7902872710610609
 20
181.3261894317546989
 30
0.0
 40
0.080952117395333
 50
241.6980063272937969
 51
244.9451158847392094
  0
ARC
  5
ED4A
  8
0
 10
4195.7622067180036538
 20
181.2764729652247127
 30
0.0
 40
0.0244188776656636
 50
255.2877020652512954
 51
267.9870712343089849
  0
ARC
  5
ED4B
  8
0
 10
4195.9166279205655883
 20
185.6700922876721904
 30
0.0
 40
4.4207510601087172
 50
267.9870712343089849
 51
268.5126980437726729
  0
ARC
  5
ED4C
  8
0
 10
4195.9466457846647245
 20
190.1337475105638077
 30
0.0
 40
8.8840964024667084
 50
269.0663634286412957
 51
269.642584380178107
  0
ARC
  5
ED4D
  8
0
 10
4195.6289176911632239
 20
76.5948450641769227
 30
0.0
 40
104.6553076263121937
 50
89.7746233362683057
 51
89.8563933293342245
  0
ARC
  5
ED4E
  8
0
 10
4195.8965532440861352
 20
178.1636210703011898
 30
0.0
 40
3.0915644281246868
 50
90.1413931811242435
 51
92.3841614945505825
  0
ARC
  5
ED4F
  8
0
 10
4196.2975679388000572
 20
80.0611568956639132
 30
0.0
 40
101.1948442833870985
 50
90.1455028591418426
 51
90.231371855134114
  0
ARC
  5
ED50
  8
0
 10
4195.7177036526472875
 20
179.6876155935283066
 30
0.0
 40
1.56570007227954
 50
86.7141876695800278
 51
88.1611043346903358
  0
ARC
  5
ED51
  8
0
 10
4196.0416631174894064
 20
177.6400885167653882
 30
0.0
 40
4.3586651824828282
 50
90.0141948588700274
 51
98.7151204744076267
  0
ARC
  5
ED52
  8
0
 10
4195.4028749932731444
 20
181.8101449501839113
 30
0.0
 40
0.1399639546000028
 50
98.8960593864846942
 51
168.8159013341000048
  0
ARC
  5
ED53
  8
0
 10
4196.5440245569016042
 20
181.5845203545844981
 30
0.0
 40
1.3032045938106951
 50
168.8159013341000048
 51
191.1843043971898055
  0
ARC
  5
ED54
  8
0
 10
4195.4028678654740361
 20
181.358890091976491
 30
0.0
 40
0.1399558629728214
 50
191.1843043971913119
 51
261.3651880555647153
  0
ARC
  5
ED55
  8
0
 10
4196.0474349702508334
 20
185.6034475053563142
 30
0.0
 40
4.4331754459940846
 50
261.3651880555647153
 51
269.9114464110882068
  0
ARC
  5
ED56
  8
0
 10
4196.0406341817915745
 20
172.881393901430414
 30
0.0
 40
8.9494790352943934
 50
90.000322155310414
 51
92.262881859081844
  0
ARC
  5
ED57
  8
0
 10
4200.3732884020000711
 20
181.9165417925896122
 30
0.0
 40
0.1734242592938663
 50
33.6962434066292005
 51
81.959274709759427
  0
ARC
  5
ED58
  8
0
 10
4200.0405863925743688
 20
179.3362003131618962
 30
0.0
 40
2.7751142429000089
 50
82.6096275519096537
 51
97.3905004123093221
  0
ARC
  5
ED59
  8
0
 10
4199.7078612850364152
 20
181.916663760850696
 30
0.0
 40
0.173300329566041
 50
98.0408532544687006
 51
167.8298571311235037
  0
ARC
  5
ED5A
  8
0
 10
4201.6181498189180274
 20
181.5521809798823938
 30
0.0
 40
2.1180043157675681
 50
169.0858891646398092
 51
179.1250682624323929
  0
ARC
  5
ED5B
  8
0
 10
4201.0100826639591105
 20
196.1232301818621977
 30
0.0
 40
14.1190668915747697
 50
268.0009802182921135
 51
268.8924407285480243
  0
ARC
  5
ED5C
  8
0
 10
4201.0966336127294198
 20
188.9229797525846948
 30
0.0
 40
6.9255137294905973
 50
267.0247705330905887
 51
270.289270236750383
  0
ARC
  5
ED5D
  8
0
 10
5129.7184564689778199
 20
114010.0496047980996082
 30
0.0
 40
113831.8396019618958235
 50
269.5326026693348922
 51
269.5335161459137225
  0
ARC
  5
ED5E
  8
0
 10
4202.9406719191019874
 20
181.8273359112641003
 30
0.0
 40
0.1555329612919988
 50
13.0104828707362508
 51
87.8971521958388138
  0
ARC
  5
ED5F
  8
0
 10
4201.739262782068181
 20
181.5847003391376973
 30
0.0
 40
1.3811451486830091
 50
359.9926257832925103
 51
11.5971544402248607
  0
ARC
  5
ED60
  8
0
 10
4196.8109689752191116
 20
181.5853710265029974
 30
0.0
 40
4.4426012882444761
 50
5.3126710827194561
 51
8.4300482701433737
  0
ARC
  5
ED61
  8
0
 10
4200.8346036719831318
 20
182.1816860457822997
 30
0.0
 40
0.3750187414215306
 50
8.4300482701433737
 51
85.1148535605739056
  0
ARC
  5
ED62
  8
0
 10
4200.040583338268334
 20
172.8915408828771945
 30
0.0
 40
9.6990342625477126
 50
85.1148535605739056
 51
94.8851439656790205
  0
ARC
  5
ED63
  8
0
 10
4199.2465634636928371
 20
182.1816854010778002
 30
0.0
 40
0.3750194228838043
 50
94.8851439656790205
 51
171.5698746439348952
  0
ARC
  5
ED64
  8
0
 10
4203.2758813209411528
 20
181.5845225798339015
 30
0.0
 40
4.4483480162834548
 50
171.5698746439348952
 51
180.0000000012881003
  0
ARC
  5
ED65
  8
0
 10
4200.3732884020000711
 20
181.252491446302912
 30
0.0
 40
0.1734242592938663
 50
278.040725290240573
 51
326.3037565933707924
  0
ARC
  5
ED66
  8
0
 10
4200.0405863925743688
 20
183.8328329257305995
 30
0.0
 40
2.7751142429000089
 50
262.6094995876907205
 51
277.3903724480903179
  0
ARC
  5
ED67
  8
0
 10
4199.6964339950782232
 20
181.2425872714721891
 30
0.0
 40
0.1623208948031219
 50
193.2831077427580055
 51
265.472289160399896
  0
ARC
  5
ED68
  8
0
 10
4201.7396309264877345
 20
181.6177488915627976
 30
0.0
 40
2.239484979400673
 50
180.8501049601362922
 51
190.613031151421211
  0
ARC
  5
ED69
  8
0
 10
4201.0108493700909094
 20
167.0457882359918926
 30
0.0
 40
14.1191084689064805
 50
91.1106679097934062
 51
92.0021271075037532
  0
ARC
  5
ED6A
  8
0
 10
4201.0966336127294198
 20
174.2460654068831047
 30
0.0
 40
6.9255137294905973
 50
89.7107297632495744
 51
92.9752294669094113
  0
ARC
  5
ED6B
  8
0
 10
5129.7184564689778199
 20
-113646.8805596385936951
 30
0.0
 40
113831.8396019618958235
 50
90.4664838540863343
 51
90.467397330665122
  0
ARC
  5
ED6C
  8
0
 10
4202.9406719191019874
 20
181.3417092482038129
 30
0.0
 40
0.1555329612919988
 50
272.102847804161172
 51
346.9895171292637883
  0
ARC
  5
ED6D
  8
0
 10
4201.739262782068181
 20
181.5843448203301875
 30
0.0
 40
1.381145148683004
 50
348.4028455597750735
 51
0.0073742167075291
  0
ARC
  5
ED6E
  8
0
 10
4196.8109689752191116
 20
181.5836741329648873
 30
0.0
 40
4.4426012882444761
 50
351.5699517298567116
 51
354.6873289172805812
  0
ARC
  5
ED6F
  8
0
 10
4200.8346036719831318
 20
180.9873591136854998
 30
0.0
 40
0.3750187414215306
 50
274.8851464394260802
 51
351.5699517298567116
  0
ARC
  5
ED70
  8
0
 10
4200.040583338268334
 20
190.2775042765906903
 30
0.0
 40
9.6990342625477126
 50
265.1148560343210079
 51
274.8851464394260802
  0
ARC
  5
ED71
  8
0
 10
4199.2465634636928371
 20
180.9873597583899993
 30
0.0
 40
0.3750194228838043
 50
188.4301253560649911
 51
265.1148560343210079
  0
ARC
  5
ED72
  8
0
 10
4203.2758813209411528
 20
181.584522579633898
 30
0.0
 40
4.4483480162834548
 50
179.9999999987118997
 51
188.4301253560649911
  0
ARC
  5
ED73
  8
0
 10
4196.0405832711721814
 20
190.2489776578817953
 30
0.0
 40
9.6654627702979088
 50
270.0
 51
274.8768815742784
  0
ARC
  5
ED74
  8
0
 10
4196.8304355409909476
 20
180.9918619204705124
 30
0.0
 40
0.3747115421160092
 50
274.8768815742784
 51
351.9035759489553925
  0
ARC
  5
ED75
  8
0
 10
4192.6643332332523642
 20
181.5845208029473099
 30
0.0
 40
4.5827577621004467
 50
351.9035759489553925
 51
8.0964655070241367
  0
ARC
  5
ED76
  8
0
 10
4196.8304343835816326
 20
182.177182596131388
 30
0.0
 40
0.3747122780442896
 50
8.0964655070241367
 51
85.1229376600987706
  0
ARC
  5
ED77
  8
0
 10
4196.0406136063929807
 20
172.920780713219699
 30
0.0
 40
9.6647495588118542
 50
85.1229376600987706
 51
90.0001798370694956
  0
ARC
  5
ED78
  8
0
 10
4196.6430030049414199
 20
187.54230907133919
 30
0.0
 40
5.7238463649286002
 50
267.5056686408198061
 51
269.1353134547848072
  0
ARC
  5
ED79
  8
0
 10
4196.5484159577208629
 20
181.679336083723598
 30
0.0
 40
0.1400192296288162
 50
1.8778172286980279
 51
86.639295075815113
  0
ARC
  5
ED7A
  8
0
 10
4194.6790283014643137
 20
181.6190266231795931
 30
0.0
 40
2.0103794552494532
 50
358.0611862364414151
 51
1.849903065170541
  0
ARC
  5
ED7B
  8
0
 10
4196.5482987025197872
 20
181.5557770364409009
 30
0.0
 40
0.1400392907153556
 50
277.3080864491050193
 51
358.0496480050579748
  0
ARC
  5
ED7C
  8
0
 10
4197.3216143868867221
 20
172.4730918785996039
 30
0.0
 40
8.9756362564912155
 50
94.8284440023014383
 51
95.8174600495792816
  0
ARC
  5
ED7D
  8
0
 10
4196.0191332802778561
 20
184.0908143321385069
 30
0.0
 40
2.7168449229343801
 50
270.4529740727834906
 51
278.311124773852498
  0
ARC
  5
ED7E
  8
0
 10
4196.0240860369785878
 20
221.2995284422098905
 30
0.0
 40
40.0523763300487303
 50
270.0236014177306174
 51
270.4206368790681267
  0
ARC
  5
ED7F
  8
0
 10
4196.2680825373809057
 20
187.9116821665188013
 30
0.0
 40
6.6636386237750767
 50
270.4303073243278845
 51
271.381791024371978
  0
ARC
  5
ED80
  8
0
 10
4196.4265918019118544
 20
181.3403910653314881
 30
0.0
 40
0.0904360615923195
 50
271.381791024371978
 51
277.8758199739916108
  0
ARC
  5
ED81
  8
0
 10
4196.4350553726089856
 20
181.279207747150906
 30
0.0
 40
0.0286701288094933
 50
277.8758199739916108
 51
345.576780913832124
  0
ARC
  5
ED82
  8
0
 10
4196.6105253606738188
 20
181.2550750604034988
 30
0.0
 40
0.1486775926599166
 50
150.663627642955106
 51
173.4376738330740011
  0
ARC
  5
ED83
  8
0
 10
4196.6108264980866807
 20
181.2554573157165123
 30
0.0
 40
0.1487536080467221
 50
114.752644409898906
 51
150.8488081854540042
  0
ARC
  5
ED84
  8
0
 10
4196.5146456553684402
 20
181.5395504008056946
 30
0.0
 40
0.1501902833293355
 50
297.0317788297978154
 51
318.5037923260398998
  0
ARC
  5
ED85
  8
0
 10
4196.4268093542768838
 20
181.7117027332259909
 30
0.0
 40
0.3434560106244802
 50
290.7589869753850849
 51
297.0317788297978154
  0
ARC
  5
ED86
  8
0
 10
4196.3281385832988235
 20
180.1560276255119959
 30
0.0
 40
1.098887208026901
 50
86.2077229388258246
 51
89.9420555513802782
  0
ARC
  5
ED87
  8
0
 10
4196.3384109611542954
 20
190.3134061145325973
 30
0.0
 40
9.0584964753320154
 50
269.0233979723075208
 51
269.9420555513801787
  0
ARC
  5
ED88
  8
0
 10
4196.1009133271300016
 20
176.3811247357957086
 30
0.0
 40
4.8758090165992281
 50
89.0233979723074356
 51
90.708958407105456
  0
ARC
  5
ED89
  8
0
 10
4196.2908792712842114
 20
181.3261894317546989
 30
0.0
 40
0.080952117395333
 50
295.0548841152607906
 51
298.3019936727063168
  0
ARC
  5
ED8A
  8
0
 10
4196.318959824340709
 20
181.2764729652247127
 30
0.0
 40
0.0244188776656636
 50
272.0129287656910151
 51
284.7122979347486762
  0
ARC
  5
ED8B
  8
0
 10
4196.1645386217787745
 20
185.6700922876721904
 30
0.0
 40
4.4207510601087172
 50
271.4873019562273271
 51
272.0129287656910151
  0
ARC
  5
ED8C
  8
0
 10
4196.1345207576805478
 20
190.1337475105638077
 30
0.0
 40
8.8840964024667084
 50
270.357415619821893
 51
270.9336365713585906
  0
ARC
  5
ED8D
  8
0
 10
4196.4522488511829579
 20
76.5948450641769227
 30
0.0
 40
104.6553076263121937
 50
90.1436066706657755
 51
90.2253766637316943
  0
ARC
  5
ED8E
  8
0
 10
4196.1846132982591371
 20
178.1636210703011898
 30
0.0
 40
3.0915644281246868
 50
87.6158385054494175
 51
89.8586068188757849
  0
ARC
  5
ED8F
  8
0
 10
4195.7835986035461247
 20
80.0611568956639132
 30
0.0
 40
101.1948442833870985
 50
89.768628144865886
 51
89.8544971408581716
  0
ARC
  5
ED90
  8
0
 10
4196.3634628896979848
 20
179.6876155935283066
 30
0.0
 40
1.56570007227954
 50
91.8388956653097068
 51
93.2858123304199722
  0
ARC
  5
ED91
  8
0
 10
4196.0395034248549564
 20
177.6400885167653882
 30
0.0
 40
4.3586651824828282
 50
81.2848795255923733
 51
89.9858051411299726
  0
ARC
  5
ED92
  8
0
 10
4196.6782915490730375
 20
181.8101449501839113
 30
0.0
 40
0.1399639546000028
 50
11.1840986658999793
 51
81.1039406135153342
  0
ARC
  5
ED93
  8
0
 10
4195.5371419854427586
 20
181.5845203545844981
 30
0.0
 40
1.3032045938106951
 50
348.8156956028101945
 51
11.1840986658999793
  0
ARC
  5
ED94
  8
0
 10
4196.6782986768721457
 20
181.358890091976491
 30
0.0
 40
0.1399558629728214
 50
278.6348119444352847
 51
348.8156956028086029
  0
ARC
  5
ED95
  8
0
 10
4196.0337315720962579
 20
185.6034475053563142
 30
0.0
 40
4.4331754459940846
 50
270.0885535889117932
 51
278.6348119444352847
  0
ARC
  5
ED96
  8
0
 10
4196.0405323605527883
 20
172.881393901430414
 30
0.0
 40
8.9494790352943934
 50
87.7371181409181418
 51
89.9996778446896002
  0
ENDSEC
  0
EOF
