  0
SECTION
  2
HEADER
  9
$ACADVER
  1
AC1009
  9
$INSBASE
 10
4212.668318984515281
 20
181.5835460911760038
 30
0.0
  9
$EXTMIN
 10
4204.1305768233823983
 20
180.5696278880824082
 30
-0.0015258207003583
  9
$EXTMAX
 10
4212.808425022964002
 20
182.5923355708912936
 30
0.0000000349246037
  9
$LIMMIN
 10
0.0
 20
0.0
  9
$LIMMAX
 10
11.6929133858000007
 20
8.2677165353999982
  9
$ORTHOMODE
 70
     1
  9
$REGENMODE
 70
     1
  9
$FILLMODE
 70
     1
  9
$QTEXTMODE
 70
     0
  9
$MIRRTEXT
 70
     0
  9
$DRAGMODE
 70
     2
  9
$LTSCALE
 40
0.6431102362
  9
$OSMODE
 70
  4095
  9
$ATTMODE
 70
     1
  9
$TEXTSIZE
 40
0.2
  9
$TRACEWID
 40
0.05
  9
$TEXTSTYLE
  7
STANDARD
  9
$CLAYER
  8
0
  9
$CELTYPE
  6
BYLAYER
  9
$CECOLOR
 62
   256
  9
$DIMSCALE
 40
1.0
  9
$DIMASZ
 40
0.1875
  9
$DIMEXO
 40
0.0625
  9
$DIMDLI
 40
0.4443307087
  9
$DIMRND
 40
0.0
  9
$DIMDLE
 40
0.0
  9
$DIMEXE
 40
0.125
  9
$DIMTP
 40
0.01
  9
$DIMTM
 40
0.01
  9
$DIMTXT
 40
2.0
  9
$DIMCEN
 40
0.1052362205
  9
$DIMTSZ
 40
0.0
  9
$DIMTOL
 70
     1
  9
$DIMLIM
 70
     0
  9
$DIMTIH
 70
     1
  9
$DIMTOH
 70
     1
  9
$DIMSE1
 70
     0
  9
$DIMSE2
 70
     0
  9
$DIMTAD
 70
     0
  9
$DIMZIN
 70
     0
  9
$DIMBLK
  1

  9
$DIMASO
 70
     1
  9
$DIMSHO
 70
     1
  9
$DIMPOST
  1
\X
  9
$DIMAPOST
  1

  9
$DIMALT
 70
     1
  9
$DIMALTD
 70
     2
  9
$DIMALTF
 40
25.3999999999999986
  9
$DIMLFAC
 40
1.0
  9
$DIMTOFL
 70
     0
  9
$DIMTVP
 40
0.0
  9
$DIMTIX
 70
     0
  9
$DIMSOXD
 70
     0
  9
$DIMSAH
 70
     0
  9
$DIMBLK1
  1

  9
$DIMBLK2
  1

  9
$DIMSTYLE
  2
STANDARD
  9
$DIMCLRD
 70
     0
  9
$DIMCLRE
 70
     0
  9
$DIMCLRT
 70
     0
  9
$DIMTFAC
 40
1.0
  9
$DIMGAP
 40
0.09
  9
$LUNITS
 70
     2
  9
$LUPREC
 70
     4
  9
$SKETCHINC
 40
0.1
  9
$FILLETRAD
 40
0.0
  9
$AUNITS
 70
     0
  9
$AUPREC
 70
     0
  9
$MENU
  1
.
  9
$ELEVATION
 40
0.0
  9
$PELEVATION
 40
0.0
  9
$THICKNESS
 40
0.0
  9
$LIMCHECK
 70
     0
  9
$BLIPMODE
 70
     0
  9
$CHAMFERA
 40
0.0
  9
$CHAMFERB
 40
0.0
  9
$SKPOLY
 70
     0
  9
$TDCREATE
 40
2458060.468368056230247
  9
$TDUPDATE
 40
2459484.7677546301856637
  9
$TDINDWG
 40
0.4397871528
  9
$TDUSRTIMER
 40
0.4397871528
  9
$USRTIMER
 70
     1
  9
$ANGBASE
 50
0.0
  9
$ANGDIR
 70
     0
  9
$PDMODE
 70
     0
  9
$PDSIZE
 40
0.3125
  9
$PLINEWID
 40
0.0
  9
$COORDS
 70
     1
  9
$SPLFRAME
 70
     0
  9
$SPLINETYPE
 70
     6
  9
$SPLINESEGS
 70
     8
  9
$ATTDIA
 70
     1
  9
$ATTREQ
 70
     1
  9
$HANDLING
 70
     1
  9
$HANDSEED
  5
ED3E
  9
$SURFTAB1
 70
     6
  9
$SURFTAB2
 70
     6
  9
$SURFTYPE
 70
     6
  9
$SURFU
 70
     6
  9
$SURFV
 70
     6
  9
$UCSNAME
  2

  9
$UCSORG
 10
0.0
 20
0.0
 30
0.0
  9
$UCSXDIR
 10
1.0
 20
0.0
 30
0.0
  9
$UCSYDIR
 10
0.0
 20
1.0
 30
0.0
  9
$PUCSNAME
  2

  9
$PUCSORG
 10
0.0
 20
0.0
 30
0.0
  9
$PUCSXDIR
 10
1.0
 20
0.0
 30
0.0
  9
$PUCSYDIR
 10
0.0
 20
1.0
 30
0.0
  9
$USERI1
 70
     0
  9
$USERI2
 70
     0
  9
$USERI3
 70
     0
  9
$USERI4
 70
     0
  9
$USERI5
 70
     0
  9
$USERR1
 40
0.0
  9
$USERR2
 40
0.0
  9
$USERR3
 40
0.0
  9
$USERR4
 40
0.0
  9
$USERR5
 40
0.0
  9
$WORLDVIEW
 70
     1
  9
$SHADEDGE
 70
     3
  9
$SHADEDIF
 70
    70
  9
$TILEMODE
 70
     1
  9
$MAXACTVP
 70
    64
  9
$PLIMCHECK
 70
     0
  9
$PEXTMIN
 10
1.0000000000000000E+20
 20
1.0000000000000000E+20
 30
1.0000000000000000E+20
  9
$PEXTMAX
 10
-1.0000000000000000E+20
 20
-1.0000000000000000E+20
 30
-1.0000000000000000E+20
  9
$PLIMMIN
 10
0.0
 20
0.0
  9
$PLIMMAX
 10
12.0
 20
9.0
  9
$UNITMODE
 70
     0
  9
$VISRETAIN
 70
     1
  9
$PLINEGEN
 70
     0
  9
$PSLTSCALE
 70
     1
  0
ENDSEC
  0
SECTION
  2
TABLES
  0
TABLE
  2
VPORT
 70
     1
  0
VPORT
  2
*ACTIVE
 70
     0
 10
0.0
 20
0.0
 11
1.0
 21
1.0
 12
404.9254335403601885
 22
55.5857195327369666
 13
0.0
 23
0.0
 14
1.0
 24
1.0
 15
0.0
 25
0.0
 16
0.0
 26
0.0
 36
17.1152628219792007
 17
3803.5440673828129547
 27
125.9952621967499056
 37
0.0
 40
3.1405961502666981
 41
2.7718023255813948
 42
50.0
 43
0.0
 44
0.0
 50
0.0
 51
0.0
 71
     0
 72
   100
 73
     1
 74
     1
 75
     0
 76
     0
 77
     0
 78
     0
  0
ENDTAB
  0
TABLE
  2
LTYPE
 70
     2
  0
LTYPE
  2
CONTINUOUS
 70
     0
  3
Solid line
 72
    65
 73
     0
 40
0.0
  0
LTYPE
  2
PHANTOM2
 70
     0
  3
___ _ _ ___ _ _ ___ _ _ ___ _ _
 72
    65
 73
     6
 40
1.25
 49
0.625
 49
-0.125
 49
0.125
 49
-0.125
 49
0.125
 49
-0.125
  0
ENDTAB
  0
TABLE
  2
LAYER
 70
     2
  0
LAYER
  2
0
 70
     0
 62
   255
  6
CONTINUOUS
  0
LAYER
  2
DEFPOINTS
 70
     0
 62
     7
  6
CONTINUOUS
  0
ENDTAB
  0
TABLE
  2
STYLE
 70
     1
  0
STYLE
  2
STANDARD
 70
     0
 40
0.0
 41
0.8
 50
0.0
 71
     0
 42
0.2
  3
txt
  4

  0
ENDTAB
  0
TABLE
  2
VIEW
 70
     0
  0
ENDTAB
  0
TABLE
  2
UCS
 70
     0
  0
ENDTAB
  0
TABLE
  2
APPID
 70
     9
  0
APPID
  2
ACAD
 70
     0
  0
APPID
  2
ACAD_MLEADERVER
 70
     0
  0
APPID
  2
ACAD_EXEMPT_FROM_CAD_STANDARDS
 70
     0
  0
APPID
  2
ACAD_NAV_VCDISPLAY
 70
     0
  0
APPID
  2
ACAECLAYERSTANDARD
 70
     0
  0
APPID
  2
ACCMTRANSPARENCY
 70
     0
  0
APPID
  2
ACAD_DSTYLE_DIMJAG
 70
     0
  0
APPID
  2
ACAD_DSTYLE_DIMTALN
 70
     0
  0
APPID
  2
ACDBATTR
 70
     0
  0
ENDTAB
  0
TABLE
  2
DIMSTYLE
 70
     1
  0
DIMSTYLE
  2
STANDARD
 70
     0
  3

  4

  5

  6

  7

 40
1.0
 41
0.1875
 42
0.0625
 43
0.38
 44
0.125
 45
0.0
 46
0.0
 47
0.01
 48
0.01
140
0.15625
141
0.09
142
0.0
143
25.3999999999999986
144
1.0
145
0.0
146
1.0
147
0.09
 71
     1
 72
     0
 73
     1
 74
     1
 75
     0
 76
     0
 77
     0
 78
     4
170
     0
171
     2
172
     0
173
     0
174
     0
175
     0
176
     0
177
     0
178
     0
  0
ENDTAB
  0
ENDSEC
  0
SECTION
  2
BLOCKS
  0
BLOCK
  8
0
  2
$MODEL_SPACE
 70
     0
 10
0.0
 20
0.0
 30
0.0
  3
$MODEL_SPACE
  1

  0
ENDBLK
  5
21
  8
0
  0
BLOCK
 67
     1
  8
0
  2
$PAPER_SPACE
 70
     0
 10
0.0
 20
0.0
 30
0.0
  3
$PAPER_SPACE
  1

  0
ENDBLK
  5
1D
 67
     1
  8
0
  0
BLOCK
  8
0
  2
_FILLED
 70
     0
 10
0.0
 20
0.0
 30
0.0
  3
_FILLED
  1

  0
SOLID
  5
EB46
  8
0
  6
BYBLOCK
 62
     0
 10
0.0
 20
0.0
 30
0.0
 11
-1.0
 21
0.1666666667
 31
0.0
 12
-1.0
 22
-0.1666666667
 32
0.0
 13
-1.0
 23
-0.1666666667
 33
0.0
  0
ENDBLK
  5
EB47
  8
0
  6
BYBLOCK
 62
     0
  0
ENDSEC
  0
SECTION
  2
ENTITIES
  0
ATTDEF
  5
DF7E
  8
DEFPOINTS
 10
4212.669187761161993
 20
181.5882936991876875
 30
0.0
 40
0.001
  1
P24702-LV
  3

  2
MODELNUMBER
 70
     0
1001
ACDBATTR
1070
     0
1070
     1
  0
ATTDEF
  5
DF7F
  8
DEFPOINTS
 10
4212.669187761161993
 20
181.5866270325209939
 30
0.0
 40
0.001
  1
PER SE
  3

  2
TRADENAME
 70
     0
1001
ACDBATTR
1070
     0
1070
     1
  0
ATTDEF
  5
DF80
  8
DEFPOINTS
 10
4212.669187761161993
 20
181.5849603658543003
 30
0.0
 40
0.001
  1
BATHROOM SINK FAUCET
  3

  2
PRODUCT
 70
     0
1001
ACDBATTR
1070
     0
1070
     1
  0
LINE
  5
EBA3
  8
0
 10
4212.668318984515281
 20
182.5294628367259975
 30
0.0
 11
4212.668318984515281
 21
180.63762934562601
 31
0.0
  0
LINE
  5
EBA4
  8
0
 10
4212.6295665968191315
 20
182.5717350033297066
 30
0.0
 11
4212.6295665968191315
 21
180.595140386334009
 31
0.0
  0
ARC
  5
EBA5
  8
0
 10
4212.6098262841660471
 20
182.5696409529211053
 30
0.0
 40
0.0199580866930411
 50
43.1006180322874215
 51
89.645158142589537
  0
ARC
  5
EBA6
  8
0
 10
4212.6102043591708934
 20
182.5699947569034123
 30
0.0
 40
0.0194402856040287
 50
5.1358517882449224
 51
43.1006180322874215
  0
ARC
  5
EBA7
  8
0
 10
4212.7337350231846358
 20
182.581097492057296
 30
0.0
 40
0.1045883227073778
 50
185.1358517882449064
 51
193.8893150781896111
  0
ARC
  5
EBA8
  8
0
 10
4212.667912673769024
 20
182.5648211335955011
 30
0.0
 40
0.0367834443609553
 50
193.8893150781896111
 51
219.730018312134888
  0
ARC
  5
EBA9
  8
0
 10
4212.6639532065573803
 20
182.5615304147964935
 30
0.0
 40
0.0316350260786867
 50
219.7300183121323869
 51
261.5066014671228913
  0
ARC
  5
EBAA
  8
0
 10
4212.670057359270686
 20
182.6024064704787122
 30
0.0
 40
0.0729643450724078
 50
261.5066014671228913
 51
268.6347994780567774
  0
ARC
  5
EBAB
  8
0
 10
4212.6183189833518554
 20
182.569565320564891
 30
0.0
 40
0.0150000016859161
 50
36.8828210155952192
 51
66.08883960070483
  0
ARC
  5
EBAC
  8
0
 10
4212.6183189854491502
 20
182.5695653221376062
 30
0.0
 40
0.0149999990655053
 50
359.9999988097148957
 51
36.8828210155952192
  0
LINE
  5
EBAD
  8
0
 10
4212.6333189845136076
 20
182.5695653218259906
 30
0.0
 11
4212.6333189845136076
 21
182.5695650204878859
 31
0.0
  0
ARC
  5
EBAE
  8
0
 10
4212.6884549572514516
 20
182.562775282993897
 30
0.0
 40
0.0551605007946898
 50
181.708721221350487
 51
196.0281244056872936
  0
LINE
  5
EBAF
  8
0
 10
4212.6333189845136076
 20
182.5695650204878859
 30
0.0
 11
4212.6333189845136076
 21
182.5611304856259949
 31
0.0
  0
ARC
  5
EBB0
  8
0
 10
4212.6066551088169945
 20
182.8579259359885896
 30
0.0
 40
0.2683475065729813
 50
269.9570727306801246
 51
270.7034968526467082
  0
ARC
  5
EBB1
  8
0
 10
4212.6053469566959393
 20
181.111912676761392
 30
0.0
 40
1.4776662427025491
 50
89.9570727306800535
 51
98.0970618307368625
  0
ARC
  5
EBB2
  8
0
 10
4212.4056989052296558
 20
182.5152288802887881
 30
0.0
 40
0.0602193436843812
 50
98.0970618307368625
 51
180.7217168284981881
  0
LINE
  5
EBB3
  8
0
 10
4212.3454843389135931
 20
180.6516719862260061
 30
0.0
 11
4212.3454843389135931
 21
182.5159874032515006
 31
0.0
  0
LINE
  5
EBB4
  8
0
 10
4212.0720179845147868
 20
182.0946582458072101
 30
0.0
 11
4212.0720179845147868
 21
181.0691023885383117
 31
0.0
  0
LINE
  5
EBB5
  8
0
 10
4212.0920179845143139
 20
182.0933917516694009
 30
0.0
 11
4212.0920179845143139
 21
181.0747668893550042
 31
0.0
  0
ARC
  5
EBB6
  8
0
 10
4212.1221045358552146
 20
182.0920377522020033
 30
0.0
 40
0.0301170032729954
 50
106.6428350852998932
 51
177.4232292672180051
  0
ARC
  5
EBB7
  8
0
 10
4211.4509251001782104
 20
184.3373318302027997
 30
0.0
 40
2.313347810113668
 50
286.6428350852999074
 51
290.0226486481428765
  0
ARC
  5
EBB8
  8
0
 10
4212.1433333916447737
 20
182.4593028103261076
 30
0.0
 40
0.3118481492387547
 50
288.6379279326766891
 51
310.4086641644435076
  0
ARC
  5
EBB9
  8
0
 10
4212.4242087158872891
 20
182.4951850514032117
 30
0.0
 40
0.0792226192748058
 50
173.5707368044471082
 51
180.8715222075919939
  0
ARC
  5
EBBA
  8
0
 10
4210.3106150882949805
 20
182.5339200874873029
 30
0.0
 40
2.0347721974423378
 50
357.3056754614681267
 51
358.8752831037368196
  0
ARC
  5
EBBB
  8
0
 10
4208.550918049878419
 20
182.7494189753267904
 30
0.0
 40
3.8049631920844349
 50
353.0162278161333234
 51
355.3094363576113892
  0
ARC
  5
EBBC
  8
0
 10
4211.695744868942711
 20
182.3911238169945079
 30
0.0
 40
0.6404628722930337
 50
341.9224737990606968
 51
350.6236359611492048
  0
ARC
  5
EBBD
  8
0
 10
4212.0566915802228323
 20
182.0950076802645015
 30
0.0
 40
0.0153303872394916
 50
358.6939107693083884
 51
92.9330561877740848
  0
ARC
  5
EBBE
  8
0
 10
4204.4733239236938971
 20
279.5563266056706198
 30
0.0
 40
97.7405758339351962
 50
274.0438334770528854
 51
274.4494006978518996
  0
ARC
  5
EBBF
  8
0
 10
4212.1125438708113506
 20
166.3595608639845125
 30
0.0
 40
15.71726767055012
 50
92.7226494155401326
 51
95.1683562319456087
  0
ARC
  5
EBC0
  8
0
 10
4210.7105245234106405
 20
181.8987174312580919
 30
0.0
 40
0.1150440202983826
 50
96.9056194163655249
 51
167.6667163844155937
  0
ARC
  5
EBC1
  8
0
 10
4208.0840156815120281
 20
181.6104542272549907
 30
0.0
 40
2.533508475851129
 50
352.6012688753264115
 51
7.0929574823852404
  0
ARC
  5
EBC2
  8
0
 10
4210.7090551261344444
 20
181.2686977715738976
 30
0.0
 40
0.1136875176088337
 50
172.1602224214624073
 51
195.2657151358046121
  0
ARC
  5
EBC3
  8
0
 10
4210.7125198587245904
 20
181.2696433871169006
 30
0.0
 40
0.1172789742333082
 50
195.2657151358031058
 51
220.4081158000572032
  0
ARC
  5
EBC4
  8
0
 10
4210.710091747975639
 20
181.2675763097680885
 30
0.0
 40
0.1140901608840707
 50
220.4081158000572032
 51
260.5982831797415997
  0
ARC
  5
EBC5
  8
0
 10
4212.078701135216761
 20
196.1958895941858998
 30
0.0
 40
15.1047095558056004
 50
264.7304154613319156
 51
267.2953713050206943
  0
ARC
  5
EBC6
  8
0
 10
4195.3522539128398421
 20
-39.226193459576173
 30
0.0
 40
220.9153635918912926
 50
85.6636646502596761
 51
85.8431012749268234
  0
ARC
  5
EBC7
  8
0
 10
4212.0569002643951535
 20
181.0721675126640093
 30
0.0
 40
0.015425318391239
 50
266.3085803463442858
 51
348.538621499605199
  0
ARC
  5
EBC8
  8
0
 10
4212.1220163133293681
 20
181.0749454878119877
 30
0.0
 40
0.0299983294112757
 50
179.9885736035855075
 51
253.3631251334668946
  0
ARC
  5
EBC9
  8
0
 10
4211.5288284934567855
 20
179.0898039452455919
 30
0.0
 40
2.0418749132528831
 50
68.8730604623118694
 51
73.3631251334668946
  0
ARC
  5
EBCA
  8
0
 10
4212.1689841444358535
 20
180.7464864178029131
 30
0.0
 40
0.2658129570252032
 50
48.3942453750848003
 51
68.8730604623118694
  0
ARC
  5
EBCB
  8
0
 10
4189.1152452649230327
 20
180.1509795802556937
 30
0.0
 40
23.1649077799259189
 50
1.324163796696221
 51
2.086646727150518
  0
ARC
  5
EBCC
  8
0
 10
4212.3334042607129959
 20
180.6876704284696018
 30
0.0
 40
0.0594532278677866
 50
181.3241637966962116
 51
236.955879710090187
  0
ARC
  5
EBCD
  8
0
 10
4212.399568635297328
 20
180.848491432841513
 30
0.0
 40
0.232584064460475
 50
244.92141160803709
 51
258.750487929974895
  0
ARC
  5
EBCE
  8
0
 10
4212.4093652948768067
 20
180.6525930721851125
 30
0.0
 40
0.0638875975319134
 50
180.8261681245188868
 51
210.2833766272109983
  0
ARC
  5
EBCF
  8
0
 10
4212.4038216684557483
 20
180.6493063968827073
 30
0.0
 40
0.0574430646091503
 50
210.2408280570354009
 51
263.3976469284152131
  0
ARC
  5
EBD0
  8
0
 10
4212.6637876330923973
 20
182.8953186843577043
 30
0.0
 40
2.3184502512976639
 50
263.3976469284152131
 51
268.6694824241881747
  0
ARC
  5
EBD1
  8
0
 10
4212.6074428381052712
 20
180.6028752002468991
 30
0.0
 40
0.0255055573288402
 50
275.6493861329179822
 51
311.6151438410136052
  0
ARC
  5
EBD2
  8
0
 10
4212.608230575977359
 20
180.5980482705008114
 30
0.0
 40
0.0215332667224455
 50
318.5950475497508023
 51
352.2389816270372194
  0
ARC
  5
EBD3
  8
0
 10
4212.6183189844987282
 20
180.5975268606352984
 30
0.0
 40
0.0150000000158611
 50
293.8397614034133767
 51
359.999999964371284
  0
LINE
  5
EBD4
  8
0
 10
4212.6333189845136076
 20
180.5975268606260045
 30
0.0
 11
4212.6333189845208835
 21
180.6084414238964087
 31
0.0
  0
ARC
  5
EBD5
  8
0
 10
4212.6610234683375893
 20
180.6084414238792135
 30
0.0
 40
0.0277044838172991
 50
153.0411566773792913
 51
179.9999999643777926
  0
ARC
  5
EBD6
  8
0
 10
4212.6635382076237875
 20
180.6059131741693875
 30
0.0
 40
0.0311120661022883
 50
105.6122920514642942
 51
150.9901909661635955
  0
ARC
  5
EBD7
  8
0
 10
4212.6701122342274175
 20
180.5739104435762101
 30
0.0
 40
0.0637441308903826
 50
91.6120573899672479
 51
103.561326340241493
  0
ARC
  5
EBD8
  8
0
 10
4210.69908315028988
 20
181.8925512060766039
 30
0.0
 40
0.1057298486465625
 50
114.3942851260602964
 51
161.6938575454475995
  0
ARC
  5
EBD9
  8
0
 10
4210.6937200114707593
 20
181.9043773152774008
 30
0.0
 40
0.092744467758057
 50
91.9377771759294831
 51
114.3942851260602964
  0
ARC
  5
EBDA
  8
0
 10
4210.721428807844859
 20
181.0854019727395894
 30
0.0
 40
0.9121884189112049
 50
85.3687510733150248
 51
91.9377771759294831
  0
ARC
  5
EBDB
  8
0
 10
4210.7870480944657174
 20
181.895446208106506
 30
0.0
 40
0.0994907174083543
 50
1.5110904461272521
 51
85.3687510733148684
  0
ARC
  5
EBDC
  8
0
 10
4198.9635216110173133
 20
181.5835460714475005
 30
0.0
 40
11.9271303889600198
 50
358.4889097406850738
 51
1.5110904461272521
  0
ARC
  5
EBDD
  8
0
 10
4210.7869579090083789
 20
181.2716483524233979
 30
0.0
 40
0.0995809352570266
 50
274.7459084262393958
 51
358.4889097406867222
  0
ARC
  5
EBDE
  8
0
 10
4210.7229693852787022
 20
182.0423930232961141
 30
0.0
 40
0.8729772624060492
 50
267.8738643950538858
 51
274.7459084262393958
  0
ARC
  5
EBDF
  8
0
 10
4210.6942710735984292
 20
181.2693767911160023
 30
0.0
 40
0.0994284996849231
 50
194.2868898610576025
 51
267.8738643950538858
  0
ARC
  5
EBE0
  8
0
 10
4203.9377040307663265
 20
-122.3647902235687042
 30
0.0
 40
303.6464687876303969
 50
88.7404039994068654
 51
89.6600101087027923
  0
ARC
  5
EBE1
  8
0
 10
4205.7386095661004219
 20
181.1238664032777876
 30
0.0
 40
0.1524689096835483
 50
89.6600101087027923
 51
123.9250043545747957
  0
ARC
  5
EBE2
  8
0
 10
4205.6397414040520744
 20
181.2708591397073121
 30
0.0
 40
0.0246801180584952
 50
265.7643063107008743
 51
303.9250043545748099
  0
ARC
  5
EBE3
  8
0
 10
4216.2115548860210765
 20
1140.9549498398330343
 30
0.0
 40
959.7669494118050579
 50
269.3156377634485921
 51
269.3687665609159012
  0
ARC
  5
EBE4
  8
0
 10
4204.7517150362436951
 20
181.2806289958855928
 30
0.0
 40
0.0244474378058358
 50
208.6959400813917966
 51
261.2874006822626143
  0
ARC
  5
EBE5
  8
0
 10
4204.5950511435439694
 20
181.2002810842269014
 30
0.0
 40
0.151629227916037
 50
26.9029115686730513
 51
81.5416465391681555
  0
ARC
  5
EBE6
  8
0
 10
4205.4010093570695972
 20
186.0109105580660014
 30
0.0
 40
4.7260733190940307
 50
258.9108495737339126
 51
260.45540313484031
  0
ARC
  5
EBE7
  8
0
 10
4204.5191773181213648
 20
181.5101244277840919
 30
0.0
 40
0.1397130450349812
 50
182.3925716511405142
 51
258.789293218147975
  0
ARC
  5
EBE8
  8
0
 10
4234.8167135065332332
 20
181.6391489125304872
 30
0.0
 40
30.4374261908102604
 50
179.9173487456702958
 51
180.2538572083109898
  0
ARC
  5
EBE9
  8
0
 10
4204.5194469035741349
 20
181.6896567357115941
 30
0.0
 40
0.1402832971637402
 50
91.3139604719239344
 51
182.6969298495895941
  0
ARC
  5
EBEA
  8
0
 10
13883.4608016709207732
 20
-432775.986216445104219
 30
0.0
 40
433065.9909379461896606
 50
91.2798492763356961
 51
91.2806566775669523
  0
ARC
  5
EBEB
  8
0
 10
4204.8405662945169752
 20
181.4259195783511132
 30
0.0
 40
0.2326606354918848
 50
197.1740814557815042
 51
199.1182860745412029
  0
ARC
  5
EBEC
  8
0
 10
4204.626086799667064
 20
181.3586069251408048
 30
0.0
 40
0.0079294211574721
 50
127.864491818776898
 51
190.0696565802255975
  0
ARC
  5
EBED
  8
0
 10
4204.8765154690509007
 20
180.6753570107624114
 30
0.0
 40
0.7352549364953732
 50
87.7707737954778793
 51
110.3174132284459006
  0
ARC
  5
EBEE
  8
0
 10
4204.8390994340061297
 20
170.9307589962581062
 30
0.0
 40
10.4795044485341204
 50
86.2562613530722047
 51
89.6390628959941154
  0
ARC
  5
EBEF
  8
0
 10
4205.4827992510963668
 20
180.9647613536438939
 30
0.0
 40
0.4250780254831471
 50
57.6188444284695294
 51
84.5260150819052001
  0
ARC
  5
EBF0
  8
0
 10
4205.6639458870413364
 20
181.25041037993239
 30
0.0
 40
0.0868333360435975
 50
38.3568807074356215
 51
57.6188502781743068
  0
ARC
  5
EBF1
  8
0
 10
4205.6857583369492204
 20
181.2676720029612056
 30
0.0
 40
0.0590170350567378
 50
27.7454294863538706
 51
38.3568807074356215
  0
ARC
  5
EBF2
  8
0
 10
4205.7225898152410082
 20
181.2870462299185021
 30
0.0
 40
0.0174007105744444
 50
2.8040429833238858
 51
27.7454294863553095
  0
ARC
  5
EBF3
  8
0
 10
4219.607398432061018
 20
180.7360482434729079
 30
0.0
 40
13.8784047154057895
 50
177.7211379351489882
 51
177.7689194018873025
  0
LINE
  5
EBF4
  8
0
 10
4212.0720179845147868
 20
182.0735460912260066
 30
0.0
 11
4212.0920179845143139
 21
182.0735460912260066
 31
0.0
  0
LINE
  5
EBF5
  8
0
 10
4212.0720179845147868
 20
181.0935460912259884
 30
0.0
 11
4212.0920179845143139
 21
181.0935460912259884
 31
0.0
  0
ENDSEC
  0
EOF
