  0
SECTION
  2
HEADER
  9
$ACADVER
  1
AC1009
  9
$INSBASE
 10
522.2532611002249041
 20
81.1047193188699111
 30
0.0
  9
$EXTMIN
 10
517.0220805281337562
 20
81.0959977924273261
 30
-0.0015258207003583
  9
$EXTMAX
 10
527.4859957063795264
 20
84.2255541644184262
 30
0.0000000349246037
  9
$LIMMIN
 10
0.0
 20
0.0
  9
$LIMMAX
 10
11.6929133858000007
 20
8.2677165353999982
  9
$ORTHOMODE
 70
     0
  9
$REGENMODE
 70
     1
  9
$FILLMODE
 70
     1
  9
$QTEXTMODE
 70
     0
  9
$MIRRTEXT
 70
     0
  9
$DRAGMODE
 70
     2
  9
$LTSCALE
 40
0.6431102362
  9
$OSMODE
 70
  4095
  9
$ATTMODE
 70
     1
  9
$TEXTSIZE
 40
0.2
  9
$TRACEWID
 40
0.05
  9
$TEXTSTYLE
  7
STANDARD
  9
$CLAYER
  8
0
  9
$CELTYPE
  6
BYLAYER
  9
$CECOLOR
 62
   256
  9
$DIMSCALE
 40
1.0
  9
$DIMASZ
 40
0.1875
  9
$DIMEXO
 40
0.0625
  9
$DIMDLI
 40
0.4443307087
  9
$DIMRND
 40
0.0
  9
$DIMDLE
 40
0.0
  9
$DIMEXE
 40
0.125
  9
$DIMTP
 40
0.01
  9
$DIMTM
 40
0.01
  9
$DIMTXT
 40
1.0
  9
$DIMCEN
 40
0.1052362205
  9
$DIMTSZ
 40
0.0
  9
$DIMTOL
 70
     1
  9
$DIMLIM
 70
     0
  9
$DIMTIH
 70
     0
  9
$DIMTOH
 70
     1
  9
$DIMSE1
 70
     0
  9
$DIMSE2
 70
     0
  9
$DIMTAD
 70
     0
  9
$DIMZIN
 70
     0
  9
$DIMBLK
  1

  9
$DIMASO
 70
     1
  9
$DIMSHO
 70
     1
  9
$DIMPOST
  1
\X
  9
$DIMAPOST
  1

  9
$DIMALT
 70
     1
  9
$DIMALTD
 70
     2
  9
$DIMALTF
 40
25.3999999999999986
  9
$DIMLFAC
 40
1.0
  9
$DIMTOFL
 70
     0
  9
$DIMTVP
 40
0.0
  9
$DIMTIX
 70
     0
  9
$DIMSOXD
 70
     0
  9
$DIMSAH
 70
     0
  9
$DIMBLK1
  1

  9
$DIMBLK2
  1

  9
$DIMSTYLE
  2
STANDARD
  9
$DIMCLRD
 70
     0
  9
$DIMCLRE
 70
     0
  9
$DIMCLRT
 70
     0
  9
$DIMTFAC
 40
1.0
  9
$DIMGAP
 40
0.09
  9
$LUNITS
 70
     2
  9
$LUPREC
 70
     4
  9
$SKETCHINC
 40
0.1
  9
$FILLETRAD
 40
0.0
  9
$AUNITS
 70
     0
  9
$AUPREC
 70
     0
  9
$MENU
  1
.
  9
$ELEVATION
 40
0.0
  9
$PELEVATION
 40
0.0
  9
$THICKNESS
 40
0.0
  9
$LIMCHECK
 70
     0
  9
$BLIPMODE
 70
     0
  9
$CHAMFERA
 40
0.0
  9
$CHAMFERB
 40
0.0
  9
$SKPOLY
 70
     0
  9
$TDCREATE
 40
2458172.5207638889551163
  9
$TDUPDATE
 40
2459601.5418518511578441
  9
$TDINDWG
 40
0.3309694213
  9
$TDUSRTIMER
 40
0.3309694213
  9
$USRTIMER
 70
     1
  9
$ANGBASE
 50
0.0
  9
$ANGDIR
 70
     0
  9
$PDMODE
 70
     0
  9
$PDSIZE
 40
0.3125
  9
$PLINEWID
 40
0.0
  9
$COORDS
 70
     1
  9
$SPLFRAME
 70
     0
  9
$SPLINETYPE
 70
     6
  9
$SPLINESEGS
 70
     8
  9
$ATTDIA
 70
     1
  9
$ATTREQ
 70
     1
  9
$HANDLING
 70
     1
  9
$HANDSEED
  5
1264E
  9
$SURFTAB1
 70
     6
  9
$SURFTAB2
 70
     6
  9
$SURFTYPE
 70
     6
  9
$SURFU
 70
     6
  9
$SURFV
 70
     6
  9
$UCSNAME
  2

  9
$UCSORG
 10
0.0
 20
0.0
 30
0.0
  9
$UCSXDIR
 10
1.0
 20
0.0
 30
0.0
  9
$UCSYDIR
 10
0.0
 20
1.0
 30
0.0
  9
$PUCSNAME
  2

  9
$PUCSORG
 10
0.0
 20
0.0
 30
0.0
  9
$PUCSXDIR
 10
1.0
 20
0.0
 30
0.0
  9
$PUCSYDIR
 10
0.0
 20
1.0
 30
0.0
  9
$USERI1
 70
     0
  9
$USERI2
 70
     0
  9
$USERI3
 70
     0
  9
$USERI4
 70
     0
  9
$USERI5
 70
     0
  9
$USERR1
 40
0.0
  9
$USERR2
 40
0.0
  9
$USERR3
 40
0.0
  9
$USERR4
 40
0.0
  9
$USERR5
 40
0.0
  9
$WORLDVIEW
 70
     1
  9
$SHADEDGE
 70
     3
  9
$SHADEDIF
 70
    70
  9
$TILEMODE
 70
     1
  9
$MAXACTVP
 70
    64
  9
$PLIMCHECK
 70
     0
  9
$PEXTMIN
 10
1.0000000000000000E+20
 20
1.0000000000000000E+20
 30
1.0000000000000000E+20
  9
$PEXTMAX
 10
-1.0000000000000000E+20
 20
-1.0000000000000000E+20
 30
-1.0000000000000000E+20
  9
$PLIMMIN
 10
0.0
 20
0.0
  9
$PLIMMAX
 10
12.0
 20
9.0
  9
$UNITMODE
 70
     0
  9
$VISRETAIN
 70
     1
  9
$PLINEGEN
 70
     0
  9
$PSLTSCALE
 70
     1
  0
ENDSEC
  0
SECTION
  2
TABLES
  0
TABLE
  2
VPORT
 70
     1
  0
VPORT
  2
*ACTIVE
 70
     0
 10
0.0
 20
0.0
 11
1.0
 21
1.0
 12
92.6247490092029011
 22
12.9582344662041997
 13
0.0
 23
0.0
 14
1.0
 24
1.0
 15
0.0
 25
0.0
 16
0.0
 26
0.0
 36
14.6338572656650907
 17
429.6292891080536833
 27
69.7025415122186871
 37
0.0
 40
5.1467532739118784
 41
2.0410052910052912
 42
50.0
 43
0.0
 44
0.0
 50
0.0
 51
0.0
 71
     0
 72
   100
 73
     1
 74
     1
 75
     0
 76
     0
 77
     0
 78
     0
  0
ENDTAB
  0
TABLE
  2
LTYPE
 70
     2
  0
LTYPE
  2
CONTINUOUS
 70
     0
  3
Solid line
 72
    65
 73
     0
 40
0.0
  0
LTYPE
  2
PHANTOM2
 70
     0
  3
___ _ _ ___ _ _ ___ _ _ ___ _ _
 72
    65
 73
     6
 40
1.25
 49
0.625
 49
-0.125
 49
0.125
 49
-0.125
 49
0.125
 49
-0.125
  0
ENDTAB
  0
TABLE
  2
LAYER
 70
     2
  0
LAYER
  2
0
 70
     0
 62
   255
  6
CONTINUOUS
  0
LAYER
  2
DEFPOINTS
 70
     0
 62
     7
  6
CONTINUOUS
  0
ENDTAB
  0
TABLE
  2
STYLE
 70
     1
  0
STYLE
  2
STANDARD
 70
     0
 40
0.0
 41
0.8
 50
0.0
 71
     0
 42
0.2
  3
txt
  4

  0
ENDTAB
  0
TABLE
  2
VIEW
 70
     0
  0
ENDTAB
  0
TABLE
  2
UCS
 70
     0
  0
ENDTAB
  0
TABLE
  2
APPID
 70
    10
  0
APPID
  2
ACAD
 70
     0
  0
APPID
  2
ACAD_MLEADERVER
 70
     0
  0
APPID
  2
ACAD_EXEMPT_FROM_CAD_STANDARDS
 70
     0
  0
APPID
  2
ACAD_DSTYLE_DIMJAG
 70
     0
  0
APPID
  2
ACAD_DSTYLE_DIMTALN
 70
     0
  0
APPID
  2
ACAD_NAV_VCDISPLAY
 70
     0
  0
APPID
  2
ACAECLAYERSTANDARD
 70
     0
  0
APPID
  2
ACCMTRANSPARENCY
 70
     0
  0
APPID
  2
DCO15
 70
     0
  0
APPID
  2
ACDBATTR
 70
     0
  0
ENDTAB
  0
TABLE
  2
DIMSTYLE
 70
     1
  0
DIMSTYLE
  2
STANDARD
 70
     0
  3

  4

  5

  6

  7

 40
1.0
 41
0.1875
 42
0.0625
 43
0.38
 44
0.125
 45
0.0
 46
0.0
 47
0.01
 48
0.01
140
0.15625
141
0.09
142
0.0
143
25.3999999999999986
144
1.0
145
0.0
146
1.0
147
0.09
 71
     1
 72
     0
 73
     1
 74
     1
 75
     0
 76
     0
 77
     0
 78
     4
170
     0
171
     2
172
     0
173
     0
174
     0
175
     0
176
     0
177
     0
178
     0
  0
ENDTAB
  0
ENDSEC
  0
SECTION
  2
BLOCKS
  0
BLOCK
  8
0
  2
$MODEL_SPACE
 70
     0
 10
0.0
 20
0.0
 30
0.0
  3
$MODEL_SPACE
  1

  0
ENDBLK
  5
21
  8
0
  0
BLOCK
 67
     1
  8
0
  2
$PAPER_SPACE
 70
     0
 10
0.0
 20
0.0
 30
0.0
  3
$PAPER_SPACE
  1

  0
ENDBLK
  5
1D
 67
     1
  8
0
  0
ENDSEC
  0
SECTION
  2
ENTITIES
  0
ATTDEF
  5
100F7
  8
DEFPOINTS
 10
522.2483236077819129
 20
81.103547384125676
 30
0.0
 40
0.001
  1
P24705-CB
  3

  2
MODELNUMBER
 70
     0
1001
ACDBATTR
1070
     0
1070
     1
  0
ATTDEF
  5
100F8
  8
DEFPOINTS
 10
522.2483236077819129
 20
81.1018807174589966
 30
0.0
 40
0.001
  1
PER SE
  3

  2
TRADENAME
 70
     0
1001
ACDBATTR
1070
     0
1070
     1
  0
ATTDEF
  5
100F9
  8
DEFPOINTS
 10
522.2483236077819129
 20
81.1002140507923457
 30
0.0
 40
0.001
  1
BATHROOM SINK FAUCET
  3

  2
PRODUCT
 70
     0
1001
ACDBATTR
1070
     0
1070
     1
  0
LINE
  5
12427
  8
0
 10
523.370160217074158
 20
81.3268744521699034
 30
0.0
 11
521.1363619833757639
 21
81.3268744521699034
 31
0.0
  0
LINE
  5
12428
  8
0
 10
522.7465238986144414
 20
83.8514287115717565
 30
0.0
 11
521.7599983018319563
 21
83.8514287115717565
 31
0.0
  0
LINE
  5
12429
  8
0
 10
525.0836736662279236
 20
81.1047193189199049
 30
0.0
 11
527.4221146089294052
 21
81.1047193189199049
 31
0.0
  0
LINE
  5
1242A
  8
0
 10
525.4386190409660458
 20
81.7634701009075258
 30
0.0
 11
527.0668700580449695
 21
81.7634701009075258
 31
0.0
  0
LINE
  5
1242B
  8
0
 10
525.4321815733994754
 20
81.6001650759126562
 30
0.0
 11
527.0736067649504548
 21
81.6001650759126562
 31
0.0
  0
LINE
  5
1242C
  8
0
 10
525.0236737295249441
 20
81.2668744521699011
 30
0.0
 11
525.0236737295249441
 21
81.1602268654007872
 31
0.0
  0
LINE
  5
1242D
  8
0
 10
525.4192302810125739
 20
81.7444576209346536
 30
0.0
 11
525.4149034222457431
 21
81.6205525959397846
 31
0.0
  0
LINE
  5
1242E
  8
0
 10
525.0729482118523492
 20
81.3270015981637329
 30
0.0
 11
527.4328401228866596
 21
81.3270015981637329
 31
0.0
  0
ARC
  5
1242F
  8
0
 10
525.4432468489357007
 20
81.5722803190059835
 30
0.0
 40
0.0299999998406164
 50
111.6442504443474064
 51
168.1000002231183998
  0
ARC
  5
12430
  8
0
 10
525.1778943005299425
 20
81.5708350017218891
 30
0.0
 40
0.229351822530199
 50
295.6702408223683847
 51
348.0996082074298101
  0
ARC
  5
12431
  8
0
 10
525.0648007049702528
 20
81.9526393937339463
 30
0.0
 40
0.6256908447254002
 50
270.7461047934293106
 51
289.8488191264227112
  0
ARC
  5
12432
  8
0
 10
525.0863474214844473
 20
81.2657669726986569
 30
0.0
 40
0.0626834760890977
 50
102.3427800552370002
 51
178.9876566325729073
  0
ARC
  5
12433
  8
0
 10
525.0433737295248875
 20
81.1602268654007872
 30
0.0
 40
0.0197
 50
179.9999999999909903
 51
270.000000000019611
  0
ARC
  5
12434
  8
0
 10
525.0434126212303454
 20
81.099988893631874
 30
0.0
 40
0.040537990425052
 50
6.7011784232211111
 51
90.0549689536132973
  0
LINE
  5
12435
  8
0
 10
525.4138915795250568
 20
81.5784664444699104
 30
0.0
 11
525.4023167962429852
 21
81.5235401614557134
 31
0.0
  0
ARC
  5
12436
  8
0
 10
525.4345914215382436
 20
81.6198650758626627
 30
0.0
 40
0.0197
 50
178.000000023018714
 51
270.0000000000130171
  0
ARC
  5
12437
  8
0
 10
525.4389182803050744
 20
81.7437701008575459
 30
0.0
 40
0.0197
 50
89.9999999999804601
 51
178.000000023022011
  0
LINE
  5
12438
  8
0
 10
521.0955654073250116
 20
81.1047193188699111
 30
0.0
 11
523.410956793125024
 21
81.1047193188699111
 31
0.0
  0
LINE
  5
12439
  8
0
 10
521.0644715378250567
 20
81.2727810427699069
 30
0.0
 11
521.0460489721250497
 21
81.1341618555699142
 31
0.0
  0
ARC
  5
1243A
  8
0
 10
516.776769336953862
 20
81.599826717139905
 30
0.0
 40
8.6429452738339698
 50
1.2793697858052371
 51
9.6650410203968153
  0
ARC
  5
1243B
  8
0
 10
526.2128040264740321
 20
91.2853284098941344
 30
0.0
 40
8.1249853818586608
 50
268.7769704340225871
 51
270.2827088529360822
  0
ARC
  5
1243C
  8
0
 10
525.7844459142370397
 20
76.7798158196206373
 30
0.0
 40
6.3874677281899324
 50
87.712606836556219
 51
90.3553623686490255
  0
ARC
  5
1243D
  8
0
 10
525.390963426193025
 20
83.0667378768055755
 30
0.0
 40
0.0952564674748888
 50
108.2455126448167988
 51
189.5873337196998989
  0
ARC
  5
1243E
  8
0
 10
525.4959735435328412
 20
82.8518992766425697
 30
0.0
 40
0.3337542331920147
 50
106.1618930461732049
 51
113.8279516676517034
  0
ARC
  5
1243F
  8
0
 10
525.4313055250871685
 20
83.020189611209986
 30
0.0
 40
0.154868874698119
 50
90.0085692390888141
 51
100.504007071182599
  0
ARC
  5
12440
  8
0
 10
525.447552562045189
 20
81.7934706852698952
 30
0.0
 40
0.03
 50
181.2793697857945858
 51
270.0
  0
ARC
  5
12441
  8
0
 10
526.2812578061982549
 20
99.032849414051924
 30
0.0
 40
15.8724328219906692
 50
269.8976138329758214
 51
270.6682140950550775
  0
ARC
  5
12442
  8
0
 10
526.0771488824997277
 20
111.4816925518084929
 30
0.0
 40
28.3228710015335707
 50
270.7873928016928744
 51
271.8828659247336077
  0
ARC
  5
12443
  8
0
 10
535.6926795730727235
 20
81.6006371868877949
 30
0.0
 40
8.6051786690122611
 50
174.7593177444981052
 51
178.7202659920615986
  0
ARC
  5
12444
  8
0
 10
535.6693765822864179
 20
81.6092276260411467
 30
0.0
 40
8.5811908476696637
 50
170.3284150260350884
 51
174.8022238064995975
  0
ARC
  5
12445
  8
0
 10
527.1156239925691125
 20
83.0667585962988255
 30
0.0
 40
0.0958526709216201
 50
350.45984641382978
 51
74.0895076505527186
  0
ARC
  5
12446
  8
0
 10
526.7926127495065884
 20
82.339517000556981
 30
0.0
 40
0.8907608197406991
 50
66.9133337405347532
 51
68.5286229091251471
  0
ARC
  5
12447
  8
0
 10
527.0738794959130473
 20
83.0205246501211889
 30
0.0
 40
0.1545649954979529
 50
73.1574326156095935
 51
88.8494695018683842
  0
ARC
  5
12448
  8
0
 10
527.0596386970091771
 20
81.7934777589447322
 30
0.0
 40
0.0300157307693158
 50
271.3288720722417224
 51
358.7496655669302754
  0
ARC
  5
12449
  8
0
 10
525.0565158485221673
 20
62.0686420972973565
 30
0.0
 40
21.1097433105291401
 50
88.1314571005223399
 51
88.9827603608099622
  0
LINE
  5
1244A
  8
0
 10
527.4819614120330016
 20
81.2668744521699011
 30
0.0
 11
527.4819614120330016
 21
81.1602268654007872
 31
0.0
  0
LINE
  5
1244B
  8
0
 10
527.0865580573373563
 20
81.7444576209346536
 30
0.0
 11
527.0908849161044145
 21
81.6205525959397846
 31
0.0
  0
ARC
  5
1244C
  8
0
 10
527.0625414894142295
 20
81.5722803190059835
 30
0.0
 40
0.0299999998406164
 50
11.8999997768815593
 51
68.3557495556525367
  0
ARC
  5
1244D
  8
0
 10
527.3278940378201014
 20
81.5708350017218891
 30
0.0
 40
0.229351822530199
 50
191.9003917925701899
 51
244.3297591776315869
  0
ARC
  5
1244E
  8
0
 10
527.4409876333795637
 20
81.9526393937339463
 30
0.0
 40
0.6256908447254002
 50
250.1511808735772888
 51
269.2538952065706894
  0
ARC
  5
1244F
  8
0
 10
527.419636696702355
 20
81.2660864063063855
 30
0.0
 40
0.0623296972342992
 50
0.7244204135430486
 51
77.7702609687656974
  0
ARC
  5
12450
  8
0
 10
527.4625219240102751
 20
81.159967783624964
 30
0.0
 40
0.0194412144154722
 50
269.6837266288627006
 51
0.7635701863033859
  0
ARC
  5
12451
  8
0
 10
527.4635808616109216
 20
81.0986324793637579
 30
0.0
 40
0.0419106159222274
 50
91.5945838032733377
 51
171.6491796738962137
  0
LINE
  5
12452
  8
0
 10
527.091896758824987
 20
81.5784664444699104
 30
0.0
 11
527.103471542106945
 21
81.5235401614557134
 31
0.0
  0
ARC
  5
12453
  8
0
 10
527.0711969168116866
 20
81.6198650758626627
 30
0.0
 40
0.0197
 50
269.9999999999869829
 51
1.999999976981268
  0
ARC
  5
12454
  8
0
 10
527.0668700580449695
 20
81.7437701008575459
 30
0.0
 40
0.0197
 50
1.999999976978013
 51
90.0000000000195257
  0
ARC
  5
12455
  8
0
 10
527.1406032974006166
 20
78.7492796287299655
 30
0.0
 40
4.4268283022131154
 50
91.4957723948126329
 51
91.7199723720562048
  0
ARC
  5
12456
  8
0
 10
527.0589817032042674
 20
81.7945833273372784
 30
0.0
 40
1.380433295484135
 50
89.6783868688182224
 51
91.4085421259192543
  0
ARC
  5
12457
  8
0
 10
527.0698279485802686
 20
83.5020258516273657
 30
0.0
 40
0.3270456461482271
 50
269.4573124690097075
 51
271.2536141936362242
  0
ARC
  5
12458
  8
0
 10
521.056838659221512
 20
81.0552972171800548
 30
0.0
 40
0.0627877787002625
 50
51.9180456594478201
 51
86.9394746557127718
  0
ARC
  5
12459
  8
0
 10
521.0610038152710786
 20
81.1329752483298563
 30
0.0
 40
0.0150018455619196
 50
175.4633128443828127
 51
266.8939511944200262
  0
LINE
  5
1245A
  8
0
 10
521.0601909518239836
 20
81.1179954411454958
 30
0.0
 11
523.4463312486259383
 21
81.1179954411454958
 31
0.0
  0
ARC
  5
1245B
  8
0
 10
521.1307332753862056
 20
81.2595369286868134
 30
0.0
 40
0.0675723643397658
 50
85.2217842026988279
 51
168.6969132218561072
  0
ARC
  5
1245C
  8
0
 10
521.1329233160719241
 20
81.693476669232453
 30
0.0
 40
0.3666183437690977
 50
270.5374090410356871
 51
302.8218486668329206
  0
ARC
  5
1245D
  8
0
 10
521.2180920330965819
 20
81.5614312996992084
 30
0.0
 40
0.2094888112973267
 50
302.8218486668329206
 51
341.9389961795616273
  0
ARC
  5
1245E
  8
0
 10
520.672930568664583
 20
81.7321781622971031
 30
0.0
 40
0.7807536635991458
 50
342.429395217048409
 51
358.8618118765327267
  0
ARC
  5
1245F
  8
0
 10
396.5496688151059175
 20
92.3160558955406856
 30
0.0
 40
125.3527884776487014
 50
355.149480636705789
 51
356.1071440748552845
  0
ARC
  5
12460
  8
0
 10
521.9674678006716704
 20
83.7907407428327957
 30
0.0
 40
0.3545480688630076
 50
163.8906149788207927
 51
177.5748178058796043
  0
ARC
  5
12461
  8
0
 10
851.2449435227338199
 20
0.7769429982009513
 30
0.0
 40
339.9348861021844073
 50
165.8110178241892072
 51
165.8480438732875086
  0
ARC
  5
12462
  8
0
 10
521.7934313298541156
 20
84.082151194994978
 30
0.0
 40
0.1145634063597201
 50
101.5278378251105948
 51
169.9677183110950978
  0
ARC
  5
12463
  8
0
 10
521.8960890586631649
 20
83.5875835231891244
 30
0.0
 40
0.6196725280053826
 50
92.5074353251785766
 51
101.6896914766875
  0
ARC
  5
12464
  8
0
 10
522.4627111332285949
 20
76.6335641658557165
 30
0.0
 40
7.5963372746639424
 50
93.7194653751145239
 51
94.4828286579214875
  0
ARC
  5
12465
  8
0
 10
522.3790614692343297
 20
78.0580919429590097
 30
0.0
 40
6.1693900792535503
 50
92.1187570572828633
 51
93.8024693402601741
  0
ARC
  5
12466
  8
0
 10
522.2597763865007892
 20
81.2776068633448574
 30
0.0
 40
2.9476661324771078
 50
90.1266421274029454
 51
92.1153496382498531
  0
ARC
  5
12467
  8
0
 10
522.233618824218297
 20
82.1443214228110605
 30
0.0
 40
1.42612676370658
 50
89.2108309521228051
 51
90.4104436777561915
  0
ARC
  5
12468
  8
0
 10
522.2052505186220515
 20
86.1043199981900216
 30
0.0
 40
2.533973421612711
 50
268.7540134218688195
 51
270.4104436777561773
  0
ARC
  5
12469
  8
0
 10
522.162083305207716
 20
87.5245033218604078
 30
0.0
 40
3.9535756047501209
 50
267.0102177171672793
 51
269.8270553067304718
  0
ARC
  5
1246A
  8
0
 10
521.9800164011566039
 20
84.2977346576612234
 30
0.0
 40
0.7218294129337277
 50
262.3301046873946802
 51
268.0832596020326832
  0
ARC
  5
1246B
  8
0
 10
521.9060787879440113
 20
83.7487078357562069
 30
0.0
 40
0.1678463610100167
 50
253.770038025195305
 51
262.3301046873946802
  0
ARC
  5
1246C
  8
0
 10
521.8697431155626418
 20
83.6238833107621531
 30
0.0
 40
0.037840810638489
 50
184.9008781912997961
 51
253.770038025189109
  0
ARC
  5
1246D
  8
0
 10
425.5307859363555281
 20
83.503103281507947
 30
0.0
 40
96.3013264552585611
 50
0.069936320755469
 51
0.095825617736253
  0
ARC
  5
1246E
  8
0
 10
521.6630240379477073
 20
83.6624718638462639
 30
0.0
 40
0.1689621471738925
 50
0.5739999357069018
 51
17.6404608959568705
  0
ARC
  5
1246F
  8
0
 10
521.6616772076539519
 20
83.6651258656730619
 30
0.0
 40
0.1694668271255449
 50
16.6473097274002413
 51
46.3537596015355007
  0
ARC
  5
12470
  8
0
 10
495.2724794651010143
 20
37.6882309731587313
 30
0.0
 40
53.1765251817824733
 50
60.1020898629530791
 51
60.1362285783842481
  0
ARC
  5
12471
  8
0
 10
521.772715574470908
 20
83.8331211148837951
 30
0.0
 40
0.0365951810211503
 50
205.3368045756473066
 51
233.9342932263976138
  0
ARC
  5
12472
  8
0
 10
521.7483776504656134
 20
83.8214207830579028
 30
0.0
 40
0.0095926813735448
 50
171.4577629705198092
 51
204.3827958681081896
  0
ARC
  5
12473
  8
0
 10
521.5595203074682331
 20
83.8497880483285059
 30
0.0
 40
0.1813832274290183
 50
351.4577629705198092
 51
357.6863416421592774
  0
ARC
  5
12474
  8
0
 10
521.7509970992875878
 20
83.8420518269947337
 30
0.0
 40
0.0102497836260199
 50
150.6553135852470859
 51
177.6863416421560089
  0
ARC
  5
12475
  8
0
 10
521.7488143790874346
 20
83.8414025445643034
 30
0.0
 40
0.008818341284826
 50
104.1483958492836024
 51
139.9660987480907863
  0
ARC
  5
12476
  8
0
 10
521.7597505969813483
 20
83.7926251527691761
 30
0.0
 40
0.0588040805177914
 50
89.7586479653895566
 51
102.8637217205295968
  0
ARC
  5
12477
  8
0
 10
522.5748160664237503
 20
-141.1135131263139044
 30
0.0
 40
224.7478544464865138
 50
90.0819751929389696
 51
90.1107189864924294
  0
ARC
  5
12478
  8
0
 10
522.1700238168444912
 20
75.463113056486435
 30
0.0
 40
8.170861934979289
 50
90.2069494483761076
 51
91.373733639862337
  0
ARC
  5
12479
  8
0
 10
521.9962604011465146
 20
82.709061069872277
 30
0.0
 40
0.922830730760778
 50
91.373733639862337
 51
95.3456098382150543
  0
ARC
  5
1247A
  8
0
 10
521.953797944336543
 20
83.1628645333228746
 30
0.0
 40
0.4670449875896149
 50
95.3456098382150543
 51
99.7562210527171231
  0
ARC
  5
1247B
  8
0
 10
521.8804180081857567
 20
83.5896329705461341
 30
0.0
 40
0.0340139101373535
 50
99.7562210527171231
 51
117.0488329354238033
  0
ARC
  5
1247C
  8
0
 10
521.8674018898549321
 20
83.6151248067218376
 30
0.0
 40
0.0053913133297162
 50
117.0488329354238033
 51
180.7960139352391877
  0
LINE
  5
1247D
  8
0
 10
521.8620110968250856
 20
83.5925476130174587
 30
0.0
 11
521.8620110968250856
 21
83.6150499072480358
 31
0.0
  0
ARC
  5
1247E
  8
0
 10
521.8688226055568293
 20
83.5924506675104766
 30
0.0
 40
0.0068121985905599
 50
179.1845869101327082
 51
202.0437515793140903
  0
ARC
  5
1247F
  8
0
 10
521.8691505904398582
 20
83.5946185493218366
 30
0.0
 40
0.0081511094971556
 50
215.4242733320311913
 51
250.2130965197320052
  0
ARC
  5
12480
  8
0
 10
521.9081994045063766
 20
83.7144872528632362
 30
0.0
 40
0.1342162617092216
 50
251.8504457097756983
 51
261.2763671607668812
  0
LINE
  5
12481
  8
0
 10
521.959954010225033
 20
83.619323844669907
 30
0.0
 11
521.959954010225033
 21
83.6155499734698964
 31
0.0
  0
ARC
  5
12482
  8
0
 10
521.9717768402563252
 20
83.6153907428871861
 30
0.0
 40
0.0118239022462284
 50
179.2283836630421945
 51
194.6240394264914926
  0
ARC
  5
12483
  8
0
 10
521.974489249440353
 20
83.6158885928075648
 30
0.0
 40
0.0145755482575409
 50
193.825655991599092
 51
230.5445128388550131
  0
ARC
  5
12484
  8
0
 10
521.984578692937589
 20
83.6307615084444649
 30
0.0
 40
0.0325132909579154
 50
233.4731505150174087
 51
254.3653136248757107
  0
ARC
  5
12485
  8
0
 10
522.0240140974226506
 20
83.7715928600017037
 30
0.0
 40
0.1787617802550807
 50
254.3583180600381866
 51
262.6126789578589751
  0
ARC
  5
12486
  8
0
 10
522.1518058964099964
 20
84.8213135716177362
 30
0.0
 40
1.2362278567120091
 50
262.9944888583402189
 51
267.5249764761811093
  0
ARC
  5
12487
  8
0
 10
522.2383515749208982
 20
86.5565713091988584
 30
0.0
 40
2.9736265744838768
 50
267.3028201870864109
 51
269.4788326104600173
  0
ARC
  5
12488
  8
0
 10
522.2509138486387883
 20
86.511086363919631
 30
0.0
 40
2.9282865247031
 50
269.2249493722677016
 51
270.0459270712154876
  0
ARC
  5
12489
  8
0
 10
522.0054385052881116
 20
83.1963365497733207
 30
0.0
 40
0.4254257760586137
 50
95.3320926289194546
 51
96.1375224552895986
  0
ARC
  5
1248A
  8
0
 10
522.1429655557932392
 20
81.722814022376042
 30
0.0
 40
1.9053522365180191
 50
92.7531071523181652
 51
95.3320926289194546
  0
ARC
  5
1248B
  8
0
 10
522.2272399042179813
 20
80.0425936032599452
 30
0.0
 40
3.5876828876335689
 50
91.1782657018560201
 51
92.8085591897947779
  0
ARC
  5
1248C
  8
0
 10
522.2555089441594873
 20
78.6681427086580385
 30
0.0
 40
4.9624244634547203
 50
90.0257991448029031
 51
91.1782657018560201
  0
ARC
  5
1248D
  8
0
 10
522.2532102326331369
 20
79.9935920177178303
 30
0.0
 40
3.6304589275205328
 50
89.9991972093917667
 51
90.5629410695701296
  0
ARC
  5
1248E
  8
0
 10
522.2513707597128132
 20
80.1808063624607286
 30
0.0
 40
3.4432355461331259
 50
90.5629410695701296
 51
91.4595742088711745
  0
ARC
  5
1248F
  8
0
 10
522.2248966199347251
 20
81.2198274234696243
 30
0.0
 40
2.403877260796905
 50
91.4595742088711745
 51
92.2315609331176631
  0
ARC
  5
12490
  8
0
 10
522.2481598048850628
 20
80.6228424815345051
 30
0.0
 40
3.0013152882703049
 50
92.2315609331176631
 51
93.1462582624831441
  0
ARC
  5
12491
  8
0
 10
522.1452133788724268
 20
82.495691239796173
 30
0.0
 40
1.12563929334178
 50
93.1462582624831441
 51
95.2648758171810641
  0
ARC
  5
12492
  8
0
 10
522.1104469411753826
 20
82.8729765831940739
 30
0.0
 40
0.7467554911899806
 50
95.2648758171810641
 51
97.5929785984829152
  0
ARC
  5
12493
  8
0
 10
522.0367741920774733
 20
83.4256447783342452
 30
0.0
 40
0.1891984915216725
 50
97.5929785984829152
 51
104.9059779689811052
  0
ARC
  5
12494
  8
0
 10
522.1064658671099323
 20
84.2047409018754536
 30
0.0
 40
0.6078877357679959
 50
258.7720638952720265
 51
267.9986100709380139
  0
ARC
  5
12495
  8
0
 10
522.2371329184575188
 20
86.3566358131508167
 30
0.0
 40
2.7635893758866912
 50
266.8492310842224811
 51
269.3603423838158051
  0
ARC
  5
12496
  8
0
 10
522.2531969022387557
 20
87.2178634954058083
 30
0.0
 40
3.6249484600043691
 50
269.2584204085205215
 51
270.0010147106103773
  0
LINE
  5
12497
  8
0
 10
522.2374906384059159
 20
83.6027371098699064
 30
0.0
 11
522.2532611002249041
 21
83.6027371098699064
 31
0.0
  0
ARC
  5
12498
  8
0
 10
522.0859230390716448
 20
84.184072235934778
 30
0.0
 40
0.5756830840193411
 50
262.5995610005252843
 51
263.9173098020330031
  0
ARC
  5
12499
  8
0
 10
522.1507947354995167
 20
84.7928325079430749
 30
0.0
 40
1.187890079873738
 50
263.9173098020330031
 51
268.2579265971671134
  0
ARC
  5
1249A
  8
0
 10
521.6973933766250866
 20
69.8853214008034058
 30
0.0
 40
13.7265143735974799
 50
88.0230437288948764
 51
88.2579265971671276
  0
ARC
  5
1249B
  8
0
 10
522.2085015263020296
 20
84.6922839186788536
 30
0.0
 40
1.0892667582374089
 50
268.0230437288947769
 51
269.9565363008628083
  0
ARC
  5
1249C
  8
0
 10
522.2063669429624042
 20
81.8783818497968383
 30
0.0
 40
1.724636120275733
 50
88.9659539312015539
 51
89.9565363008627941
  0
LINE
  5
1249D
  8
0
 10
522.236074773525047
 20
83.621130774569906
 30
0.0
 11
522.2704474202250822
 21
83.621130774569906
 31
0.0
  0
LINE
  5
1249E
  8
0
 10
522.236074773525047
 20
83.621130774569906
 30
0.0
 11
522.2179414091945091
 21
83.6234113011199156
 31
0.0
  0
LINE
  5
1249F
  8
0
 10
522.236074773525047
 20
83.6165777634699054
 30
0.0
 11
522.2704474202250822
 21
83.6165777634699054
 31
0.0
  0
LINE
  5
124A0
  8
0
 10
522.236074773525047
 20
83.6165777634699054
 30
0.0
 11
522.2179414091945091
 21
83.6188582900198867
 31
0.0
  0
LINE
  5
124A1
  8
0
 10
522.236074773525047
 20
83.6120387212698972
 30
0.0
 11
522.2704474202250822
 21
83.6120387212698972
 31
0.0
  0
LINE
  5
124A2
  8
0
 10
522.236074773525047
 20
83.6120387212698972
 30
0.0
 11
522.2179414091945091
 21
83.6143192478199069
 31
0.0
  0
LINE
  5
124A3
  8
0
 10
522.236074773525047
 20
83.6075028400699125
 30
0.0
 11
522.2704474202250822
 21
83.6075028400699125
 31
0.0
  0
LINE
  5
124A4
  8
0
 10
522.236074773525047
 20
83.6075028400699125
 30
0.0
 11
522.2179414091945091
 21
83.609783366619908
 31
0.0
  0
LINE
  5
124A5
  8
0
 10
522.1854749140617287
 20
83.6234113011199156
 30
0.0
 11
522.2179414091945091
 21
83.6234113011199156
 31
0.0
  0
LINE
  5
124A6
  8
0
 10
522.1832068502250195
 20
83.6188582900198867
 30
0.0
 11
522.2179414091945091
 21
83.6188582900198867
 31
0.0
  0
LINE
  5
124A7
  8
0
 10
522.1832068502250195
 20
83.6143192478199069
 30
0.0
 11
522.2179414091945091
 21
83.6143192478199069
 31
0.0
  0
LINE
  5
124A8
  8
0
 10
522.1832068502250195
 20
83.609783366619908
 30
0.0
 11
522.2179414091945091
 21
83.609783366619908
 31
0.0
  0
LINE
  5
124A9
  8
0
 10
522.1303787851750258
 20
83.621130774569906
 30
0.0
 11
522.1647514318750609
 21
83.621130774569906
 31
0.0
  0
LINE
  5
124AA
  8
0
 10
522.1303787851750258
 20
83.6165777634699054
 30
0.0
 11
522.1647514318750609
 21
83.6165777634699054
 31
0.0
  0
LINE
  5
124AB
  8
0
 10
522.1303787851750258
 20
83.6120387212698972
 30
0.0
 11
522.1647514318750609
 21
83.6120387212698972
 31
0.0
  0
LINE
  5
124AC
  8
0
 10
522.1303787851750258
 20
83.6075028400699125
 30
0.0
 11
522.1647514318750609
 21
83.6075028400699125
 31
0.0
  0
LINE
  5
124AD
  8
0
 10
522.0775307845749467
 20
83.6188472845698954
 30
0.0
 11
522.1119034312748681
 21
83.6188472845698954
 31
0.0
  0
LINE
  5
124AE
  8
0
 10
522.0775307845749467
 20
83.6143082423699013
 30
0.0
 11
522.1119034312748681
 21
83.6143082423699013
 31
0.0
  0
LINE
  5
124AF
  8
0
 10
522.0775307845749467
 20
83.6097723611699024
 30
0.0
 11
522.1119034312748681
 21
83.6097723611699024
 31
0.0
  0
LINE
  5
124B0
  8
0
 10
522.1651658692250066
 20
83.612054584269913
 30
0.0
 11
522.1832267857250827
 21
83.6097831690699138
 31
0.0
  0
LINE
  5
124B1
  8
0
 10
522.1832068502250195
 20
83.6143192478199069
 30
0.0
 11
522.1647514318750609
 21
83.6165777634699054
 31
0.0
  0
LINE
  5
124B2
  8
0
 10
522.1647514318750609
 20
83.621130774569906
 30
0.0
 11
522.1832068502250195
 21
83.6188582900198867
 31
0.0
  0
LINE
  5
124B3
  8
0
 10
522.1647514318750609
 20
83.6075028400699125
 30
0.0
 11
522.1832267857250827
 21
83.6097831690699138
 31
0.0
  0
LINE
  5
124B4
  8
0
 10
522.1651658692250066
 20
83.612054584269913
 30
0.0
 11
522.1832068502250195
 21
83.6143192478199069
 31
0.0
  0
LINE
  5
124B5
  8
0
 10
522.1647514318750609
 20
83.6165777634699054
 30
0.0
 11
522.1832068502250195
 21
83.6188582900198867
 31
0.0
  0
LINE
  5
124B6
  8
0
 10
522.1647514318750609
 20
83.621130774569906
 30
0.0
 11
522.1834428923600626
 21
83.623371805700927
 31
0.0
  0
LINE
  5
124B7
  8
0
 10
522.2179414091945091
 20
83.609783366619908
 30
0.0
 11
522.236074773525047
 21
83.6120387212698972
 31
0.0
  0
LINE
  5
124B8
  8
0
 10
522.2179414091945091
 20
83.6143192478199069
 30
0.0
 11
522.236074773525047
 21
83.6165777634699054
 31
0.0
  0
LINE
  5
124B9
  8
0
 10
522.2179414091945091
 20
83.6188582900198867
 30
0.0
 11
522.236074773525047
 21
83.621130774569906
 31
0.0
  0
LINE
  5
124BA
  8
0
 10
522.1832022242250559
 20
83.6052472878698865
 30
0.0
 11
522.2183556721249715
 21
83.6052657446198992
 31
0.0
  0
LINE
  5
124BB
  8
0
 10
522.2183556721249715
 20
83.6052657446198992
 30
0.0
 11
522.236074773525047
 21
83.6075028400699125
 31
0.0
  0
LINE
  5
124BC
  8
0
 10
522.2183556721248578
 20
83.6052657446198992
 30
0.0
 11
522.2374562994453981
 21
83.6027377293278562
 31
0.0
  0
LINE
  5
124BD
  8
0
 10
522.1832022242250559
 20
83.6052472878698865
 30
0.0
 11
522.1709244918984041
 21
83.6036655112070264
 31
0.0
  0
LINE
  5
124BE
  8
0
 10
522.1304033084248886
 20
83.6075168089699048
 30
0.0
 11
522.1146826012142128
 21
83.6054914635839737
 31
0.0
  0
LINE
  5
124BF
  8
0
 10
522.059080004925022
 20
83.612055851169913
 30
0.0
 11
522.0211143674555387
 21
83.6120487667402159
 31
0.0
  0
LINE
  5
124C0
  8
0
 10
522.0592477210250308
 20
83.6165816192699083
 30
0.0
 11
522.0419245802625028
 21
83.6165816192699083
 31
0.0
  0
LINE
  5
124C1
  8
0
 10
522.0592477210250308
 20
83.6165816192699083
 30
0.0
 11
522.0775307845749467
 21
83.6188472845698954
 31
0.0
  0
LINE
  5
124C2
  8
0
 10
522.0775307845749467
 20
83.6143082423699013
 30
0.0
 11
522.0592477210250308
 21
83.6165816192699083
 31
0.0
  0
LINE
  5
124C3
  8
0
 10
522.059080004925022
 20
83.612055851169913
 30
0.0
 11
522.0775307845749467
 21
83.6097723611699024
 31
0.0
  0
LINE
  5
124C4
  8
0
 10
522.0775307845749467
 20
83.6143082423699013
 30
0.0
 11
522.059080004925022
 21
83.612055851169913
 31
0.0
  0
LINE
  5
124C5
  8
0
 10
522.1647514318750609
 20
83.6075028400699125
 30
0.0
 11
522.1832022242250559
 21
83.6052472878698865
 31
0.0
  0
LINE
  5
124C6
  8
0
 10
522.1119034312748681
 20
83.6097723611699024
 30
0.0
 11
522.1303787851750258
 21
83.6120387212698972
 31
0.0
  0
LINE
  5
124C7
  8
0
 10
522.1303787851750258
 20
83.6165777634699054
 30
0.0
 11
522.1119034312748681
 21
83.6143082423699013
 31
0.0
  0
LINE
  5
124C8
  8
0
 10
522.1119034312748681
 20
83.6188472845698954
 30
0.0
 11
522.1303787851750258
 21
83.621130774569906
 31
0.0
  0
LINE
  5
124C9
  8
0
 10
522.1119034312748681
 20
83.6097723611699024
 30
0.0
 11
522.1304033084248886
 21
83.6075168089699048
 31
0.0
  0
LINE
  5
124CA
  8
0
 10
522.1119034312748681
 20
83.6143082423699013
 30
0.0
 11
522.1303787851750258
 21
83.6120387212698972
 31
0.0
  0
LINE
  5
124CB
  8
0
 10
522.1119034312748681
 20
83.6188472845698954
 30
0.0
 11
522.1303787851750258
 21
83.6165777634699054
 31
0.0
  0
LINE
  5
124CC
  8
0
 10
522.1303787851750258
 20
83.621130774569906
 30
0.0
 11
522.1253951353896809
 21
83.6216459588448799
 31
0.0
  0
LINE
  5
124CD
  8
0
 10
522.0775307845749467
 20
83.6188472845698954
 30
0.0
 11
522.0737853500768324
 21
83.6190619957878738
 31
0.0
  0
LINE
  5
124CE
  8
0
 10
522.2179414091945091
 20
83.6234113011199156
 30
0.0
 11
522.2169093624811467
 21
83.6238694519575745
 31
0.0
  0
ARC
  5
124CF
  8
0
 10
521.9939151815102605
 20
83.8506623338534354
 30
0.0
 40
0.2406078886551435
 50
256.5011758220412048
 51
261.9825048418413758
  0
ARC
  5
124D0
  8
0
 10
522.0361733996716112
 20
82.8799221293316464
 30
0.0
 40
0.74332394663033
 50
95.8862997224000537
 51
97.608777343953335
  0
ARC
  5
124D1
  8
0
 10
521.9860494137053593
 20
83.2551454461981848
 30
0.0
 40
0.3647675419962769
 50
97.608777343953335
 51
102.0547617515435945
  0
ARC
  5
124D2
  8
0
 10
521.9240433515936957
 20
83.5454961899453394
 30
0.0
 40
0.0678697378058325
 50
102.0547617515435945
 51
113.4167458574265055
  0
ARC
  5
124D3
  8
0
 10
521.9011095909380629
 20
83.598450515842984
 30
0.0
 40
0.0101625631298425
 50
113.4167458574265055
 51
137.0917267070342973
  0
ARC
  5
124D4
  8
0
 10
521.8953698200532472
 20
83.603785784788414
 30
0.0
 40
0.0023261057330628
 50
137.0917267070508956
 51
213.2170235324608996
  0
ARC
  5
124D5
  8
0
 10
521.8994785639908969
 20
83.6064762153525152
 30
0.0
 40
0.0072373370823702
 50
213.2170235324664986
 51
256.0958944331845828
  0
ARC
  5
124D6
  8
0
 10
521.9587247119089852
 20
83.7847654134955349
 30
0.0
 40
0.1950914074215618
 50
251.7841076277377113
 51
264.193245321660811
  0
ARC
  5
124D7
  8
0
 10
522.1228689946942723
 20
85.1565695668627285
 30
0.0
 40
1.5766541573318309
 50
263.3024523626513087
 51
267.6627618889310156
  0
ARC
  5
124D8
  8
0
 10
522.2476195380199897
 20
87.7796252116162776
 30
0.0
 40
4.2026523306120858
 50
267.4217876419136246
 51
270.07691281026149
  0
ARC
  5
124D9
  8
0
 10
522.2729033762316249
 20
82.1443214228110605
 30
0.0
 40
1.42612676370658
 50
89.5895563222438369
 51
90.7891690478772091
  0
ARC
  5
124DA
  8
0
 10
522.3012716818279841
 20
86.1043199981900216
 30
0.0
 40
2.533973421612711
 50
269.5895563222438227
 51
271.2459865781311805
  0
ARC
  5
124DB
  8
0
 10
522.3444388952424333
 20
87.5245033218604078
 30
0.0
 40
3.9535756047501209
 50
270.1729446932695282
 51
272.9897822828327207
  0
ARC
  5
124DC
  8
0
 10
522.5265057992934317
 20
84.2977346576612234
 30
0.0
 40
0.7218294129337277
 50
271.9167403979673168
 51
277.6698953126053198
  0
ARC
  5
124DD
  8
0
 10
522.6004434125059106
 20
83.7487078357562069
 30
0.0
 40
0.1678463610100167
 50
277.6698953126053198
 51
286.2299619748044961
  0
ARC
  5
124DE
  8
0
 10
522.6367790848873938
 20
83.6238833107621531
 30
0.0
 40
0.037840810638489
 50
286.2299619748108057
 51
355.0991218087000902
  0
ARC
  5
124DF
  8
0
 10
618.9757362640946212
 20
83.503103281507947
 30
0.0
 40
96.3013264552585611
 50
179.9041743822637045
 51
179.9300636792445118
  0
ARC
  5
124E0
  8
0
 10
522.8434981625023283
 20
83.6624718638462639
 30
0.0
 40
0.1689621471738925
 50
162.3595391040431082
 51
179.4260000642931061
  0
ARC
  5
124E1
  8
0
 10
522.8448449927958563
 20
83.6651258656730619
 30
0.0
 40
0.1694668271255449
 50
133.6462403984644993
 51
163.3526902725996877
  0
ARC
  5
124E2
  8
0
 10
549.2340427353489076
 20
37.6882309731587313
 30
0.0
 40
53.1765251817824733
 50
119.8637714216156951
 51
119.8979101370469067
  0
ARC
  5
124E3
  8
0
 10
522.7338066259791276
 20
83.8331211148837951
 30
0.0
 40
0.0365951810211503
 50
306.0657067736024146
 51
334.6631954243528071
  0
ARC
  5
124E4
  8
0
 10
522.7581445499845358
 20
83.8214207830579028
 30
0.0
 40
0.0095926813735448
 50
335.6172041318916968
 51
8.5422370294801482
  0
ARC
  5
124E5
  8
0
 10
522.9470018929819162
 20
83.8497880483285059
 30
0.0
 40
0.1813832274290183
 50
182.3136583578406942
 51
188.5422370294801055
  0
ARC
  5
124E6
  8
0
 10
522.7555251011623341
 20
83.8420518269947337
 30
0.0
 40
0.0102497836260199
 50
2.3136583578439711
 51
29.3446864147528217
  0
ARC
  5
124E7
  8
0
 10
522.757707821362601
 20
83.8414025445643034
 30
0.0
 40
0.008818341284826
 50
40.0339012519092208
 51
75.8516041507163692
  0
ARC
  5
124E8
  8
0
 10
522.7467716034686873
 20
83.7926251527691761
 30
0.0
 40
0.0588040805177914
 50
77.1362782794703605
 51
90.241352034610486
  0
ARC
  5
124E9
  8
0
 10
521.9317061340262853
 20
-141.1135131263139044
 30
0.0
 40
224.7478544464865138
 50
89.8892810135075848
 51
89.9180248070610446
  0
ARC
  5
124EA
  8
0
 10
522.3364983836055444
 20
75.463113056486435
 30
0.0
 40
8.170861934979289
 50
88.626266360137663
 51
89.7930505516239066
  0
ARC
  5
124EB
  8
0
 10
522.510261799303521
 20
82.709061069872277
 30
0.0
 40
0.922830730760778
 50
84.6543901617849457
 51
88.626266360137663
  0
ARC
  5
124EC
  8
0
 10
522.5527242561134926
 20
83.1628645333228746
 30
0.0
 40
0.4670449875896149
 50
80.2437789472828911
 51
84.6543901617849457
  0
ARC
  5
124ED
  8
0
 10
522.6261041922642789
 20
83.5896329705461341
 30
0.0
 40
0.0340139101373535
 50
62.9511670645761896
 51
80.2437789472828911
  0
ARC
  5
124EE
  8
0
 10
522.6391203105951035
 20
83.6151248067218376
 30
0.0
 40
0.0053913133297162
 50
359.2039860647607838
 51
62.9511670645761896
  0
LINE
  5
124EF
  8
0
 10
522.64451110362495
 20
83.5925476130174587
 30
0.0
 11
522.64451110362495
 21
83.6150499072480358
 31
0.0
  0
ARC
  5
124F0
  8
0
 10
522.63769959489332
 20
83.5924506675104766
 30
0.0
 40
0.0068121985905599
 50
337.9562484206858812
 51
0.8154130898672681
  0
ARC
  5
124F1
  8
0
 10
522.6373716100102911
 20
83.5946185493218366
 30
0.0
 40
0.0081511094971556
 50
289.7869034802678812
 51
324.5757266679688087
  0
ARC
  5
124F2
  8
0
 10
522.5983227959437727
 20
83.7144872528632362
 30
0.0
 40
0.1342162617092216
 50
278.7236328392331188
 51
288.1495542902242732
  0
LINE
  5
124F3
  8
0
 10
522.5465681902250026
 20
83.619323844669907
 30
0.0
 11
522.5465681902250026
 21
83.6155499734698964
 31
0.0
  0
ARC
  5
124F4
  8
0
 10
522.5347453601937104
 20
83.6153907428871861
 30
0.0
 40
0.0118239022462284
 50
345.3759605735085074
 51
0.7716163369577698
  0
ARC
  5
124F5
  8
0
 10
522.5320329510097963
 20
83.6158885928075648
 30
0.0
 40
0.0145755482575409
 50
309.4554871611450153
 51
346.1743440084007943
  0
ARC
  5
124F6
  8
0
 10
522.5219435075124466
 20
83.6307615084444649
 30
0.0
 40
0.0325132909579154
 50
285.634686375124204
 51
306.5268494849826197
  0
ARC
  5
124F7
  8
0
 10
522.482508103027385
 20
83.7715928600017037
 30
0.0
 40
0.1787617802550807
 50
277.3873210421410249
 51
285.6416819399619271
  0
ARC
  5
124F8
  8
0
 10
522.3547163040399255
 20
84.8213135716177362
 30
0.0
 40
1.2362278567120091
 50
272.4750235238190044
 51
277.0055111416597811
  0
ARC
  5
124F9
  8
0
 10
522.2681706255292511
 20
86.5565713091988584
 30
0.0
 40
2.9736265744838768
 50
270.5211673895400963
 51
272.6971798129134754
  0
ARC
  5
124FA
  8
0
 10
522.2556083518112473
 20
86.511086363919631
 30
0.0
 40
2.9282865247031
 50
269.9540729287845124
 51
270.7750506277322984
  0
ARC
  5
124FB
  8
0
 10
522.501083695161924
 20
83.1963365497733207
 30
0.0
 40
0.4254257760586137
 50
83.8624775447104156
 51
84.6679073710805454
  0
ARC
  5
124FC
  8
0
 10
522.3635566446566827
 20
81.722814022376042
 30
0.0
 40
1.9053522365180191
 50
84.6679073710805454
 51
87.2468928476818348
  0
ARC
  5
124FD
  8
0
 10
522.2792822962319406
 20
80.0425936032599452
 30
0.0
 40
3.5876828876335689
 50
87.1914408102052363
 51
88.8217342981439657
  0
ARC
  5
124FE
  8
0
 10
522.2510132562905483
 20
78.6681427086580385
 30
0.0
 40
4.9624244634547203
 50
88.8217342981439657
 51
89.9742008551970969
  0
ARC
  5
124FF
  8
0
 10
522.2533119678168987
 20
79.9935920177178303
 30
0.0
 40
3.6304589275205328
 50
89.4370589304298846
 51
90.0008027906082191
  0
ARC
  5
12500
  8
0
 10
522.2551514407371087
 20
80.1808063624607286
 30
0.0
 40
3.4432355461331259
 50
88.5404257911288255
 51
89.4370589304298846
  0
ARC
  5
12501
  8
0
 10
522.2816255805154242
 20
81.2198274234696243
 30
0.0
 40
2.403877260796905
 50
87.7684390668823369
 51
88.5404257911288255
  0
ARC
  5
12502
  8
0
 10
522.2583623955648591
 20
80.6228424815345051
 30
0.0
 40
3.0013152882703049
 50
86.8537417375168559
 51
87.7684390668823369
  0
ARC
  5
12503
  8
0
 10
522.3613088215777225
 20
82.495691239796173
 30
0.0
 40
1.12563929334178
 50
84.7351241828189643
 51
86.8537417375168559
  0
ARC
  5
12504
  8
0
 10
522.396075259274653
 20
82.8729765831940739
 30
0.0
 40
0.7467554911899806
 50
82.4070214015170848
 51
84.7351241828189643
  0
ARC
  5
12505
  8
0
 10
522.4697480083724486
 20
83.4256447783342452
 30
0.0
 40
0.1891984915216725
 50
75.0940220310188806
 51
82.4070214015170848
  0
ARC
  5
12506
  8
0
 10
522.4000563333401033
 20
84.2047409018754536
 30
0.0
 40
0.6078877357679959
 50
272.0013899290619861
 51
281.2279361047279735
  0
ARC
  5
12507
  8
0
 10
522.2693892819925168
 20
86.3566358131508167
 30
0.0
 40
2.7635893758866912
 50
270.6396576161841949
 51
273.1507689157774053
  0
ARC
  5
12508
  8
0
 10
522.2533252982111662
 20
87.2178634954071157
 30
0.0
 40
3.6249484600056761
 50
269.9989852893896227
 51
270.7415795914794785
  0
LINE
  5
12509
  8
0
 10
522.269031562044006
 20
83.6027371098699064
 30
0.0
 11
522.2532611002249041
 21
83.6027371098699064
 31
0.0
  0
ARC
  5
1250A
  8
0
 10
522.4205991613785045
 20
84.184072235934778
 30
0.0
 40
0.5756830840193411
 50
276.0826901979671106
 51
277.4004389994747157
  0
ARC
  5
1250B
  8
0
 10
522.3557274649505189
 20
84.7928325079430749
 30
0.0
 40
1.187890079873738
 50
271.7420734028328866
 51
276.0826901979671106
  0
ARC
  5
1250C
  8
0
 10
522.8091288238250627
 20
69.8853214008034058
 30
0.0
 40
13.7265143735974799
 50
91.7420734028328582
 51
91.9769562711051378
  0
ARC
  5
1250D
  8
0
 10
522.298020674148006
 20
84.6922839186788536
 30
0.0
 40
1.0892667582374089
 50
270.0434636991371917
 51
271.9769562711052231
  0
ARC
  5
1250E
  8
0
 10
522.3001552574876314
 20
81.8783818497968383
 30
0.0
 40
1.724636120275733
 50
90.0434636991372059
 51
91.0340460687984745
  0
LINE
  5
1250F
  8
0
 10
522.2704474202250822
 20
83.621130774569906
 30
0.0
 11
522.2885807912555265
 21
83.6234113011199156
 31
0.0
  0
LINE
  5
12510
  8
0
 10
522.2704474202250822
 20
83.6165777634699054
 30
0.0
 11
522.2885807912555265
 21
83.6188582900198867
 31
0.0
  0
LINE
  5
12511
  8
0
 10
522.2704474202250822
 20
83.6120387212698972
 30
0.0
 11
522.2885807912555265
 21
83.6143192478199069
 31
0.0
  0
LINE
  5
12512
  8
0
 10
522.2704474202250822
 20
83.6075028400699125
 30
0.0
 11
522.2885807912555265
 21
83.609783366619908
 31
0.0
  0
LINE
  5
12513
  8
0
 10
522.3210472863883069
 20
83.6234113011199156
 30
0.0
 11
522.2885807912555265
 21
83.6234113011199156
 31
0.0
  0
LINE
  5
12514
  8
0
 10
522.3233153502250161
 20
83.6188582900198867
 30
0.0
 11
522.2885807912555265
 21
83.6188582900198867
 31
0.0
  0
LINE
  5
12515
  8
0
 10
522.3233153502250161
 20
83.6143192478199069
 30
0.0
 11
522.2885807912555265
 21
83.6143192478199069
 31
0.0
  0
LINE
  5
12516
  8
0
 10
522.3233153502250161
 20
83.609783366619908
 30
0.0
 11
522.2885807912555265
 21
83.609783366619908
 31
0.0
  0
LINE
  5
12517
  8
0
 10
522.3761434152748961
 20
83.621130774569906
 30
0.0
 11
522.3417707685750884
 21
83.621130774569906
 31
0.0
  0
LINE
  5
12518
  8
0
 10
522.3761434152748961
 20
83.6165777634699054
 30
0.0
 11
522.3417707685750884
 21
83.6165777634699054
 31
0.0
  0
LINE
  5
12519
  8
0
 10
522.3761434152748961
 20
83.6120387212698972
 30
0.0
 11
522.3417707685750884
 21
83.6120387212698972
 31
0.0
  0
LINE
  5
1251A
  8
0
 10
522.3761434152748961
 20
83.6075028400699125
 30
0.0
 11
522.3417707685750884
 21
83.6075028400699125
 31
0.0
  0
LINE
  5
1251B
  8
0
 10
522.4289914158750889
 20
83.6188472845698954
 30
0.0
 11
522.3946187691750538
 21
83.6188472845698954
 31
0.0
  0
LINE
  5
1251C
  8
0
 10
522.4289914158750889
 20
83.6143082423699013
 30
0.0
 11
522.3946187691750538
 21
83.6143082423699013
 31
0.0
  0
LINE
  5
1251D
  8
0
 10
522.4289914158750889
 20
83.6097723611699024
 30
0.0
 11
522.3946187691750538
 21
83.6097723611699024
 31
0.0
  0
LINE
  5
1251E
  8
0
 10
522.341356331225029
 20
83.612054584269913
 30
0.0
 11
522.3232954147249529
 21
83.6097831690699138
 31
0.0
  0
LINE
  5
1251F
  8
0
 10
522.3233153502250161
 20
83.6143192478199069
 30
0.0
 11
522.3417707685750884
 21
83.6165777634699054
 31
0.0
  0
LINE
  5
12520
  8
0
 10
522.3417707685750884
 20
83.621130774569906
 30
0.0
 11
522.3233153502250161
 21
83.6188582900198867
 31
0.0
  0
LINE
  5
12521
  8
0
 10
522.3417707685750884
 20
83.6075028400699125
 30
0.0
 11
522.3232954147249529
 21
83.6097831690699138
 31
0.0
  0
LINE
  5
12522
  8
0
 10
522.341356331225029
 20
83.612054584269913
 30
0.0
 11
522.3233153502250161
 21
83.6143192478199069
 31
0.0
  0
LINE
  5
12523
  8
0
 10
522.3417707685750884
 20
83.6165777634699054
 30
0.0
 11
522.3233153502250161
 21
83.6188582900198867
 31
0.0
  0
LINE
  5
12524
  8
0
 10
522.3417707685750884
 20
83.621130774569906
 30
0.0
 11
522.3230793080898593
 21
83.623371805700927
 31
0.0
  0
LINE
  5
12525
  8
0
 10
522.2885807912555265
 20
83.609783366619908
 30
0.0
 11
522.2704474202250822
 21
83.6120387212698972
 31
0.0
  0
LINE
  5
12526
  8
0
 10
522.2885807912555265
 20
83.6143192478199069
 30
0.0
 11
522.2704474202250822
 21
83.6165777634699054
 31
0.0
  0
LINE
  5
12527
  8
0
 10
522.2885807912555265
 20
83.6188582900198867
 30
0.0
 11
522.2704474202250822
 21
83.621130774569906
 31
0.0
  0
LINE
  5
12528
  8
0
 10
522.323319976224866
 20
83.6052472878698865
 30
0.0
 11
522.2881665283249504
 21
83.6052657446198992
 31
0.0
  0
LINE
  5
12529
  8
0
 10
522.2881665283249504
 20
83.6052657446198992
 30
0.0
 11
522.2704474202250822
 21
83.6075028400699125
 31
0.0
  0
LINE
  5
1252A
  8
0
 10
522.2881665283249504
 20
83.6052657446198992
 30
0.0
 11
522.269031562044006
 21
83.6027371098699064
 31
0.0
  0
LINE
  5
1252B
  8
0
 10
522.323319976224866
 20
83.6052472878698865
 30
0.0
 11
522.3355977085516315
 21
83.6036655112070264
 31
0.0
  0
LINE
  5
1252C
  8
0
 10
522.3761188920250333
 20
83.6075168089699048
 30
0.0
 11
522.3918395992358228
 21
83.6054914635839737
 31
0.0
  0
LINE
  5
1252D
  8
0
 10
522.4474421955250136
 20
83.612055851169913
 30
0.0
 11
522.4854078329943832
 21
83.6120487667402159
 31
0.0
  0
LINE
  5
1252E
  8
0
 10
522.4472744794248911
 20
83.6165816192699083
 30
0.0
 11
522.4645976201874191
 21
83.6165816192699083
 31
0.0
  0
LINE
  5
1252F
  8
0
 10
522.4472744794248911
 20
83.6165816192699083
 30
0.0
 11
522.4289914158750889
 21
83.6188472845698954
 31
0.0
  0
LINE
  5
12530
  8
0
 10
522.4289914158750889
 20
83.6143082423699013
 30
0.0
 11
522.4472744794248911
 21
83.6165816192699083
 31
0.0
  0
LINE
  5
12531
  8
0
 10
522.4474421955250136
 20
83.612055851169913
 30
0.0
 11
522.4289914158750889
 21
83.6097723611699024
 31
0.0
  0
LINE
  5
12532
  8
0
 10
522.4289914158750889
 20
83.6143082423699013
 30
0.0
 11
522.4474421955250136
 21
83.612055851169913
 31
0.0
  0
LINE
  5
12533
  8
0
 10
522.3417707685750884
 20
83.6075028400699125
 30
0.0
 11
522.323319976224866
 21
83.6052472878698865
 31
0.0
  0
LINE
  5
12534
  8
0
 10
522.3946187691750538
 20
83.6097723611699024
 30
0.0
 11
522.3761434152748961
 21
83.6120387212698972
 31
0.0
  0
LINE
  5
12535
  8
0
 10
522.3761434152748961
 20
83.6165777634699054
 30
0.0
 11
522.3946187691750538
 21
83.6143082423699013
 31
0.0
  0
LINE
  5
12536
  8
0
 10
522.3946187691750538
 20
83.6188472845698954
 30
0.0
 11
522.3761434152748961
 21
83.621130774569906
 31
0.0
  0
LINE
  5
12537
  8
0
 10
522.3946187691750538
 20
83.6097723611699024
 30
0.0
 11
522.3761188920250333
 21
83.6075168089699048
 31
0.0
  0
LINE
  5
12538
  8
0
 10
522.3946187691750538
 20
83.6143082423699013
 30
0.0
 11
522.3761434152748961
 21
83.6120387212698972
 31
0.0
  0
LINE
  5
12539
  8
0
 10
522.3946187691750538
 20
83.6188472845698954
 30
0.0
 11
522.3761434152748961
 21
83.6165777634699054
 31
0.0
  0
LINE
  5
1253A
  8
0
 10
522.3761434152748961
 20
83.621130774569906
 30
0.0
 11
522.381127065060241
 21
83.6216459588448799
 31
0.0
  0
LINE
  5
1253B
  8
0
 10
522.4289914158750889
 20
83.6188472845698954
 30
0.0
 11
522.4327368503733169
 21
83.6190619957878738
 31
0.0
  0
LINE
  5
1253C
  8
0
 10
522.2885807912555265
 20
83.6234113011199156
 30
0.0
 11
522.2896128379686616
 21
83.6238694519575745
 31
0.0
  0
ARC
  5
1253D
  8
0
 10
522.5126070189396614
 20
83.8506623338534354
 30
0.0
 40
0.2406078886551435
 50
278.0174951581586242
 51
283.4988241779587952
  0
ARC
  5
1253E
  8
0
 10
522.4703488007785381
 20
82.8799221293316464
 30
0.0
 40
0.74332394663033
 50
82.391222656046665
 51
84.1137002775999747
  0
ARC
  5
1253F
  8
0
 10
522.5204727867445627
 20
83.2551454461981848
 30
0.0
 40
0.3647675419962769
 50
77.9452382484563486
 51
82.391222656046665
  0
ARC
  5
12540
  8
0
 10
522.5824788488562263
 20
83.5454961899453394
 30
0.0
 40
0.0678697378058325
 50
66.5832541425734945
 51
77.9452382484563486
  0
ARC
  5
12541
  8
0
 10
522.6054126095117454
 20
83.598450515842984
 30
0.0
 40
0.0101625631298425
 50
42.9082732929656672
 51
66.5832541425734945
  0
ARC
  5
12542
  8
0
 10
522.6111523803966747
 20
83.603785784788414
 30
0.0
 40
0.0023261057330628
 50
326.7829764675390152
 51
42.9082732929496515
  0
ARC
  5
12543
  8
0
 10
522.607043636459025
 20
83.6064762153525152
 30
0.0
 40
0.0072373370823702
 50
283.9041055668153035
 51
326.7829764675333877
  0
ARC
  5
12544
  8
0
 10
522.5477974885410504
 20
83.7847654134955349
 30
0.0
 40
0.1950914074215618
 50
275.806754678339189
 51
288.2158923722623172
  0
ARC
  5
12545
  8
0
 10
522.383653205755877
 20
85.1565695668627285
 30
0.0
 40
1.5766541573318309
 50
272.3372381110689844
 51
276.6975476373485776
  0
ARC
  5
12546
  8
0
 10
522.2589026624300459
 20
87.7796252116162776
 30
0.0
 40
4.2026523306120902
 50
269.92308718973851
 51
272.5782123580863754
  0
LINE
  5
12547
  8
0
 10
523.4420506626248653
 20
81.2727810427699069
 30
0.0
 11
523.4604732283249859
 21
81.1341618555699142
 31
0.0
  0
ARC
  5
12548
  8
0
 10
523.4496835412285236
 20
81.0552972171800548
 30
0.0
 40
0.0627877787002625
 50
93.060525344287214
 51
128.081954340552187
  0
ARC
  5
12549
  8
0
 10
523.4455183851790707
 20
81.1329752483298563
 30
0.0
 40
0.0150018455619195
 50
273.1060488055799738
 51
4.5366871556172113
  0
ARC
  5
1254A
  8
0
 10
523.3757889250639437
 20
81.2595369286868134
 30
0.0
 40
0.0675723643397658
 50
11.3030867781438609
 51
94.7782157973011579
  0
ARC
  5
1254B
  8
0
 10
523.3735988843782252
 20
81.693476669232453
 30
0.0
 40
0.3666183437690977
 50
237.1781513331671079
 51
269.4625909589641992
  0
ARC
  5
1254C
  8
0
 10
523.2884301673534537
 20
81.5614312996992084
 30
0.0
 40
0.2094888112973267
 50
198.0610038204382874
 51
237.1781513331671079
  0
ARC
  5
1254D
  8
0
 10
523.8335916317853389
 20
81.7321781622971031
 30
0.0
 40
0.7807536635991458
 50
181.1381881234673017
 51
197.5706047829507952
  0
ARC
  5
1254E
  8
0
 10
647.9568533853440613
 20
92.3160558955406856
 30
0.0
 40
125.3527884776487014
 50
183.8928559251446018
 51
184.850519363294211
  0
ARC
  5
1254F
  8
0
 10
193.2615786777161873
 20
0.7769429982009513
 30
0.0
 40
339.9348861021844073
 50
14.1519561267125304
 51
14.1889821758108301
  0
ARC
  5
12550
  8
0
 10
522.71309087059592
 20
84.082151194994978
 30
0.0
 40
0.1145634063597201
 50
10.0322816889049093
 51
78.4721621748893909
  0
ARC
  5
12551
  8
0
 10
522.610433141786757
 20
83.5875835231891244
 30
0.0
 40
0.6196725280053826
 50
78.3103085233124716
 51
87.4925646748214376
  0
ARC
  5
12552
  8
0
 10
522.0438110672214407
 20
76.6335641658557165
 30
0.0
 40
7.5963372746639424
 50
85.517171342078484
 51
86.2805346248855045
  0
ARC
  5
12553
  8
0
 10
522.1274607312158196
 20
78.0580919429590097
 30
0.0
 40
6.1693900792535503
 50
86.1975306597398259
 51
87.8812429427171651
  0
ARC
  5
12554
  8
0
 10
522.2467458139492464
 20
81.2776068633448574
 30
0.0
 40
2.9476661324771078
 50
87.8846503617501327
 51
89.8733578725970546
  0
ARC
  5
12555
  8
0
 10
521.3998489398082938
 20
83.6048565721628449
 30
0.0
 40
1.5068863596834641
 50
7.661051441428075
 51
10.8735157738864707
  0
LINE
  5
12556
  8
0
 10
527.4624146088250427
 20
81.140526865400787
 30
0.0
 11
525.0433737295248875
 21
81.140526865400787
 31
0.0
  0
LINE
  5
12557
  8
0
 10
519.422848534222112
 20
81.1047193189199049
 30
0.0
 11
517.0844075915207441
 21
81.1047193189199049
 31
0.0
  0
LINE
  5
12558
  8
0
 10
519.0679031594838762
 20
81.7634701009075258
 30
0.0
 11
517.4396521424051798
 21
81.7634701009075258
 31
0.0
  0
LINE
  5
12559
  8
0
 10
519.0743406270504465
 20
81.6001650759126562
 30
0.0
 11
517.4329154354994671
 21
81.6001650759126562
 31
0.0
  0
LINE
  5
1255A
  8
0
 10
519.4828484709249778
 20
81.2668744521699011
 30
0.0
 11
519.4828484709249778
 21
81.1602268654007872
 31
0.0
  0
LINE
  5
1255B
  8
0
 10
519.087291919437348
 20
81.7444576209346536
 30
0.0
 11
519.0916187782042925
 21
81.6205525959397846
 31
0.0
  0
LINE
  5
1255C
  8
0
 10
519.4335739885976864
 20
81.3270015981637329
 30
0.0
 11
517.0736820775632623
 21
81.3270015981637329
 31
0.0
  0
ARC
  5
1255D
  8
0
 10
519.0632753515142213
 20
81.5722803190059835
 30
0.0
 40
0.0299999998406164
 50
11.8999997768815593
 51
68.3557495556525367
  0
ARC
  5
1255E
  8
0
 10
519.3286278999200931
 20
81.5708350017218891
 30
0.0
 40
0.229351822530199
 50
191.9003917925701899
 51
244.3297591776315869
  0
ARC
  5
1255F
  8
0
 10
519.4417214954795554
 20
81.9526393937339463
 30
0.0
 40
0.6256908447254002
 50
250.1511808735772888
 51
269.2538952065706894
  0
ARC
  5
12560
  8
0
 10
519.4201747789654746
 20
81.2657669726986569
 30
0.0
 40
0.0626834760890977
 50
1.012343367427105
 51
77.6572199447629856
  0
ARC
  5
12561
  8
0
 10
519.4631484709250344
 20
81.1602268654007872
 30
0.0
 40
0.0197
 50
269.999999999980389
 51
0.0000000000089564
  0
ARC
  5
12562
  8
0
 10
519.4631095792195765
 20
81.099988893631874
 30
0.0
 40
0.0405379904250511
 50
89.9450310463867027
 51
173.2988215767788915
  0
LINE
  5
12563
  8
0
 10
519.0926306209249788
 20
81.5784664444699104
 30
0.0
 11
519.1042054042069367
 21
81.5235401614557134
 31
0.0
  0
ARC
  5
12564
  8
0
 10
519.071930778911792
 20
81.6198650758626627
 30
0.0
 40
0.0197
 50
269.9999999999869829
 51
1.999999976981268
  0
ARC
  5
12565
  8
0
 10
519.0676039201448475
 20
81.7437701008575459
 30
0.0
 40
0.0197
 50
1.999999976978013
 51
90.0000000000195257
  0
ARC
  5
12566
  8
0
 10
527.7297528634962873
 20
81.599826717139905
 30
0.0
 40
8.6429452738339698
 50
170.3349589796031012
 51
178.7206302141946992
  0
ARC
  5
12567
  8
0
 10
518.2937181739760035
 20
91.2853284098941344
 30
0.0
 40
8.1249853818586608
 50
269.7172911470639178
 51
271.2230295659774129
  0
ARC
  5
12568
  8
0
 10
518.7220762862131096
 20
76.7798158196206373
 30
0.0
 40
6.3874677281899324
 50
89.6446376313509603
 51
92.2873931634437952
  0
ARC
  5
12569
  8
0
 10
519.1155587742571242
 20
83.0667378768055755
 30
0.0
 40
0.0952564674748888
 50
350.4126662803000727
 51
71.754487355183187
  0
ARC
  5
1256A
  8
0
 10
519.0105486569171944
 20
82.8518992766425697
 30
0.0
 40
0.3337542331920147
 50
66.1720483323482824
 51
73.8381069538268235
  0
ARC
  5
1256B
  8
0
 10
519.0752166753627534
 20
83.020189611209986
 30
0.0
 40
0.154868874698119
 50
79.4959929288174152
 51
89.9914307609111859
  0
ARC
  5
1256C
  8
0
 10
519.0589696384048466
 20
81.7934706852698952
 30
0.0
 40
0.03
 50
270.0
 51
358.7206302142054142
  0
ARC
  5
1256D
  8
0
 10
518.225264394251667
 20
99.032849414051924
 30
0.0
 40
15.8724328219906692
 50
269.3317859049449225
 51
270.1023861670241786
  0
ARC
  5
1256E
  8
0
 10
518.4293733179503079
 20
111.4816925518084929
 30
0.0
 40
28.3228710015335707
 50
268.1171340752663923
 51
269.2126071983071256
  0
ARC
  5
1256F
  8
0
 10
508.8138426273773121
 20
81.6006371868877949
 30
0.0
 40
8.6051786690122611
 50
1.2797340079383159
 51
5.2406822555018948
  0
ARC
  5
12570
  8
0
 10
508.8371456181636177
 20
81.6092276260411467
 30
0.0
 40
8.5811908476696637
 50
5.197776193500407
 51
9.6715849739648334
  0
ARC
  5
12571
  8
0
 10
517.3908982078809231
 20
83.0667585962988255
 30
0.0
 40
0.0958526709216201
 50
105.9104923494472956
 51
189.5401535861701916
  0
ARC
  5
12572
  8
0
 10
517.7139094509434472
 20
82.339517000556981
 30
0.0
 40
0.8907608197406991
 50
111.4713770908748955
 51
113.0866662594652041
  0
ARC
  5
12573
  8
0
 10
517.432642704537102
 20
83.0205246501211889
 30
0.0
 40
0.1545649954979529
 50
91.1505304981316158
 51
106.8425673843904065
  0
ARC
  5
12574
  8
0
 10
517.4468835034407448
 20
81.7934777589447322
 30
0.0
 40
0.0300157307693158
 50
181.2503344330696109
 51
268.6711279277582776
  0
ARC
  5
12575
  8
0
 10
519.4500063519277546
 20
62.0686420972973565
 30
0.0
 40
21.1097433105291401
 50
91.0172396391900378
 51
91.8685428994776743
  0
LINE
  5
12576
  8
0
 10
517.0245607884171477
 20
81.2668744521699011
 30
0.0
 11
517.0245607884171477
 21
81.1602268654007872
 31
0.0
  0
LINE
  5
12577
  8
0
 10
517.4199641431124519
 20
81.7444576209346536
 30
0.0
 11
517.4156372843457348
 21
81.6205525959397846
 31
0.0
  0
ARC
  5
12578
  8
0
 10
517.4439807110358061
 20
81.5722803190059835
 30
0.0
 40
0.0299999998406164
 50
111.6442504443474064
 51
168.1000002231183998
  0
ARC
  5
12579
  8
0
 10
517.1786281626299342
 20
81.5708350017218891
 30
0.0
 40
0.229351822530199
 50
295.6702408223683847
 51
348.0996082074298101
  0
ARC
  5
1257A
  8
0
 10
517.0655345670702445
 20
81.9526393937339463
 30
0.0
 40
0.6256908447254002
 50
270.7461047934293106
 51
289.8488191264227112
  0
ARC
  5
1257B
  8
0
 10
517.0868855037475669
 20
81.2660864063063855
 30
0.0
 40
0.062329697234298
 50
102.2297390312343026
 51
179.2755795864586048
  0
ARC
  5
1257C
  8
0
 10
517.0440002764396468
 20
81.159967783624964
 30
0.0
 40
0.0194412144154737
 50
179.2364298137030971
 51
270.3162733711242254
  0
ARC
  5
1257D
  8
0
 10
517.0429413388392277
 20
81.0986324793637579
 30
0.0
 40
0.0419106159222274
 50
8.3508203261038148
 51
88.4054161967266765
  0
LINE
  5
1257E
  8
0
 10
517.4146254416250486
 20
81.5784664444699104
 30
0.0
 11
517.4030506583430906
 21
81.5235401614557134
 31
0.0
  0
ARC
  5
1257F
  8
0
 10
517.4353252836382353
 20
81.6198650758626627
 30
0.0
 40
0.0197
 50
178.000000023018714
 51
270.0000000000130171
  0
ARC
  5
12580
  8
0
 10
517.4396521424051798
 20
81.7437701008575459
 30
0.0
 40
0.0197
 50
89.9999999999804601
 51
178.000000023022011
  0
ARC
  5
12581
  8
0
 10
517.3659189030495327
 20
78.7492796287299655
 30
0.0
 40
4.4268283022131154
 50
88.2800276279438236
 51
88.5042276051873671
  0
ARC
  5
12582
  8
0
 10
517.4475404972456545
 20
81.7945833273372784
 30
0.0
 40
1.380433295484135
 50
88.5914578740807599
 51
90.3216131311817776
  0
ARC
  5
12583
  8
0
 10
517.4366942518696533
 20
83.5020258516273657
 30
0.0
 40
0.3270456461482271
 50
268.7463858063637758
 51
270.5426875309902925
  0
LINE
  5
12584
  8
0
 10
517.0441075916249929
 20
81.140526865400787
 30
0.0
 11
519.4631484709250344
 21
81.140526865400787
 31
0.0
  0
ENDSEC
  0
EOF
