  0
SECTION
  2
HEADER
  9
$ACADVER
  1
AC1009
  9
$INSBASE
 10
520.8315861824336253
 20
84.7220237942216556
 30
0.0
  9
$EXTMIN
 10
515.5661279553050917
 20
78.2756845380828139
 30
-0.0000000000000058
  9
$EXTMAX
 10
526.0993924451211115
 20
85.6945593728320745
 30
0.0000000000000104
  9
$LIMMIN
 10
0.0
 20
0.0
  9
$LIMMAX
 10
11.6929133858000007
 20
8.2677165353999982
  9
$ORTHOMODE
 70
     0
  9
$REGENMODE
 70
     1
  9
$FILLMODE
 70
     1
  9
$QTEXTMODE
 70
     0
  9
$MIRRTEXT
 70
     0
  9
$DRAGMODE
 70
     2
  9
$LTSCALE
 40
0.6431102362
  9
$OSMODE
 70
  4095
  9
$ATTMODE
 70
     1
  9
$TEXTSIZE
 40
0.2
  9
$TRACEWID
 40
0.05
  9
$TEXTSTYLE
  7
STANDARD
  9
$CLAYER
  8
0
  9
$CELTYPE
  6
BYLAYER
  9
$CECOLOR
 62
   256
  9
$DIMSCALE
 40
1.0
  9
$DIMASZ
 40
0.1875
  9
$DIMEXO
 40
0.0625
  9
$DIMDLI
 40
0.4443307087
  9
$DIMRND
 40
0.0
  9
$DIMDLE
 40
0.0
  9
$DIMEXE
 40
0.125
  9
$DIMTP
 40
0.01
  9
$DIMTM
 40
0.01
  9
$DIMTXT
 40
1.0
  9
$DIMCEN
 40
0.1052362205
  9
$DIMTSZ
 40
0.0
  9
$DIMTOL
 70
     1
  9
$DIMLIM
 70
     0
  9
$DIMTIH
 70
     0
  9
$DIMTOH
 70
     1
  9
$DIMSE1
 70
     0
  9
$DIMSE2
 70
     0
  9
$DIMTAD
 70
     0
  9
$DIMZIN
 70
     0
  9
$DIMBLK
  1

  9
$DIMASO
 70
     1
  9
$DIMSHO
 70
     1
  9
$DIMPOST
  1
\X
  9
$DIMAPOST
  1

  9
$DIMALT
 70
     1
  9
$DIMALTD
 70
     2
  9
$DIMALTF
 40
25.3999999999999986
  9
$DIMLFAC
 40
1.0
  9
$DIMTOFL
 70
     0
  9
$DIMTVP
 40
0.0
  9
$DIMTIX
 70
     0
  9
$DIMSOXD
 70
     0
  9
$DIMSAH
 70
     0
  9
$DIMBLK1
  1

  9
$DIMBLK2
  1

  9
$DIMSTYLE
  2
STANDARD
  9
$DIMCLRD
 70
     0
  9
$DIMCLRE
 70
     0
  9
$DIMCLRT
 70
     0
  9
$DIMTFAC
 40
1.0
  9
$DIMGAP
 40
0.09
  9
$LUNITS
 70
     2
  9
$LUPREC
 70
     4
  9
$SKETCHINC
 40
0.1
  9
$FILLETRAD
 40
0.0
  9
$AUNITS
 70
     0
  9
$AUPREC
 70
     0
  9
$MENU
  1
.
  9
$ELEVATION
 40
0.0
  9
$PELEVATION
 40
0.0
  9
$THICKNESS
 40
0.0
  9
$LIMCHECK
 70
     0
  9
$BLIPMODE
 70
     0
  9
$CHAMFERA
 40
0.0
  9
$CHAMFERB
 40
0.0
  9
$SKPOLY
 70
     0
  9
$TDCREATE
 40
2458172.5207638889551163
  9
$TDUPDATE
 40
2459601.5058564809150994
  9
$TDINDWG
 40
0.3297425694
  9
$TDUSRTIMER
 40
0.3297425694
  9
$USRTIMER
 70
     1
  9
$ANGBASE
 50
0.0
  9
$ANGDIR
 70
     0
  9
$PDMODE
 70
     0
  9
$PDSIZE
 40
0.3125
  9
$PLINEWID
 40
0.0
  9
$COORDS
 70
     1
  9
$SPLFRAME
 70
     0
  9
$SPLINETYPE
 70
     6
  9
$SPLINESEGS
 70
     8
  9
$ATTDIA
 70
     1
  9
$ATTREQ
 70
     1
  9
$HANDLING
 70
     1
  9
$HANDSEED
  5
123AE
  9
$SURFTAB1
 70
     6
  9
$SURFTAB2
 70
     6
  9
$SURFTYPE
 70
     6
  9
$SURFU
 70
     6
  9
$SURFV
 70
     6
  9
$UCSNAME
  2

  9
$UCSORG
 10
0.0
 20
0.0
 30
0.0
  9
$UCSXDIR
 10
1.0
 20
0.0
 30
0.0
  9
$UCSYDIR
 10
0.0
 20
1.0
 30
0.0
  9
$PUCSNAME
  2

  9
$PUCSORG
 10
0.0
 20
0.0
 30
0.0
  9
$PUCSXDIR
 10
1.0
 20
0.0
 30
0.0
  9
$PUCSYDIR
 10
0.0
 20
1.0
 30
0.0
  9
$USERI1
 70
     0
  9
$USERI2
 70
     0
  9
$USERI3
 70
     0
  9
$USERI4
 70
     0
  9
$USERI5
 70
     0
  9
$USERR1
 40
0.0
  9
$USERR2
 40
0.0
  9
$USERR3
 40
0.0
  9
$USERR4
 40
0.0
  9
$USERR5
 40
0.0
  9
$WORLDVIEW
 70
     1
  9
$SHADEDGE
 70
     3
  9
$SHADEDIF
 70
    70
  9
$TILEMODE
 70
     1
  9
$MAXACTVP
 70
    64
  9
$PLIMCHECK
 70
     0
  9
$PEXTMIN
 10
1.0000000000000000E+20
 20
1.0000000000000000E+20
 30
1.0000000000000000E+20
  9
$PEXTMAX
 10
-1.0000000000000000E+20
 20
-1.0000000000000000E+20
 30
-1.0000000000000000E+20
  9
$PLIMMIN
 10
0.0
 20
0.0
  9
$PLIMMAX
 10
12.0
 20
9.0
  9
$UNITMODE
 70
     0
  9
$VISRETAIN
 70
     1
  9
$PLINEGEN
 70
     0
  9
$PSLTSCALE
 70
     1
  0
ENDSEC
  0
SECTION
  2
TABLES
  0
TABLE
  2
VPORT
 70
     1
  0
VPORT
  2
*ACTIVE
 70
     0
 10
0.0
 20
0.0
 11
1.0
 21
1.0
 12
91.2034710921593614
 22
12.2825804432387695
 13
0.0
 23
0.0
 14
1.0
 24
1.0
 15
0.0
 25
0.0
 16
0.0
 26
0.0
 36
14.6338572656650907
 17
429.6292891080536833
 27
69.7025415122186871
 37
0.0
 40
7.4786934490414483
 41
2.0410052910052912
 42
50.0
 43
0.0
 44
0.0
 50
0.0
 51
0.0
 71
     0
 72
   100
 73
     1
 74
     1
 75
     0
 76
     0
 77
     0
 78
     0
  0
ENDTAB
  0
TABLE
  2
LTYPE
 70
     2
  0
LTYPE
  2
CONTINUOUS
 70
     0
  3
Solid line
 72
    65
 73
     0
 40
0.0
  0
LTYPE
  2
PHANTOM2
 70
     0
  3
___ _ _ ___ _ _ ___ _ _ ___ _ _
 72
    65
 73
     6
 40
1.25
 49
0.625
 49
-0.125
 49
0.125
 49
-0.125
 49
0.125
 49
-0.125
  0
ENDTAB
  0
TABLE
  2
LAYER
 70
     2
  0
LAYER
  2
0
 70
     0
 62
   255
  6
CONTINUOUS
  0
LAYER
  2
DEFPOINTS
 70
     0
 62
     7
  6
CONTINUOUS
  0
ENDTAB
  0
TABLE
  2
STYLE
 70
     1
  0
STYLE
  2
STANDARD
 70
     0
 40
0.0
 41
0.8
 50
0.0
 71
     0
 42
0.2
  3
txt
  4

  0
ENDTAB
  0
TABLE
  2
VIEW
 70
     0
  0
ENDTAB
  0
TABLE
  2
UCS
 70
     0
  0
ENDTAB
  0
TABLE
  2
APPID
 70
    10
  0
APPID
  2
ACAD
 70
     0
  0
APPID
  2
ACAD_MLEADERVER
 70
     0
  0
APPID
  2
ACAD_EXEMPT_FROM_CAD_STANDARDS
 70
     0
  0
APPID
  2
ACAD_DSTYLE_DIMJAG
 70
     0
  0
APPID
  2
ACAD_DSTYLE_DIMTALN
 70
     0
  0
APPID
  2
ACAD_NAV_VCDISPLAY
 70
     0
  0
APPID
  2
ACAECLAYERSTANDARD
 70
     0
  0
APPID
  2
ACCMTRANSPARENCY
 70
     0
  0
APPID
  2
DCO15
 70
     0
  0
APPID
  2
ACDBATTR
 70
     0
  0
ENDTAB
  0
TABLE
  2
DIMSTYLE
 70
     1
  0
DIMSTYLE
  2
STANDARD
 70
     0
  3

  4

  5

  6

  7

 40
1.0
 41
0.1875
 42
0.0625
 43
0.38
 44
0.125
 45
0.0
 46
0.0
 47
0.01
 48
0.01
140
0.15625
141
0.09
142
0.0
143
25.3999999999999986
144
1.0
145
0.0
146
1.0
147
0.09
 71
     1
 72
     0
 73
     1
 74
     1
 75
     0
 76
     0
 77
     0
 78
     4
170
     0
171
     2
172
     0
173
     0
174
     0
175
     0
176
     0
177
     0
178
     0
  0
ENDTAB
  0
ENDSEC
  0
SECTION
  2
BLOCKS
  0
BLOCK
  8
0
  2
$MODEL_SPACE
 70
     0
 10
0.0
 20
0.0
 30
0.0
  3
$MODEL_SPACE
  1

  0
ENDBLK
  5
21
  8
0
  0
BLOCK
 67
     1
  8
0
  2
$PAPER_SPACE
 70
     0
 10
0.0
 20
0.0
 30
0.0
  3
$PAPER_SPACE
  1

  0
ENDBLK
  5
1D
 67
     1
  8
0
  0
ENDSEC
  0
SECTION
  2
ENTITIES
  0
ATTDEF
  5
100F7
  8
DEFPOINTS
 10
520.8267602329532338
 20
84.7195936824521567
 30
0.0
 40
0.001
  1
P24705-GF
  3

  2
MODELNUMBER
 70
     0
1001
ACDBATTR
1070
     0
1070
     1
  0
ATTDEF
  5
100F8
  8
DEFPOINTS
 10
520.8267602329532338
 20
84.7179270157854774
 30
0.0
 40
0.001
  1
PER SE
  3

  2
TRADENAME
 70
     0
1001
ACDBATTR
1070
     0
1070
     1
  0
ATTDEF
  5
100F9
  8
DEFPOINTS
 10
520.8267602329532338
 20
84.7162603491188264
 30
0.0
 40
0.001
  1
BATHROOM SINK FAUCET
  3

  2
PRODUCT
 70
     0
1001
ACDBATTR
1070
     0
1070
     1
  0
ARC
  5
12262
  8
0
 10
520.8679025255348733
 20
73.8628977498031816
 30
0.0
 40
11.8058070577898295
 50
90.1762502519713678
 51
91.5999318035875092
  0
ARC
  5
12263
  8
0
 10
520.7442868501351541
 20
78.2885960578842059
 30
0.0
 40
7.3783827106828399
 50
91.5999318035875092
 51
93.3190365100936674
  0
ARC
  5
12264
  8
0
 10
521.0937139979764652
 20
72.2703186123280545
 30
0.0
 40
13.4067956570142801
 50
93.3207823319462051
 51
94.6962639464592542
  0
ARC
  5
12265
  8
0
 10
520.0287676346024455
 20
85.2596308983425359
 30
0.0
 40
0.3739070734281614
 50
95.0195443638196622
 51
172.9806541343531876
  0
ARC
  5
12266
  8
0
 10
525.322718859009683
 20
84.6889715278809945
 30
0.0
 40
5.6984864748224284
 50
173.7906991628836124
 51
179.6676721105656043
  0
ARC
  5
12267
  8
0
 10
524.1454056808357791
 20
84.7686968120347188
 30
0.0
 40
4.521318347593021
 50
180.5914678482087936
 51
187.0018213255353032
  0
ARC
  5
12268
  8
0
 10
520.0275799244901691
 20
84.2631525665465944
 30
0.0
 40
0.3725759485541096
 50
187.0314409115102876
 51
265.1458119011639951
  0
ARC
  5
12269
  8
0
 10
520.9385700157317842
 20
94.9901667754611623
 30
0.0
 40
11.1382035096670702
 50
265.1458119011639951
 51
266.1896380152758752
  0
ARC
  5
1226A
  8
0
 10
522.4679006077151371
 20
84.7149536740863738
 30
0.0
 40
2.7940190634817439
 50
168.2517564321256032
 51
179.8550158508205072
  0
ARC
  5
1226B
  8
0
 10
520.0408215329811128
 20
85.2473958955295643
 30
0.0
 40
0.3105569004657944
 50
94.8775563809298603
 51
173.2591392567188109
  0
ARC
  5
1226C
  8
0
 10
520.8609828276221378
 20
75.6363928845907907
 30
0.0
 40
9.956490936395193
 50
91.8573612850078121
 51
94.8775563809298603
  0
ARC
  5
1226D
  8
0
 10
520.8185045768102555
 20
76.9463005418406425
 30
0.0
 40
8.6458947085989202
 50
89.9133090209050607
 51
91.8573612709111131
  0
ARC
  5
1226E
  8
0
 10
522.3704970547031508
 20
84.7816909911909136
 30
0.0
 40
2.6972666056046708
 50
181.2675637774495101
 51
191.0966290682032138
  0
ARC
  5
1226F
  8
0
 10
520.0820259969668768
 20
84.3061396923138346
 30
0.0
 40
0.3610070376764712
 50
186.9329029785519083
 51
217.1923235903890088
  0
ARC
  5
12270
  8
0
 10
520.0296778782046658
 20
84.2557349668559681
 30
0.0
 40
0.2889619878866289
 50
215.5049203443718966
 51
266.9739976187091202
  0
ARC
  5
12271
  8
0
 10
520.7638410326875373
 20
92.4691344195998965
 30
0.0
 40
8.5349238482930208
 50
264.962601703115979
 51
266.19378763099661
  0
LINE
  5
12272
  8
0
 10
520.5584369405023608
 20
78.2806698911216472
 30
0.0
 11
521.1047354243648897
 21
78.2806698911216472
 31
0.0
  0
LINE
  5
12273
  8
0
 10
520.2549570142733728
 20
78.580679278570841
 30
0.0
 11
520.189077885633651
 21
84.3083253030216753
 31
0.0
  0
ARC
  5
12274
  8
0
 10
520.8296485771160178
 20
78.6079014181287619
 30
0.0
 40
6.6461012061377707
 50
89.9832959798254279
 51
95.4391010332319354
  0
ARC
  5
12275
  8
0
 10
520.2148374461686444
 20
85.0648881476273573
 30
0.0
 40
0.1599104633629637
 50
95.4391010332319354
 51
171.0365174296894963
  0
ARC
  5
12276
  8
0
 10
523.2827926085111585
 20
84.6855632843534636
 30
0.0
 40
3.2511417936816618
 50
172.8574858777886902
 51
179.3574327855654076
  0
ARC
  5
12277
  8
0
 10
522.2680061176047275
 20
84.7716127780047799
 30
0.0
 40
2.2367006261046809
 50
181.2703856121954971
 51
189.1010836888061988
  0
ARC
  5
12278
  8
0
 10
520.1980704576134258
 20
84.4401964326982863
 30
0.0
 40
0.1404015154460888
 50
189.171110088667092
 51
266.3665447074300232
  0
ARC
  5
12279
  8
0
 10
518.9964602091979486
 20
84.3168696568813232
 30
0.0
 40
1.1926482834976231
 50
359.5895188803934275
 51
8.5525385105043785
  0
ARC
  5
1227A
  8
0
 10
519.907877421155149
 20
84.4539363982404296
 30
0.0
 40
0.2709820609209236
 50
8.5525385105043785
 51
18.6817342548953995
  0
ARC
  5
1227B
  8
0
 10
520.1490254362743144
 20
84.5356030857760175
 30
0.0
 40
0.0163812580923077
 50
18.2567269117970383
 51
65.9440163076771881
  0
ARC
  5
1227C
  8
0
 10
520.1541858938196583
 20
84.5471632509402724
 30
0.0
 40
0.0037215684948835
 50
65.9440163076699122
 51
125.4357261395953032
  0
ARC
  5
1227D
  8
0
 10
520.171098906326506
 20
84.5233957300256549
 30
0.0
 40
0.0328925308115116
 50
125.4357261395953032
 51
142.0853006761902861
  0
ARC
  5
1227E
  8
0
 10
521.0875355162681899
 20
83.8095916198452642
 30
0.0
 40
1.194517413358305
 50
142.0853006761902861
 51
149.3906207323468038
  0
ARC
  5
1227F
  8
0
 10
520.5584369405023608
 20
78.5841698911216611
 30
0.0
 40
0.3035
 50
180.6589844366752118
 51
270.0
  0
ARC
  5
12280
  8
0
 10
524.8315858847433901
 20
76.0743354254969404
 30
0.0
 40
9.6148935136466633
 50
90.0021847921769478
 51
94.1332097399246521
  0
ARC
  5
12281
  8
0
 10
524.8315861790332519
 20
76.0743299914271205
 30
0.0
 40
9.6148989547945192
 50
94.1332091551080481
 51
95.1036693232986039
  0
ARC
  5
12282
  8
0
 10
524.0096224631570294
 20
85.2775961695630684
 30
0.0
 40
0.3749999999445255
 50
95.1036693232986039
 51
172.7588940611699968
  0
ARC
  5
12283
  8
0
 10
341416.7820315901190042
 20
-36528.9040547530821641
 30
0.0
 40
342853.8138487847172655
 50
173.8695478115515982
 51
173.8695767415809996
  0
ARC
  5
12284
  8
0
 10
529.8445974332922788
 20
84.6892702360875091
 30
0.0
 40
6.2426845463677001
 50
175.7381315157360007
 51
179.6993842566755859
  0
ARC
  5
12285
  8
0
 10
527.8975380289605255
 20
84.7559872099702147
 30
0.0
 40
4.2956734839072004
 50
180.4530094436331069
 51
185.1381280148501958
  0
ARC
  5
12286
  8
0
 10
528.5969296770319943
 20
84.8188754034480752
 30
0.0
 40
4.9978868434148129
 50
185.1381280148501958
 51
187.1228202246076933
  0
ARC
  5
12287
  8
0
 10
524.0087653474895433
 20
84.2455334717533475
 30
0.0
 40
0.3740385667598833
 50
187.1228202246076933
 51
265.0141193208798995
  0
ARC
  5
12288
  8
0
 10
524.8523953497218599
 20
93.9158178569600892
 30
0.0
 40
10.0810520967513302
 50
265.0141704537595047
 51
269.879645304677183
  0
ARC
  5
12289
  8
0
 10
530.1384507150664831
 20
84.7107378265538813
 30
0.0
 40
6.476461736978421
 50
176.1315626742288885
 51
179.9001555681759896
  0
ARC
  5
1228A
  8
0
 10
538.7776591267543154
 20
83.6018494785512587
 30
0.0
 40
15.1798283922168409
 50
173.5079180630692122
 51
174.1551923104638036
  0
ARC
  5
1228B
  8
0
 10
524.0044898323842517
 20
85.2829714416631077
 30
0.0
 40
0.3113146112440834
 50
94.3677271322823543
 51
173.5079180630692122
  0
ARC
  5
1228C
  8
0
 10
523.395041658330797
 20
93.262211189284784
 30
0.0
 40
7.6911658808835117
 50
274.3677271322824254
 51
275.5784438168772112
  0
ARC
  5
1228D
  8
0
 10
524.8315861790334793
 20
76.0743299914204698
 30
0.0
 40
9.5579990339011847
 50
90.0021995614018948
 51
94.1332091535929152
  0
ARC
  5
1228E
  8
0
 10
524.8309472158955487
 20
75.2104515586198232
 30
0.0
 40
10.0461503464883304
 50
89.9984485116349049
 51
93.1439221208512009
  0
ARC
  5
1228F
  8
0
 10
524.8045349418633805
 20
75.6913135676819451
 30
0.0
 40
9.5645635111420901
 50
93.1439221208512009
 51
94.4442113239389869
  0
ARC
  5
12290
  8
0
 10
524.0671756059866766
 20
85.1784448702584456
 30
0.0
 40
0.048820810620406
 50
94.4442113239389869
 51
174.3811777980614011
  0
ARC
  5
12291
  8
0
 10
529.7636639588679373
 20
84.6358625986890445
 30
0.0
 40
5.7710906754167119
 50
174.5575692617605057
 51
179.1445540300180141
  0
ARC
  5
12292
  8
0
 10
524.8485881303621454
 20
75.4259325704862533
 30
0.0
 40
9.9519577947045423
 50
90.0999968032505052
 51
94.4846548243574063
  0
ARC
  5
12293
  8
0
 10
524.083584896537559
 20
85.158885235550045
 30
0.0
 40
0.1889941489820083
 50
93.993200833792045
 51
102.6842070040814008
  0
ARC
  5
12294
  8
0
 10
524.0823862458682925
 20
85.1642109123226163
 30
0.0
 40
0.1835352483131299
 50
102.6842070040814008
 51
174.8813147380272142
  0
ARC
  5
12295
  8
0
 10
530.7203623121614555
 20
84.5705418164766485
 30
0.0
 40
6.8480059121182704
 50
174.8891195166019941
 51
178.7324797773846115
  0
ARC
  5
12296
  8
0
 10
519.523987787700662
 20
84.7107378265538813
 30
0.0
 40
6.476461736978421
 50
0.0998444318239737
 51
3.868437325771048
  0
ARC
  5
12297
  8
0
 10
510.8847793760130003
 20
83.6018494785512587
 30
0.0
 40
15.1798283922168409
 50
5.844807689536224
 51
6.4920819369307718
  0
ARC
  5
12298
  8
0
 10
525.6579486703831208
 20
85.2829714416631077
 30
0.0
 40
0.3113146112440834
 50
6.4920819369307718
 51
85.6322728677176315
  0
ARC
  5
12299
  8
0
 10
526.2673968444364618
 20
93.262211189284784
 30
0.0
 40
7.6911658808835117
 50
264.4215561831227888
 51
265.6322728677175746
  0
ARC
  5
1229A
  8
0
 10
524.8308523237335521
 20
76.0743299914204698
 30
0.0
 40
9.5579990339011847
 50
85.866790846407099
 51
89.9978004385981052
  0
ARC
  5
1229B
  8
0
 10
524.8314912868717101
 20
75.2104515586198232
 30
0.0
 40
10.0461503464883304
 50
86.8560778791487991
 51
90.0015514883650951
  0
ARC
  5
1229C
  8
0
 10
524.8579035609036509
 20
75.6913135676819451
 30
0.0
 40
9.5645635111420901
 50
85.5557886760610131
 51
86.8560778791487991
  0
ARC
  5
1229D
  8
0
 10
525.5952628967803548
 20
85.1784448702584456
 30
0.0
 40
0.048820810620406
 50
5.618822201938598
 51
85.5557886760610131
  0
ARC
  5
1229E
  8
0
 10
519.8987745438993215
 20
84.6358625986890445
 30
0.0
 40
5.7710906754167119
 50
0.8554459699820194
 51
5.442430738239449
  0
ARC
  5
1229F
  8
0
 10
524.8138503724049997
 20
75.4259325704862533
 30
0.0
 40
9.9519577947045423
 50
85.515345175642608
 51
89.9000031967494806
  0
ARC
  5
122A0
  8
0
 10
525.5788536062295861
 20
85.158885235550045
 30
0.0
 40
0.1889941489820083
 50
77.315792995918585
 51
86.0067991662079834
  0
ARC
  5
122A1
  8
0
 10
525.5800522568988526
 20
85.1642109123226163
 30
0.0
 40
0.1835352483131299
 50
5.1186852619727734
 51
77.315792995918585
  0
ARC
  5
122A2
  8
0
 10
517.4319999567378545
 20
84.4609724909372659
 30
0.0
 40
8.3618776914347563
 50
1.7890202619128339
 51
4.9369135490186613
  0
ARC
  5
122A3
  8
0
 10
524.8306991269417949
 20
76.0743299914270352
 30
0.0
 40
9.6148989547946115
 50
85.8667908448919661
 51
89.9969005461727534
  0
ARC
  5
122A4
  8
0
 10
524.8306991269420223
 20
76.0743299914271205
 30
0.0
 40
9.6148989547945192
 50
84.8963306767014103
 51
85.8667908448919661
  0
ARC
  5
122A5
  8
0
 10
525.6526628428181311
 20
85.2775961695630684
 30
0.0
 40
0.3749999999445255
 50
7.2411059388299641
 51
84.8963306767014103
  0
ARC
  5
122A6
  8
0
 10
519.8176878726826544
 20
84.6892702360875091
 30
0.0
 40
6.2426845463677001
 50
0.3006157433243664
 51
4.2618684842640029
  0
ARC
  5
122A7
  8
0
 10
521.7647472770147488
 20
84.7559872099702147
 30
0.0
 40
4.2956734839072004
 50
354.86187198514898
 51
359.5469905563667794
  0
ARC
  5
122A8
  8
0
 10
521.0653556289431663
 20
84.8188754034480752
 30
0.0
 40
4.9978868434148129
 50
352.8771797753922783
 51
354.86187198514898
  0
ARC
  5
122A9
  8
0
 10
525.653519958485731
 20
84.2455334717533475
 30
0.0
 40
0.3740385667598833
 50
274.9858806791201005
 51
352.8771797753922783
  0
ARC
  5
122AA
  8
0
 10
524.8098781782149445
 20
93.915996548646433
 30
0.0
 40
10.0812311359306808
 50
270.1212901797052268
 51
274.9858079691305761
  0
ARC
  5
122AB
  8
0
 10
526.8885780438388338
 20
84.6742004022982968
 30
0.0
 40
3.2269336247454459
 50
179.1508412783057906
 51
186.6790654677681118
  0
ARC
  5
122AC
  8
0
 10
526.1455907496067539
 20
84.5583350382709256
 30
0.0
 40
2.4756787186849269
 50
186.0156720376577937
 51
188.1916766497274978
  0
ARC
  5
122AD
  8
0
 10
524.0131107985431527
 20
84.2495910087423141
 30
0.0
 40
0.3209699049344199
 50
187.8797898916043891
 51
267.1166953141942031
  0
ARC
  5
122AE
  8
0
 10
524.2746211250929491
 20
86.3139108508643744
 30
0.0
 40
2.4009917990639811
 50
263.359338322152098
 51
266.8500354487854906
  0
ARC
  5
122AF
  8
0
 10
524.783095212123385
 20
92.1058782469542479
 30
0.0
 40
8.2143334522529852
 50
265.5285573107253185
 51
270.3382312029755212
  0
ARC
  5
122B0
  8
0
 10
524.8309472158955487
 20
94.233596029823488
 30
0.0
 40
10.0461503464883304
 50
266.8560778791488133
 51
270.0015514883651235
  0
ARC
  5
122B1
  8
0
 10
524.8045349418633805
 20
93.7527340207613662
 30
0.0
 40
9.5645635111420901
 50
265.5557886760610131
 51
266.8560778791488133
  0
ARC
  5
122B2
  8
0
 10
524.0671756059866766
 20
84.2656027181848373
 30
0.0
 40
0.048820810620406
 50
185.6188222019385989
 51
265.5557886760610131
  0
ARC
  5
122B3
  8
0
 10
529.7636639588679373
 20
84.8081849897542668
 30
0.0
 40
5.7710906754167119
 50
180.8554459699819859
 51
185.442430738239409
  0
ARC
  5
122B4
  8
0
 10
524.8485881303621454
 20
94.0181150179570437
 30
0.0
 40
9.9519577947045423
 50
265.515345175642608
 51
269.9000031967494806
  0
ARC
  5
122B5
  8
0
 10
524.083584896537559
 20
84.2851623528932663
 30
0.0
 40
0.1889941489820083
 50
257.3157929959186276
 51
266.0067991662078839
  0
ARC
  5
122B6
  8
0
 10
524.0823862458682925
 20
84.279836676120695
 30
0.0
 40
0.1835352483131299
 50
185.1186852619727858
 51
257.3157929959186276
  0
ARC
  5
122B7
  8
0
 10
530.7203623121614555
 20
84.8735057719666344
 30
0.0
 40
6.8480059121182704
 50
181.2675202226153033
 51
185.1108804833980059
  0
ARC
  5
122B8
  8
0
 10
522.8559033177490392
 20
84.6648697185656403
 30
0.0
 40
3.1450557374874961
 50
351.8794418340543757
 51
1.041274896003773
  0
ARC
  5
122B9
  8
0
 10
525.6063966002209327
 20
84.2621234806616712
 30
0.0
 40
0.365392964283276
 50
337.819744530107414
 51
353.4764028028616281
  0
ARC
  5
122BA
  8
0
 10
525.6487095361026149
 20
84.250327632181893
 30
0.0
 40
0.321797610258517
 50
272.9794619142244869
 51
336.9203659886985065
  0
ARC
  5
122BB
  8
0
 10
525.4512257603794296
 20
85.5739319509340675
 30
0.0
 40
1.6588556918308619
 50
272.3658815688164054
 51
277.419395515334827
  0
ARC
  5
122BC
  8
0
 10
524.8315861790337067
 20
93.4496869561224059
 30
0.0
 40
9.5579990339007548
 50
270.0
 51
274.1285222851013827
  0
ARC
  5
122BD
  8
0
 10
524.8314912868717101
 20
94.233596029823488
 30
0.0
 40
10.0461503464883304
 50
269.9984485116348765
 51
273.1439221208511867
  0
ARC
  5
122BE
  8
0
 10
524.8579035609036509
 20
93.7527340207613662
 30
0.0
 40
9.5645635111420901
 50
273.1439221208511867
 51
274.4442113239389869
  0
ARC
  5
122BF
  8
0
 10
525.5952628967803548
 20
84.2656027181848373
 30
0.0
 40
0.048820810620406
 50
274.4442113239389869
 51
354.3811777980614011
  0
ARC
  5
122C0
  8
0
 10
519.8987745438993215
 20
84.8081849897542668
 30
0.0
 40
5.7710906754167119
 50
354.5575692617604773
 51
359.1445540300179005
  0
ARC
  5
122C1
  8
0
 10
524.8138503724049997
 20
94.0181150179570437
 30
0.0
 40
9.9519577947045423
 50
270.0999968032505194
 51
274.484654824357392
  0
ARC
  5
122C2
  8
0
 10
525.5788536062295861
 20
84.2851623528932663
 30
0.0
 40
0.1889941489820083
 50
273.9932008337920024
 51
282.6842070040813724
  0
ARC
  5
122C3
  8
0
 10
525.5800522568988526
 20
84.279836676120695
 30
0.0
 40
0.1835352483131299
 50
282.6842070040813724
 51
354.8813147380271857
  0
ARC
  5
122C4
  8
0
 10
517.4319999567383093
 20
84.9830750975060312
 30
0.0
 40
8.3618776914342767
 50
355.0630864509805065
 51
358.2109797380862801
  0
ARC
  5
122C5
  8
0
 10
524.1104778301636316
 20
85.0324422793497661
 30
0.0
 40
1.9364011398818
 50
3.5752691297198398
 51
8.6856063596933168
  0
ARC
  5
122C6
  8
0
 10
520.7952698393323772
 20
73.8628977498043042
 30
0.0
 40
11.8058070577886998
 50
88.400068196412505
 51
89.8237497480286464
  0
ARC
  5
122C7
  8
0
 10
520.9188855147320965
 20
78.2885960578842059
 30
0.0
 40
7.3783827106828399
 50
86.6809634899063468
 51
88.400068196412505
  0
ARC
  5
122C8
  8
0
 10
520.5694583668907853
 20
72.2703186123280545
 30
0.0
 40
13.4067956570142801
 50
85.3037360535407743
 51
86.6792176680538233
  0
ARC
  5
122C9
  8
0
 10
521.634404730264805
 20
85.2596308983425359
 30
0.0
 40
0.3739070734281614
 50
7.0193458656468231
 51
84.980455636180352
  0
ARC
  5
122CA
  8
0
 10
516.3404535058574538
 20
84.6889715278809945
 30
0.0
 40
5.6984864748224284
 50
0.3323278894343438
 51
6.2093008371164284
  0
ARC
  5
122CB
  8
0
 10
517.517766684031244
 20
84.7686968120347188
 30
0.0
 40
4.521318347593021
 50
352.9981786744647252
 51
359.408532151791178
  0
ARC
  5
122CC
  8
0
 10
521.6355924403769677
 20
84.2631525665465944
 30
0.0
 40
0.3725759485541096
 50
274.8541880988360049
 51
352.9685590884897124
  0
ARC
  5
122CD
  8
0
 10
520.7246023491354663
 20
94.9901667754611623
 30
0.0
 40
11.1382035096670702
 50
273.8103619847241248
 51
274.8541880988360049
  0
ARC
  5
122CE
  8
0
 10
519.1952717571519997
 20
84.7149536740863738
 30
0.0
 40
2.7940190634817439
 50
0.1449841491795383
 51
11.7482435678743293
  0
ARC
  5
122CF
  8
0
 10
521.6223508318862514
 20
85.2473958955295643
 30
0.0
 40
0.3105569004657944
 50
6.740860743281206
 51
85.1224436190701539
  0
ARC
  5
122D0
  8
0
 10
520.8021895372452263
 20
75.6363928845907907
 30
0.0
 40
9.956490936395193
 50
85.1224436190701539
 51
88.1426387149921879
  0
ARC
  5
122D1
  8
0
 10
520.8446677880572224
 20
76.9463005418522386
 30
0.0
 40
8.6458947085873312
 50
88.1426387290889011
 51
90.0866909790949393
  0
ARC
  5
122D2
  8
0
 10
519.2926753101638724
 20
84.7816909911909136
 30
0.0
 40
2.6972666056046708
 50
348.9033709317968146
 51
358.7324362225505183
  0
ARC
  5
122D3
  8
0
 10
521.5811463679003737
 20
84.3061396923138346
 30
0.0
 40
0.3610070376764712
 50
322.8076764096110196
 51
353.067097021447978
  0
ARC
  5
122D4
  8
0
 10
521.6334944866623573
 20
84.2557349668559681
 30
0.0
 40
0.2889619878866289
 50
273.0260023812908798
 51
324.4950796556281034
  0
ARC
  5
122D5
  8
0
 10
520.8993313321797132
 20
92.4691344195998965
 30
0.0
 40
8.5349238482930208
 50
273.80621236900339
 51
275.037398296884021
  0
LINE
  5
122D6
  8
0
 10
521.4082153505938777
 20
78.580679278570841
 30
0.0
 11
521.4740944792334858
 21
84.3083253030216753
 31
0.0
  0
ARC
  5
122D7
  8
0
 10
520.8335237877512327
 20
78.6079014181287619
 30
0.0
 40
6.6461012061377707
 50
84.5608989667680646
 51
90.0167040201745863
  0
ARC
  5
122D8
  8
0
 10
521.4483349186983787
 20
85.0648881476273573
 30
0.0
 40
0.1599104633629637
 50
8.9634825703104628
 51
84.5608989667680646
  0
ARC
  5
122D9
  8
0
 10
518.380379756356092
 20
84.6855632843534636
 30
0.0
 40
3.2511417936816618
 50
0.6425672144345616
 51
7.1425141222112769
  0
ARC
  5
122DA
  8
0
 10
519.395166247262523
 20
84.7716127780047799
 30
0.0
 40
2.2367006261046809
 50
350.898916311192977
 51
358.7296143878044745
  0
ARC
  5
122DB
  8
0
 10
521.4651019072538247
 20
84.4401964326982863
 30
0.0
 40
0.1404015154460888
 50
273.6334552925699768
 51
350.8288899113327943
  0
ARC
  5
122DC
  8
0
 10
522.6667121556694156
 20
84.3168696568813232
 30
0.0
 40
1.1926482834976231
 50
171.4474614894955948
 51
180.4104811196064873
  0
ARC
  5
122DD
  8
0
 10
521.7552949437121015
 20
84.4539363982404296
 30
0.0
 40
0.2709820609209236
 50
161.3182657451046111
 51
171.4474614894955948
  0
ARC
  5
122DE
  8
0
 10
521.5141469285929361
 20
84.5356030857760175
 30
0.0
 40
0.0163812580923077
 50
114.0559836923227977
 51
161.7432730882028977
  0
ARC
  5
122DF
  8
0
 10
521.5089864710473648
 20
84.5471632509402724
 30
0.0
 40
0.0037215684948835
 50
54.5642738604047324
 51
114.055983692330102
  0
ARC
  5
122E0
  8
0
 10
521.4920734585407445
 20
84.5233957300256549
 30
0.0
 40
0.0328925308115116
 50
37.9146993238097281
 51
54.5642738604047324
  0
ARC
  5
122E1
  8
0
 10
520.5756368485990606
 20
83.8095916198452642
 30
0.0
 40
1.194517413358305
 50
30.60937926765315
 51
37.9146993238097281
  0
ARC
  5
122E2
  8
0
 10
521.1047354243648897
 20
78.5841698911216611
 30
0.0
 40
0.3035
 50
270.0
 51
359.3410155633247882
  0
ARC
  5
122E3
  8
0
 10
516.8315864801237467
 20
76.0743354254969404
 30
0.0
 40
9.6148935136466633
 50
85.8667902600753479
 51
89.9978152078230664
  0
ARC
  5
122E4
  8
0
 10
516.8315861858339986
 20
76.0743299914271205
 30
0.0
 40
9.6148989547945192
 50
84.8963306767014103
 51
85.8667908448919661
  0
ARC
  5
122E5
  8
0
 10
517.6535499017102211
 20
85.2775961695630684
 30
0.0
 40
0.3749999999445255
 50
7.2411059388299641
 51
84.8963306767014103
  0
ARC
  5
122E6
  8
0
 10
-340375.1188592253020033
 20
-36528.9040547530821641
 30
0.0
 40
342853.8138487847172655
 50
6.1304232584189586
 51
6.1304521884484169
  0
ARC
  5
122E7
  8
0
 10
511.8185749315748012
 20
84.6892702360875091
 30
0.0
 40
6.2426845463677001
 50
0.3006157433243664
 51
4.2618684842640029
  0
ARC
  5
122E8
  8
0
 10
513.765634335906725
 20
84.7559872099702147
 30
0.0
 40
4.2956734839072004
 50
354.86187198514898
 51
359.5469905563667794
  0
ARC
  5
122E9
  8
0
 10
513.0662426878353699
 20
84.8188754034480752
 30
0.0
 40
4.9978868434148129
 50
352.8771797753922783
 51
354.86187198514898
  0
ARC
  5
122EA
  8
0
 10
517.6544070173775935
 20
84.2455334717533475
 30
0.0
 40
0.3740385667598833
 50
274.9858806791201005
 51
352.8771797753922783
  0
ARC
  5
122EB
  8
0
 10
516.8107770151451632
 20
93.9158178569600892
 30
0.0
 40
10.0810520967513302
 50
270.1203546953227033
 51
274.9858295462403817
  0
ARC
  5
122EC
  8
0
 10
511.5247216498008243
 20
84.7107378265538813
 30
0.0
 40
6.476461736978421
 50
0.0998444318239737
 51
3.868437325771048
  0
ARC
  5
122ED
  8
0
 10
502.885513238112992
 20
83.6018494785512587
 30
0.0
 40
15.1798283922168409
 50
5.844807689536224
 51
6.4920819369307718
  0
ARC
  5
122EE
  8
0
 10
517.6586825324831125
 20
85.2829714416631077
 30
0.0
 40
0.3113146112440834
 50
6.4920819369307718
 51
85.6322728677176315
  0
ARC
  5
122EF
  8
0
 10
518.2681307065364535
 20
93.262211189284784
 30
0.0
 40
7.6911658808835117
 50
264.4215561831227888
 51
265.6322728677175746
  0
ARC
  5
122F0
  8
0
 10
516.8315861858335438
 20
76.0743299914204698
 30
0.0
 40
9.5579990339011847
 50
85.866790846407099
 51
89.9978004385981052
  0
ARC
  5
122F1
  8
0
 10
516.8322251489715882
 20
75.2104515586198232
 30
0.0
 40
10.0461503464883304
 50
86.8560778791487991
 51
90.0015514883650951
  0
ARC
  5
122F2
  8
0
 10
516.8586374230037563
 20
75.6913135676819451
 30
0.0
 40
9.5645635111420901
 50
85.5557886760610131
 51
86.8560778791487991
  0
ARC
  5
122F3
  8
0
 10
517.5959967588803465
 20
85.1784448702584456
 30
0.0
 40
0.048820810620406
 50
5.618822201938598
 51
85.5557886760610131
  0
ARC
  5
122F4
  8
0
 10
511.8995084059993133
 20
84.6358625986890445
 30
0.0
 40
5.7710906754167119
 50
0.8554459699820194
 51
5.442430738239449
  0
ARC
  5
122F5
  8
0
 10
516.8145842345051051
 20
75.4259325704862533
 30
0.0
 40
9.9519577947045423
 50
85.515345175642608
 51
89.9000031967494806
  0
ARC
  5
122F6
  8
0
 10
517.5795874683296915
 20
85.158885235550045
 30
0.0
 40
0.1889941489820083
 50
77.315792995918585
 51
86.0067991662079834
  0
ARC
  5
122F7
  8
0
 10
517.5807861189988444
 20
85.1642109123226163
 30
0.0
 40
0.1835352483131299
 50
5.1186852619727734
 51
77.315792995918585
  0
ARC
  5
122F8
  8
0
 10
510.942810052705795
 20
84.5705418164766485
 30
0.0
 40
6.8480059121182704
 50
1.2675202226153619
 51
5.1108804833979802
  0
ARC
  5
122F9
  8
0
 10
522.1391845771663611
 20
84.7107378265538813
 30
0.0
 40
6.476461736978421
 50
176.1315626742288885
 51
179.9001555681759896
  0
ARC
  5
122FA
  8
0
 10
530.7783929888541934
 20
83.6018494785512587
 30
0.0
 40
15.1798283922168409
 50
173.5079180630692122
 51
174.1551923104638036
  0
ARC
  5
122FB
  8
0
 10
516.0052236944842434
 20
85.2829714416631077
 30
0.0
 40
0.3113146112440834
 50
94.3677271322823543
 51
173.5079180630692122
  0
ARC
  5
122FC
  8
0
 10
515.3957755204307887
 20
93.262211189284784
 30
0.0
 40
7.6911658808835117
 50
274.3677271322824254
 51
275.5784438168772112
  0
ARC
  5
122FD
  8
0
 10
516.8323200411336984
 20
76.0743299914204698
 30
0.0
 40
9.5579990339011847
 50
90.0021995614018948
 51
94.1332091535929152
  0
ARC
  5
122FE
  8
0
 10
516.8316810779955404
 20
75.2104515586198232
 30
0.0
 40
10.0461503464883304
 50
89.9984485116349049
 51
93.1439221208512009
  0
ARC
  5
122FF
  8
0
 10
516.8052688039634859
 20
75.6913135676819451
 30
0.0
 40
9.5645635111420901
 50
93.1439221208512009
 51
94.4442113239389869
  0
ARC
  5
12300
  8
0
 10
516.0679094680868957
 20
85.1784448702584456
 30
0.0
 40
0.048820810620406
 50
94.4442113239389869
 51
174.3811777980614011
  0
ARC
  5
12301
  8
0
 10
521.764397820967929
 20
84.6358625986890445
 30
0.0
 40
5.7710906754167119
 50
174.5575692617605057
 51
179.1445540300180141
  0
ARC
  5
12302
  8
0
 10
516.8493219924622508
 20
75.4259325704862533
 30
0.0
 40
9.9519577947045423
 50
90.0999968032505052
 51
94.4846548243574063
  0
ARC
  5
12303
  8
0
 10
516.0843187586375507
 20
85.158885235550045
 30
0.0
 40
0.1889941489820083
 50
93.993200833792045
 51
102.6842070040814008
  0
ARC
  5
12304
  8
0
 10
516.0831201079683979
 20
85.1642109123226163
 30
0.0
 40
0.1835352483131299
 50
102.6842070040814008
 51
174.8813147380272142
  0
ARC
  5
12305
  8
0
 10
524.2311724081298507
 20
84.4609724909372233
 30
0.0
 40
8.3618776914352004
 50
175.0630864509813023
 51
178.2109797380863085
  0
ARC
  5
12306
  8
0
 10
516.8324732379254556
 20
76.0743299914270352
 30
0.0
 40
9.6148989547946115
 50
90.0030994538272182
 51
94.1332091551080481
  0
ARC
  5
12307
  8
0
 10
516.8324732379252282
 20
76.0743299914271205
 30
0.0
 40
9.6148989547945192
 50
94.1332091551080481
 51
95.1036693232986039
  0
ARC
  5
12308
  8
0
 10
516.0105095220491194
 20
85.2775961695630684
 30
0.0
 40
0.3749999999445255
 50
95.1036693232986039
 51
172.7588940611699968
  0
ARC
  5
12309
  8
0
 10
521.8454844921843687
 20
84.6892702360875091
 30
0.0
 40
6.2426845463677001
 50
175.7381315157360007
 51
179.6993842566755859
  0
ARC
  5
1230A
  8
0
 10
519.8984250878526154
 20
84.7559872099702147
 30
0.0
 40
4.2956734839072004
 50
180.4530094436331069
 51
185.1381280148501958
  0
ARC
  5
1230B
  8
0
 10
520.5978167359239706
 20
84.8188754034480752
 30
0.0
 40
4.9978868434148129
 50
185.1381280148501958
 51
187.1228202246076933
  0
ARC
  5
1230C
  8
0
 10
516.0096524063816332
 20
84.2455334717533475
 30
0.0
 40
0.3740385667598833
 50
187.1228202246076933
 51
265.0141193208798995
  0
ARC
  5
1230D
  8
0
 10
516.8532941866524197
 20
93.915996548646433
 30
0.0
 40
10.0812311359306808
 50
265.0141920308694239
 51
269.8787098202947732
  0
ARC
  5
1230E
  8
0
 10
514.7745943210284167
 20
84.6742004022982968
 30
0.0
 40
3.2269336247454459
 50
353.3209345322318882
 51
0.8491587216942077
  0
ARC
  5
1230F
  8
0
 10
515.5175816152604966
 20
84.5583350382709256
 30
0.0
 40
2.4756787186849269
 50
351.8083233502724738
 51
353.9843279623414105
  0
ARC
  5
12310
  8
0
 10
517.6500615663240978
 20
84.2495910087423141
 30
0.0
 40
0.3209699049344199
 50
272.8833046858057969
 51
352.1202101083956109
  0
ARC
  5
12311
  8
0
 10
517.3885512397743014
 20
86.3139108508643744
 30
0.0
 40
2.4009917990639811
 50
273.1499645512143957
 51
276.640661677847902
  0
ARC
  5
12312
  8
0
 10
516.8800771527437519
 20
92.1058782469542479
 30
0.0
 40
8.2143334522529852
 50
269.6617687970244788
 51
274.4714426892746815
  0
ARC
  5
12313
  8
0
 10
516.8322251489715882
 20
94.233596029823488
 30
0.0
 40
10.0461503464883304
 50
269.9984485116348765
 51
273.1439221208511867
  0
ARC
  5
12314
  8
0
 10
516.8586374230037563
 20
93.7527340207613662
 30
0.0
 40
9.5645635111420901
 50
273.1439221208511867
 51
274.4442113239389869
  0
ARC
  5
12315
  8
0
 10
517.5959967588803465
 20
84.2656027181848373
 30
0.0
 40
0.048820810620406
 50
274.4442113239389869
 51
354.3811777980614011
  0
ARC
  5
12316
  8
0
 10
511.8995084059993133
 20
84.8081849897542668
 30
0.0
 40
5.7710906754167119
 50
354.5575692617604773
 51
359.1445540300179005
  0
ARC
  5
12317
  8
0
 10
516.8145842345051051
 20
94.0181150179570437
 30
0.0
 40
9.9519577947045423
 50
270.0999968032505194
 51
274.484654824357392
  0
ARC
  5
12318
  8
0
 10
517.5795874683296915
 20
84.2851623528932663
 30
0.0
 40
0.1889941489820083
 50
273.9932008337920024
 51
282.6842070040813724
  0
ARC
  5
12319
  8
0
 10
517.5807861189988444
 20
84.279836676120695
 30
0.0
 40
0.1835352483131299
 50
282.6842070040813724
 51
354.8813147380271857
  0
ARC
  5
1231A
  8
0
 10
510.942810052705795
 20
84.8735057719666344
 30
0.0
 40
6.8480059121182704
 50
354.8891195166020225
 51
358.7324797773839009
  0
ARC
  5
1231B
  8
0
 10
518.807269047118325
 20
84.6648697185656403
 30
0.0
 40
3.1450557374874961
 50
178.958725103996187
 51
188.1205581659455106
  0
ARC
  5
1231C
  8
0
 10
516.0567757646463178
 20
84.2621234806616712
 30
0.0
 40
0.365392964283276
 50
186.5235971971384004
 51
202.180255469892586
  0
ARC
  5
1231D
  8
0
 10
516.0144628287646356
 20
84.250327632181893
 30
0.0
 40
0.321797610258517
 50
203.0796340113014935
 51
267.0205380857755131
  0
ARC
  5
1231E
  8
0
 10
516.2119466044879346
 20
85.5739319509340675
 30
0.0
 40
1.6588556918308619
 50
262.580604484665173
 51
267.6341184311835946
  0
ARC
  5
1231F
  8
0
 10
516.8315861858335438
 20
93.4496869561224059
 30
0.0
 40
9.5579990339007548
 50
265.8714777148986173
 51
270.0
  0
ARC
  5
12320
  8
0
 10
516.8316810779955404
 20
94.233596029823488
 30
0.0
 40
10.0461503464883304
 50
266.8560778791488133
 51
270.0015514883651235
  0
ARC
  5
12321
  8
0
 10
516.8052688039634859
 20
93.7527340207613662
 30
0.0
 40
9.5645635111420901
 50
265.5557886760610131
 51
266.8560778791488133
  0
ARC
  5
12322
  8
0
 10
516.0679094680868957
 20
84.2656027181848373
 30
0.0
 40
0.048820810620406
 50
185.6188222019385989
 51
265.5557886760610131
  0
ARC
  5
12323
  8
0
 10
521.764397820967929
 20
84.8081849897542668
 30
0.0
 40
5.7710906754167119
 50
180.8554459699819859
 51
185.442430738239409
  0
ARC
  5
12324
  8
0
 10
516.8493219924622508
 20
94.0181150179570437
 30
0.0
 40
9.9519577947045423
 50
265.515345175642608
 51
269.9000031967494806
  0
ARC
  5
12325
  8
0
 10
516.0843187586375507
 20
84.2851623528932663
 30
0.0
 40
0.1889941489820083
 50
257.3157929959186276
 51
266.0067991662078839
  0
ARC
  5
12326
  8
0
 10
516.0831201079683979
 20
84.279836676120695
 30
0.0
 40
0.1835352483131299
 50
185.1186852619727858
 51
257.3157929959186276
  0
ARC
  5
12327
  8
0
 10
524.2311724081306465
 20
84.9830750975061306
 30
0.0
 40
8.3618776914359891
 50
181.7890202619136062
 51
184.9369135490186125
  0
ARC
  5
12328
  8
0
 10
517.5526945347037326
 20
85.0324422793497661
 30
0.0
 40
1.9364011398818
 50
171.3143936403074861
 51
176.4247308702800865
  0
ENDSEC
  0
EOF
