  0
SECTION
  2
HEADER
  9
$ACADVER
  1
AC1009
  9
$INSBASE
 10
4212.6681346639979893
 20
181.5838635084772079
 30
0.0
  9
$EXTMIN
 10
4206.4354083692896893
 20
181.5838635084772079
 30
0.0
  9
$EXTMAX
 10
4213.5791713100479683
 20
187.7043453671601014
 30
0.0
  9
$LIMMIN
 10
0.0
 20
0.0
  9
$LIMMAX
 10
11.6929133858000007
 20
8.2677165353999982
  9
$ORTHOMODE
 70
     1
  9
$REGENMODE
 70
     1
  9
$FILLMODE
 70
     1
  9
$QTEXTMODE
 70
     0
  9
$MIRRTEXT
 70
     0
  9
$DRAGMODE
 70
     2
  9
$LTSCALE
 40
0.6431102362
  9
$OSMODE
 70
  4095
  9
$ATTMODE
 70
     1
  9
$TEXTSIZE
 40
0.2
  9
$TRACEWID
 40
0.05
  9
$TEXTSTYLE
  7
STANDARD
  9
$CLAYER
  8
0
  9
$CELTYPE
  6
BYLAYER
  9
$CECOLOR
 62
   256
  9
$DIMSCALE
 40
1.0
  9
$DIMASZ
 40
0.1875
  9
$DIMEXO
 40
0.0625
  9
$DIMDLI
 40
0.4443307087
  9
$DIMRND
 40
0.0
  9
$DIMDLE
 40
0.0
  9
$DIMEXE
 40
0.125
  9
$DIMTP
 40
0.01
  9
$DIMTM
 40
0.01
  9
$DIMTXT
 40
2.0
  9
$DIMCEN
 40
0.1052362205
  9
$DIMTSZ
 40
0.0
  9
$DIMTOL
 70
     1
  9
$DIMLIM
 70
     0
  9
$DIMTIH
 70
     1
  9
$DIMTOH
 70
     1
  9
$DIMSE1
 70
     0
  9
$DIMSE2
 70
     0
  9
$DIMTAD
 70
     0
  9
$DIMZIN
 70
     0
  9
$DIMBLK
  1

  9
$DIMASO
 70
     1
  9
$DIMSHO
 70
     1
  9
$DIMPOST
  1
\X
  9
$DIMAPOST
  1

  9
$DIMALT
 70
     1
  9
$DIMALTD
 70
     2
  9
$DIMALTF
 40
25.3999999999999986
  9
$DIMLFAC
 40
1.0
  9
$DIMTOFL
 70
     0
  9
$DIMTVP
 40
0.0
  9
$DIMTIX
 70
     0
  9
$DIMSOXD
 70
     0
  9
$DIMSAH
 70
     0
  9
$DIMBLK1
  1

  9
$DIMBLK2
  1

  9
$DIMSTYLE
  2
STANDARD
  9
$DIMCLRD
 70
     0
  9
$DIMCLRE
 70
     0
  9
$DIMCLRT
 70
     0
  9
$DIMTFAC
 40
1.0
  9
$DIMGAP
 40
0.09
  9
$LUNITS
 70
     2
  9
$LUPREC
 70
     4
  9
$SKETCHINC
 40
0.1
  9
$FILLETRAD
 40
0.0
  9
$AUNITS
 70
     0
  9
$AUPREC
 70
     0
  9
$MENU
  1
.
  9
$ELEVATION
 40
0.0
  9
$PELEVATION
 40
0.0
  9
$THICKNESS
 40
0.0
  9
$LIMCHECK
 70
     0
  9
$BLIPMODE
 70
     0
  9
$CHAMFERA
 40
0.0
  9
$CHAMFERB
 40
0.0
  9
$SKPOLY
 70
     0
  9
$TDCREATE
 40
2458060.468368056230247
  9
$TDUPDATE
 40
2459485.7351388889364898
  9
$TDINDWG
 40
0.4354931713
  9
$TDUSRTIMER
 40
0.4354931713
  9
$USRTIMER
 70
     1
  9
$ANGBASE
 50
0.0
  9
$ANGDIR
 70
     0
  9
$PDMODE
 70
     0
  9
$PDSIZE
 40
0.3125
  9
$PLINEWID
 40
0.0
  9
$COORDS
 70
     1
  9
$SPLFRAME
 70
     0
  9
$SPLINETYPE
 70
     6
  9
$SPLINESEGS
 70
     8
  9
$ATTDIA
 70
     1
  9
$ATTREQ
 70
     1
  9
$HANDLING
 70
     1
  9
$HANDSEED
  5
EFC4
  9
$SURFTAB1
 70
     6
  9
$SURFTAB2
 70
     6
  9
$SURFTYPE
 70
     6
  9
$SURFU
 70
     6
  9
$SURFV
 70
     6
  9
$UCSNAME
  2

  9
$UCSORG
 10
0.0
 20
0.0
 30
0.0
  9
$UCSXDIR
 10
1.0
 20
0.0
 30
0.0
  9
$UCSYDIR
 10
0.0
 20
1.0
 30
0.0
  9
$PUCSNAME
  2

  9
$PUCSORG
 10
0.0
 20
0.0
 30
0.0
  9
$PUCSXDIR
 10
1.0
 20
0.0
 30
0.0
  9
$PUCSYDIR
 10
0.0
 20
1.0
 30
0.0
  9
$USERI1
 70
     0
  9
$USERI2
 70
     0
  9
$USERI3
 70
     0
  9
$USERI4
 70
     0
  9
$USERI5
 70
     0
  9
$USERR1
 40
0.0
  9
$USERR2
 40
0.0
  9
$USERR3
 40
0.0
  9
$USERR4
 40
0.0
  9
$USERR5
 40
0.0
  9
$WORLDVIEW
 70
     1
  9
$SHADEDGE
 70
     3
  9
$SHADEDIF
 70
    70
  9
$TILEMODE
 70
     1
  9
$MAXACTVP
 70
    64
  9
$PLIMCHECK
 70
     0
  9
$PEXTMIN
 10
1.0000000000000000E+20
 20
1.0000000000000000E+20
 30
1.0000000000000000E+20
  9
$PEXTMAX
 10
-1.0000000000000000E+20
 20
-1.0000000000000000E+20
 30
-1.0000000000000000E+20
  9
$PLIMMIN
 10
0.0
 20
0.0
  9
$PLIMMAX
 10
12.0
 20
9.0
  9
$UNITMODE
 70
     0
  9
$VISRETAIN
 70
     1
  9
$PLINEGEN
 70
     0
  9
$PSLTSCALE
 70
     1
  0
ENDSEC
  0
SECTION
  2
TABLES
  0
TABLE
  2
VPORT
 70
     1
  0
VPORT
  2
*ACTIVE
 70
     0
 10
0.0
 20
0.0
 11
1.0
 21
1.0
 12
406.4672235948592061
 22
58.6503681251253468
 13
0.0
 23
0.0
 14
1.0
 24
1.0
 15
0.0
 25
0.0
 16
0.0
 26
0.0
 36
17.1152628219792007
 17
3803.5440673828129547
 27
125.9952621967499056
 37
0.0
 40
6.182643098402508
 41
2.7718023255813948
 42
50.0
 43
0.0
 44
0.0
 50
0.0
 51
0.0
 71
     0
 72
   100
 73
     1
 74
     1
 75
     0
 76
     0
 77
     0
 78
     0
  0
ENDTAB
  0
TABLE
  2
LTYPE
 70
     2
  0
LTYPE
  2
CONTINUOUS
 70
     0
  3
Solid line
 72
    65
 73
     0
 40
0.0
  0
LTYPE
  2
PHANTOM2
 70
     0
  3
___ _ _ ___ _ _ ___ _ _ ___ _ _
 72
    65
 73
     6
 40
1.25
 49
0.625
 49
-0.125
 49
0.125
 49
-0.125
 49
0.125
 49
-0.125
  0
ENDTAB
  0
TABLE
  2
LAYER
 70
     2
  0
LAYER
  2
0
 70
     0
 62
   255
  6
CONTINUOUS
  0
LAYER
  2
DEFPOINTS
 70
     0
 62
     7
  6
CONTINUOUS
  0
ENDTAB
  0
TABLE
  2
STYLE
 70
     1
  0
STYLE
  2
STANDARD
 70
     0
 40
0.0
 41
0.8
 50
0.0
 71
     0
 42
0.2
  3
txt
  4

  0
ENDTAB
  0
TABLE
  2
VIEW
 70
     0
  0
ENDTAB
  0
TABLE
  2
UCS
 70
     0
  0
ENDTAB
  0
TABLE
  2
APPID
 70
     9
  0
APPID
  2
ACAD
 70
     0
  0
APPID
  2
ACAD_MLEADERVER
 70
     0
  0
APPID
  2
ACAD_EXEMPT_FROM_CAD_STANDARDS
 70
     0
  0
APPID
  2
ACAD_NAV_VCDISPLAY
 70
     0
  0
APPID
  2
ACAECLAYERSTANDARD
 70
     0
  0
APPID
  2
ACCMTRANSPARENCY
 70
     0
  0
APPID
  2
ACAD_DSTYLE_DIMJAG
 70
     0
  0
APPID
  2
ACAD_DSTYLE_DIMTALN
 70
     0
  0
APPID
  2
ACDBATTR
 70
     0
  0
ENDTAB
  0
TABLE
  2
DIMSTYLE
 70
     1
  0
DIMSTYLE
  2
STANDARD
 70
     0
  3

  4

  5

  6

  7

 40
1.0
 41
0.1875
 42
0.0625
 43
0.38
 44
0.125
 45
0.0
 46
0.0
 47
0.01
 48
0.01
140
0.15625
141
0.09
142
0.0
143
25.3999999999999986
144
1.0
145
0.0
146
1.0
147
0.09
 71
     1
 72
     0
 73
     1
 74
     1
 75
     0
 76
     0
 77
     0
 78
     4
170
     0
171
     2
172
     0
173
     0
174
     0
175
     0
176
     0
177
     0
178
     0
  0
ENDTAB
  0
ENDSEC
  0
SECTION
  2
BLOCKS
  0
BLOCK
  8
0
  2
$MODEL_SPACE
 70
     0
 10
0.0
 20
0.0
 30
0.0
  3
$MODEL_SPACE
  1

  0
ENDBLK
  5
21
  8
0
  0
BLOCK
 67
     1
  8
0
  2
$PAPER_SPACE
 70
     0
 10
0.0
 20
0.0
 30
0.0
  3
$PAPER_SPACE
  1

  0
ENDBLK
  5
1D
 67
     1
  8
0
  0
BLOCK
  8
0
  2
_FILLED
 70
     0
 10
0.0
 20
0.0
 30
0.0
  3
_FILLED
  1

  0
SOLID
  5
ED49
  8
0
  6
BYBLOCK
 62
     0
 10
0.0
 20
0.0
 30
0.0
 11
-1.0
 21
0.1666666667
 31
0.0
 12
-1.0
 22
-0.1666666667
 32
0.0
 13
-1.0
 23
-0.1666666667
 33
0.0
  0
ENDBLK
  5
ED4A
  8
0
  6
BYBLOCK
 62
     0
  0
ENDSEC
  0
SECTION
  2
ENTITIES
  0
ATTDEF
  5
DF7E
  8
DEFPOINTS
 10
4212.669187761161993
 20
181.5882936991876875
 30
0.0
 40
0.001
  1
P24736-LV
  3

  2
MODELNUMBER
 70
     0
1001
ACDBATTR
1070
     0
1070
     1
  0
ATTDEF
  5
DF7F
  8
DEFPOINTS
 10
4212.669187761161993
 20
181.5866270325209939
 30
0.0
 40
0.001
  1
PER SE
  3

  2
TRADENAME
 70
     0
1001
ACDBATTR
1070
     0
1070
     1
  0
ATTDEF
  5
DF80
  8
DEFPOINTS
 10
4212.669187761161993
 20
181.5849603658543003
 30
0.0
 40
0.001
  1
BATHROOM SINK FAUCET
  3

  2
PRODUCT
 70
     0
1001
ACDBATTR
1070
     0
1070
     1
  0
LINE
  5
EDC4
  8
0
 10
4213.5138284038466736
 20
181.8279579966772133
 30
0.0
 11
4211.8205267509911209
 21
181.8279579966772133
 31
0.0
  0
LINE
  5
EDC5
  8
0
 10
4213.5190514095484104
 20
181.5838635084772079
 30
0.0
 11
4211.8172179184466586
 21
181.5838635084772079
 31
0.0
  0
LINE
  5
EDC6
  8
0
 10
4213.5629083322783117
 20
181.6226178657921082
 30
0.0
 11
4211.7749212334310869
 21
181.6226178657921082
 31
0.0
  0
LINE
  5
EDC7
  8
0
 10
4212.162915959313068
 20
182.0814244092582044
 30
0.0
 11
4213.1747014644133742
 21
182.0814244092582044
 31
0.0
  0
LINE
  5
EDC8
  8
0
 10
4213.1818568175522159
 20
182.1014245417908057
 30
0.0
 11
4212.1541887817620591
 21
182.1014245417908057
 31
0.0
  0
ARC
  5
EDC9
  8
0
 10
4206.4369635675730024
 20
179.88470773885021
 30
0.0
 40
7.8209339913231171
 50
86.8778812850261488
 51
88.9567758434624665
  0
ARC
  5
EDCA
  8
0
 10
3568.899060187699888
 20
-14646.675172020070022
 30
0.0
 40
14848.0809403707698948
 50
87.5318504335892982
 51
87.5374667617724498
  0
ARC
  5
EDCB
  8
0
 10
-11239.7324038462393219
 20
-358426.6872142648790032
 30
0.0
 40
358946.8926816327148117
 50
87.5328438826878283
 51
87.5333913930204375
  0
ARC
  5
EDCC
  8
0
 10
4210.6403496599332357
 20
167.2718661389484964
 30
0.0
 40
20.2420289051454105
 50
85.7251255801798351
 51
86.8747993653665844
  0
ARC
  5
EDCD
  8
0
 10
4212.0288722404366126
 20
185.8475709227026869
 30
0.0
 40
1.614500803710226
 50
63.7307072417659128
 51
85.7251255801798351
  0
ARC
  5
EDCE
  8
0
 10
4212.5215689629440021
 20
186.8850423749356082
 30
0.0
 40
0.466435785315078
 50
11.3025210562745109
 51
61.5974716311973722
  0
ARC
  5
EDCF
  8
0
 10
4209.3785097059462714
 20
186.3952938548100917
 30
0.0
 40
3.647051646582927
 50
0.8997539925050944
 51
9.1692854457075885
  0
ARC
  5
EDD0
  8
0
 10
488443.0368381288135424
 20
15628.5138201691097493
 30
0.0
 40
484476.17228554940084
 50
181.826539397950711
 51
181.8268891756638084
  0
ARC
  5
EDD1
  8
0
 10
4230.8800651596839089
 20
183.7775603746536035
 30
0.0
 40
17.7628987199222088
 50
180.9067848157513083
 51
185.3624491423630047
  0
ARC
  5
EDD2
  8
0
 10
4213.1796212568469855
 20
182.1165751005572133
 30
0.0
 40
0.0153146061848908
 50
278.3937852026510882
 51
3.5155593770088118
  0
ARC
  5
EDD3
  8
0
 10
4213.1729127686903666
 20
182.051377014859213
 30
0.0
 40
0.0301005870798759
 50
8.1793734833620881
 51
86.5932515794110174
  0
ARC
  5
EDD4
  8
0
 10
4214.7138316778491571
 20
182.2728606000734999
 30
0.0
 40
1.526654391432285
 50
188.1793734833620988
 51
193.8649850455070123
  0
ARC
  5
EDD5
  8
0
 10
4213.4250060660751842
 20
181.9547442534455968
 30
0.0
 40
0.199149413077673
 50
193.8649850455084902
 51
219.541650656918506
  0
ARC
  5
EDD6
  8
0
 10
4213.5138284038303027
 20
181.7679579966008134
 30
0.0
 40
0.0600000000764206
 50
4.8621095229110276
 51
89.9999999832726161
  0
LINE
  5
EDD7
  8
0
 10
4213.5736124978493535
 20
181.7730434770772945
 30
0.0
 11
4213.5791713100479683
 21
181.6422283144771939
 31
0.0
  0
ARC
  5
EDD8
  8
0
 10
4213.5592017701001168
 20
181.6422404056060032
 30
0.0
 40
0.0199695436084992
 50
280.6967431475009107
 51
359.9653086367047763
  0
ARC
  5
EDD9
  8
0
 10
4213.5570611432412989
 20
181.5849637092645992
 30
0.0
 40
0.0380256531457114
 50
133.4735156752745127
 51
181.6579770442683923
  0
ARC
  5
EDDA
  8
0
 10
4213.5658608308012845
 20
181.5572640842366923
 30
0.0
 40
0.0654204403159012
 50
92.5867019988634894
 51
122.3046640576280026
  0
ARC
  5
EDDB
  8
0
 10
4213.4441258102624488
 20
182.1169037509044131
 30
0.0
 40
0.2777038266333351
 50
216.7167707712127935
 51
259.182219259121382
  0
ARC
  5
EDDC
  8
0
 10
4213.6572426928551067
 20
183.2322210163468128
 30
0.0
 40
1.4131999332934511
 50
259.182219259121382
 51
262.4493519611258989
  0
ARC
  5
EDDD
  8
0
 10
4213.5013711923502342
 20
182.0562929325263894
 30
0.0
 40
0.2269863003472864
 50
262.4493519611258989
 51
269.2352892104385091
  0
ARC
  5
EDDE
  8
0
 10
4213.4978293191288685
 20
181.790934656092702
 30
0.0
 40
0.0383956126343594
 50
74.6354804586194831
 51
89.2352892104384807
  0
ARC
  5
EDDF
  8
0
 10
4206.587866674027282
 20
187.4896835399758004
 30
0.0
 40
0.2148304365250076
 50
92.2701729706745368
 51
103.976532794391801
  0
ARC
  5
EDE0
  8
0
 10
4206.5740312582111073
 20
187.5675410414409896
 30
0.0
 40
0.136042705040786
 50
106.2424081103635984
 51
156.8393242781000936
  0
ARC
  5
EDE1
  8
0
 10
4206.589303909659975
 20
187.5610075787894004
 30
0.0
 40
0.1526541473769234
 50
156.8393242781000936
 51
182.5088140915266877
  0
LINE
  5
EDE2
  8
0
 10
4206.4367960813469836
 20
187.5543254372938975
 30
0.0
 11
4206.4367960813469836
 21
187.4714836021557005
 31
0.0
  0
ARC
  5
EDE3
  8
0
 10
4206.5944207860893584
 20
187.4505217045424104
 30
0.0
 40
0.1590124167993207
 50
172.4249039897204057
 51
217.3270609250209873
  0
ARC
  5
EDE4
  8
0
 10
4206.5679317532303685
 20
187.4303226907211126
 30
0.0
 40
0.1257007218386745
 50
217.3270609250224084
 51
245.524490411903713
  0
ARC
  5
EDE5
  8
0
 10
4208.3387612725218787
 20
191.3204590165065042
 30
0.0
 40
4.3999255427380666
 50
245.524490411903713
 51
247.6875028983957066
  0
ARC
  5
EDE6
  8
0
 10
4206.5881520398634166
 20
187.0546831160839929
 30
0.0
 40
0.2110913427327618
 50
28.7539145948963899
 51
67.6875028983956639
  0
ARC
  5
EDE7
  8
0
 10
4206.4990450739251173
 20
187.0288450149585913
 30
0.0
 40
0.3023167191905335
 50
20.1424809602879691
 51
24.9202995577323705
  0
ARC
  5
EDE8
  8
0
 10
4206.8113088301815878
 20
187.1425154766320134
 30
0.0
 40
0.0300028037368292
 50
198.5924435957176968
 51
265.7316446340370817
  0
ARC
  5
EDE9
  8
0
 10
4206.7884058884801561
 20
186.5161442358734121
 30
0.0
 40
0.5968097007555154
 50
83.453377774877282
 51
88.0152223066383073
  0
ARC
  5
EDEA
  8
0
 10
4206.9819198844834318
 20
188.202394363487798
 30
0.0
 40
1.1005079358488969
 50
263.4533777748773105
 51
268.0152223066381794
  0
ARC
  5
EDEB
  8
0
 10
4283.9674589061596635
 20
1216.0242840177950256
 30
0.0
 40
1031.8006517136889215
 50
265.7189023304695183
 51
265.7496977510593865
  0
ARC
  5
EDEC
  8
0
 10
4216.9760758231568616
 20
313.0946556777108185
 30
0.0
 40
126.3893329861926986
 50
265.6987624880218277
 51
265.7698375934471073
  0
ARC
  5
EDED
  8
0
 10
4207.6646433565747429
 20
187.0839924706060913
 30
0.0
 40
0.0353112412685604
 50
273.043854340147675
 51
306.1303918202880254
  0
ARC
  5
EDEE
  8
0
 10
4207.7053281566477381
 20
187.7198436305419875
 30
0.0
 40
0.6722338116158172
 50
265.5514714716658204
 51
266.6903290571863181
  0
ARC
  5
EDEF
  8
0
 10
4207.8186917411912873
 20
186.9153523115429891
 30
0.0
 40
0.1933477038800907
 50
110.6238270246953022
 51
133.5556761971982951
  0
ARC
  5
EDF0
  8
0
 10
4207.8153538984079205
 20
186.9242212978280122
 30
0.0
 40
0.1838714117695977
 50
87.1696975173051385
 51
110.6238270246953022
  0
ARC
  5
EDF1
  8
0
 10
4228.8999423737159304
 20
613.4069583364196205
 30
0.0
 40
426.8197408248266811
 50
267.1696975173052238
 51
267.6917631864596956
  0
ARC
  5
EDF2
  8
0
 10
4211.6523681053467953
 20
185.5138889666297075
 30
0.0
 40
1.4207962951927029
 50
75.7778472791487587
 51
87.691763186459724
  0
ARC
  5
EDF3
  8
0
 10
4211.8911307281850895
 20
186.4559379198221052
 30
0.0
 40
0.4489610106535748
 50
38.7754061725057682
 51
75.7778472791487587
  0
ARC
  5
EDF4
  8
0
 10
4211.9401866247926591
 20
186.5318951984000932
 30
0.0
 40
0.3642632018856884
 50
10.1158903888542007
 51
34.2888400453375226
  0
ARC
  5
EDF5
  8
0
 10
4209.8911438143386476
 20
186.3585586515679893
 30
0.0
 40
2.4193109081702588
 50
2.226848819185637
 51
5.629324261683319
  0
ARC
  5
EDF6
  8
0
 10
-90554.0387824343051761
 20
3150.5938695463310069
 30
0.0
 40
94812.6929010075837141
 50
358.2067249710913757
 51
358.2084628231102101
  0
ARC
  5
EDF7
  8
0
 10
4194.8153595848743862
 20
183.7669902032997129
 30
0.0
 40
17.4043425808159498
 50
354.5616981281443145
 51
359.3784307337018049
  0
ARC
  5
EDF8
  8
0
 10
4212.1577778058926924
 20
182.1174430721185047
 30
0.0
 40
0.0164156756811708
 50
179.7517898868298118
 51
257.3711886144399159
  0
ARC
  5
EDF9
  8
0
 10
4212.163237316048253
 20
182.0514261382772077
 30
0.0
 40
0.0299999921999932
 50
90.613758049357088
 51
171.8811386836086115
  0
ARC
  5
EDFA
  8
0
 10
4210.1724964913228177
 20
182.3354191553675037
 30
0.0
 40
1.980895595586234
 50
348.8635896903402909
 51
351.8811386836085831
  0
ARC
  5
EDFB
  8
0
 10
4211.8225140472859493
 20
181.7679142996585995
 30
0.0
 40
0.0600765752870839
 50
91.8956551007397451
 51
175.1022769606753116
  0
LINE
  5
EDFC
  8
0
 10
4211.7626568302048327
 20
181.7730434771229966
 30
0.0
 11
4211.7570980179471007
 21
181.6422283061772021
 31
0.0
  0
ARC
  5
EDFD
  8
0
 10
4211.7767984427237025
 20
181.6422286419611964
 30
0.0
 40
0.0197004247793532
 50
180.0009765780326916
 51
262.8972874707724827
  0
ARC
  5
EDFE
  8
0
 10
4211.7718107949267505
 20
181.5580617258480913
 30
0.0
 40
0.064668034199289
 50
65.5373069992211583
 51
87.738592276829138
  0
ARC
  5
EDFF
  8
0
 10
4211.7830650394726035
 20
181.5863987524967911
 30
0.0
 40
0.0342468480959259
 50
355.7545936686694859
 51
63.0430152379951068
  0
ARC
  5
EE00
  8
0
 10
4211.8424898949961062
 20
181.764587715143108
 30
0.0
 40
0.0648540732569203
 50
93.9162166364738056
 51
102.2796781632157064
  0
ARC
  5
EE01
  8
0
 10
4211.7548826890078999
 20
183.0443187364425057
 30
0.0
 40
1.217872128789659
 50
273.9162166364739051
 51
275.4771040808223006
  0
ARC
  5
EE02
  8
0
 10
4211.8220403609311688
 20
182.3439261101617888
 30
0.0
 40
0.5142671374440561
 50
275.4771040808223006
 51
287.2100171440675922
  0
ARC
  5
EE03
  8
0
 10
4211.8880268122993584
 20
182.1308901854528131
 30
0.0
 40
0.2912457999434986
 50
287.2100171440675922
 51
313.9324152621529151
  0
ARC
  5
EE04
  8
0
 10
4211.9680444996620281
 20
182.0478336049716859
 30
0.0
 40
0.1759148593755479
 50
313.9324152621529151
 51
327.3080277028388991
  0
ARC
  5
EE05
  8
0
 10
4211.9301585986768259
 20
181.9415677502634878
 30
0.0
 40
0.1761992771783691
 50
319.850824327097996
 51
337.4289088122519047
  0
ARC
  5
EE06
  8
0
 10
4211.7189906049288766
 20
182.0269785811912868
 30
0.0
 40
0.403967021068087
 50
338.5662833534847778
 51
349.4216067013597922
  0
ARC
  5
EE07
  8
0
 10
4212.3444846015117946
 20
183.3631776577200014
 30
0.0
 40
0.2152185886538489
 50
79.8308095403088345
 51
87.4558637717448164
  0
ARC
  5
EE08
  8
0
 10
4212.6680482052988737
 20
185.5784044877779024
 30
0.0
 40
2.0236392703070449
 50
261.8876362225693128
 51
263.2397654561273157
  0
ARC
  5
EE09
  8
0
 10
4212.6656061196008523
 20
185.648744390842495
 30
0.0
 40
2.0932300360097909
 50
263.5327876157318201
 51
266.7616837600438089
  0
ARC
  5
EE0A
  8
0
 10
4212.6678177267340288
 20
185.7129835477612119
 30
0.0
 40
2.1574920162191642
 50
266.7994139380991783
 51
270.008417037787126
  0
ARC
  5
EE0C
  8
0
 10
4212.3553672007146815
 20
183.4506784222176918
 30
0.0
 40
0.1275126171389669
 50
90.5972968781279064
 51
101.7187395105144958
  0
ARC
  5
EE0D
  8
0
 10
4212.3526532786945609
 20
183.4637619050294006
 30
0.0
 40
0.1141506227062577
 50
101.7187395105144958
 51
148.6927830658785012
  0
ARC
  5
EE0E
  8
0
 10
4212.3571273214893154
 20
183.4610408724354897
 30
0.0
 40
0.1193871365571934
 50
148.6927830658785012
 51
171.2461752598167948
  0
ARC
  5
EE0F
  8
0
 10
4210.6240225767242009
 20
183.3944458282817891
 30
0.0
 40
1.602526800295498
 50
351.5261445716727735
 51
358.3994648760490804
  0
ARC
  5
EE10
  8
0
 10
4214.253734740343134
 20
183.2083595712618944
 30
0.0
 40
2.0327294041927488
 50
172.3428588818740081
 51
176.0132775225351907
  0
ARC
  5
EE11
  8
0
 10
4212.6681335195444262
 20
90.8952081362465663
 30
0.0
 40
92.4233414410307006
 50
89.9999992848395038
 51
90.1597072550537177
  0
ARC
  5
EE12
  8
0
 10
4212.4141884354812646
 20
181.999045946308712
 30
0.0
 40
1.319149705261345
 50
90.1597072550537177
 51
91.9010749773984799
  0
ARC
  5
EE13
  8
0
 10
4212.3672260693438147
 20
183.4139074899246964
 30
0.0
 40
0.0964910159093816
 50
181.0444782533741943
 51
271.9010749773984799
  0
ARC
  5
EE14
  8
0
 10
4213.805751684563802
 20
183.4401341194196959
 30
0.0
 40
1.5352556880280579
 50
178.4836848977666932
 51
181.0444782533741943
  0
ARC
  5
EE15
  8
0
 10
4212.3657485349076524
 20
183.4782522573343897
 30
0.0
 40
0.094748116561368
 50
109.5427666489089944
 51
178.4836848977666932
  0
ARC
  5
EE16
  8
0
 10
4212.376566394492329
 20
183.4477758777051122
 30
0.0
 40
0.1270875012382342
 50
85.7135008359229147
 51
109.5427666489089944
  0
LINE
  5
EE17
  8
0
 10
4212.1781346639481853
 20
182.1014245084772085
 30
0.0
 11
4212.1781346639481853
 21
182.0814244092582044
 31
0.0
  0
ARC
  5
EE18
  8
0
 10
4211.6961627665250489
 20
182.1636711981367114
 30
0.0
 40
0.4756733645006105
 50
350.0431755421482762
 51
352.4807039157930717
  0
LINE
  5
EE19
  8
0
 10
4213.1581346823468266
 20
182.1014245084772085
 30
0.0
 11
4213.1581346823468266
 21
182.0814244092582044
 31
0.0
  0
ARC
  5
EE1A
  8
0
 10
4213.640106579769963
 20
182.1636711981367114
 30
0.0
 40
0.4756733645006105
 50
187.5192960842068999
 51
189.9568244578516101
  0
ARC
  5
EE1B
  8
0
 10
4209.6581983299720378
 20
223.3999597954104956
 30
0.0
 40
36.1714114323073019
 50
265.7974065382388176
 51
266.1504215592291871
  0
ARC
  5
EE1C
  8
0
 10
4206.9353152285220858
 20
185.6435241572922905
 30
0.0
 40
1.683828550969579
 50
87.5451726363299372
 51
95.7098601153843163
  0
ARC
  5
EE1D
  8
0
 10
4206.8377242574306365
 20
186.934900729782413
 30
0.0
 40
0.3904124010665599
 50
100.3191221563161974
 51
111.3693278071580011
  0
ARC
  5
EE1E
  8
0
 10
4206.7187307398198755
 20
187.2368495871963887
 30
0.0
 40
0.0658682935022896
 50
110.6828058060751943
 51
137.6904395449660115
  0
ARC
  5
EE1F
  8
0
 10
4206.6865727219155815
 20
187.2686139074945117
 30
0.0
 40
0.0207870454382658
 50
142.7786643176123107
 51
204.9561731806900013
  0
ARC
  5
EE20
  8
0
 10
4209.2918133025686984
 20
188.1205360630650034
 30
0.0
 40
2.7616341673829119
 50
198.1593381051160065
 51
198.4037724893564132
  0
ARC
  5
EE21
  8
0
 10
4203.461915518355454
 20
129.9831362309872134
 30
0.0
 40
57.4507113973013972
 50
86.0306297853160231
 51
86.2396293883395231
  0
ARC
  5
EE22
  8
0
 10
4207.3478176658227312
 20
185.9843326028498893
 30
0.0
 40
1.31485627261629
 50
78.8937240042164376
 51
86.0306297853160231
  0
ARC
  5
EE23
  8
0
 10
4207.4459374164653127
 20
186.7124156563369866
 30
0.0
 40
0.5831681739944425
 50
60.0295221672046466
 51
74.5697904205706266
  0
ARC
  5
EE24
  8
0
 10
4207.3497821536875563
 20
186.6494621554247999
 30
0.0
 40
0.6876958047745698
 50
48.4640808798931673
 51
55.7055885835720872
  0
ARC
  5
EE25
  8
0
 10
4207.7664761990217812
 20
187.1198545521938001
 30
0.0
 40
0.0592827763013402
 50
359.9863757668099993
 51
48.4640808798931673
  0
ARC
  5
EE26
  8
0
 10
4203.0783028756050044
 20
187.642458649065702
 30
0.0
 40
4.7761353811541261
 50
353.5734521480869148
 51
353.7179553518059265
  0
ARC
  5
EE27
  8
0
 10
4212.9917847447832173
 20
183.3631776577200014
 30
0.0
 40
0.2152185886538489
 50
92.5441362282551978
 51
100.1691904596910945
  0
ARC
  5
EE28
  8
0
 10
4212.6682211409961383
 20
185.5784044877779024
 30
0.0
 40
2.0236392703070449
 50
276.7602345438726843
 51
278.1123637774308008
  0
ARC
  5
EE29
  8
0
 10
4212.6706632266950692
 20
185.648744390842495
 30
0.0
 40
2.0932300360097909
 50
273.2383162399563048
 51
276.4672123842681799
  0
ARC
  5
EE2A
  8
0
 10
4212.6684516195609831
 20
185.7129835477612119
 30
0.0
 40
2.1574920162191642
 50
269.991582962212874
 51
273.2005860619008217
  0
ARC
  5
EE2B
  8
0
 10
4212.9809021455803304
 20
183.4506784222176918
 30
0.0
 40
0.1275126171389669
 50
78.2812604894855042
 51
89.4027031218720936
  0
ARC
  5
EE2C
  8
0
 10
4212.9836160676013606
 20
183.4637619050294006
 30
0.0
 40
0.1141506227062577
 50
31.307216934121481
 51
78.2812604894855042
  0
ARC
  5
EE2D
  8
0
 10
4212.9791420248056966
 20
183.4610408724354897
 30
0.0
 40
0.1193871365571934
 50
8.7538247401831946
 51
31.307216934121481
  0
ARC
  5
EE2E
  8
0
 10
4214.712246769570811
 20
183.3944458282817891
 30
0.0
 40
1.602526800295498
 50
181.6005351239508059
 51
188.4738554283271981
  0
ARC
  5
EE2F
  8
0
 10
4211.0825346059518779
 20
183.2083595712618944
 30
0.0
 40
2.0327294041927488
 50
3.9867224774647969
 51
7.657141118125991
  0
ARC
  5
EE30
  8
0
 10
4212.6681358267524047
 20
90.8952081362465663
 30
0.0
 40
92.4233414410307006
 50
89.8402927449462965
 51
90.0000007151604962
  0
ARC
  5
EE31
  8
0
 10
4212.9220809108137473
 20
181.999045946308712
 30
0.0
 40
1.319149705261345
 50
88.0989250226015344
 51
89.8402927449462965
  0
ARC
  5
EE32
  8
0
 10
4212.9690432769511972
 20
183.4139074899246964
 30
0.0
 40
0.0964910159093816
 50
268.0989250226015201
 51
358.955521746625891
  0
ARC
  5
EE33
  8
0
 10
4211.53051766173121
 20
183.4401341194196959
 30
0.0
 40
1.5352556880280579
 50
358.955521746625891
 51
1.5163151022333039
  0
ARC
  5
EE34
  8
0
 10
4212.9705208113882691
 20
183.4782522573343897
 30
0.0
 40
0.094748116561368
 50
1.5163151022333039
 51
70.4572333510910056
  0
ARC
  5
EE35
  8
0
 10
4212.9597029518026829
 20
183.4477758777051122
 30
0.0
 40
0.1270875012382342
 50
70.4572333510910056
 51
94.2864991640771137
  0
ENDSEC
  0
EOF
