  0
SECTION
  2
HEADER
  9
$ACADVER
  1
AC1009
  9
$INSBASE
 10
3192.4344880199450927
 20
131.5959361843844135
 30
0.0
  9
$EXTMIN
 10
3182.4007278941608092
 20
125.5410529220907989
 30
-0.0000000349181948
  9
$EXTMAX
 10
3192.593259441632199
 20
132.7463740414538051
 30
0.0000000814935746
  9
$LIMMIN
 10
0.0
 20
0.0
  9
$LIMMAX
 10
11.6929133858000007
 20
8.2677165353999982
  9
$ORTHOMODE
 70
     0
  9
$REGENMODE
 70
     1
  9
$FILLMODE
 70
     1
  9
$QTEXTMODE
 70
     0
  9
$MIRRTEXT
 70
     0
  9
$DRAGMODE
 70
     2
  9
$LTSCALE
 40
0.6431102362
  9
$OSMODE
 70
  4095
  9
$ATTMODE
 70
     1
  9
$TEXTSIZE
 40
0.2
  9
$TRACEWID
 40
0.05
  9
$TEXTSTYLE
  7
STANDARD
  9
$CLAYER
  8
0
  9
$CELTYPE
  6
BYLAYER
  9
$CECOLOR
 62
   256
  9
$DIMSCALE
 40
1.0
  9
$DIMASZ
 40
0.1875
  9
$DIMEXO
 40
0.0625
  9
$DIMDLI
 40
0.4443307087
  9
$DIMRND
 40
0.0
  9
$DIMDLE
 40
0.0
  9
$DIMEXE
 40
0.125
  9
$DIMTP
 40
0.01
  9
$DIMTM
 40
0.01
  9
$DIMTXT
 40
2.0
  9
$DIMCEN
 40
0.1052362205
  9
$DIMTSZ
 40
0.0
  9
$DIMTOL
 70
     1
  9
$DIMLIM
 70
     0
  9
$DIMTIH
 70
     1
  9
$DIMTOH
 70
     1
  9
$DIMSE1
 70
     0
  9
$DIMSE2
 70
     0
  9
$DIMTAD
 70
     0
  9
$DIMZIN
 70
     0
  9
$DIMBLK
  1

  9
$DIMASO
 70
     1
  9
$DIMSHO
 70
     1
  9
$DIMPOST
  1
\X
  9
$DIMAPOST
  1

  9
$DIMALT
 70
     1
  9
$DIMALTD
 70
     2
  9
$DIMALTF
 40
25.3999999999999986
  9
$DIMLFAC
 40
1.0
  9
$DIMTOFL
 70
     0
  9
$DIMTVP
 40
0.0
  9
$DIMTIX
 70
     0
  9
$DIMSOXD
 70
     0
  9
$DIMSAH
 70
     0
  9
$DIMBLK1
  1

  9
$DIMBLK2
  1

  9
$DIMSTYLE
  2
STANDARD
  9
$DIMCLRD
 70
     0
  9
$DIMCLRE
 70
     0
  9
$DIMCLRT
 70
     0
  9
$DIMTFAC
 40
1.0
  9
$DIMGAP
 40
0.09
  9
$LUNITS
 70
     2
  9
$LUPREC
 70
     4
  9
$SKETCHINC
 40
0.1
  9
$FILLETRAD
 40
0.0
  9
$AUNITS
 70
     0
  9
$AUPREC
 70
     0
  9
$MENU
  1
.
  9
$ELEVATION
 40
0.0
  9
$PELEVATION
 40
0.0
  9
$THICKNESS
 40
0.0
  9
$LIMCHECK
 70
     0
  9
$BLIPMODE
 70
     0
  9
$CHAMFERA
 40
0.0
  9
$CHAMFERB
 40
0.0
  9
$SKPOLY
 70
     0
  9
$TDCREATE
 40
2458060.468368056230247
  9
$TDUPDATE
 40
2460769.6893402780406177
  9
$TDINDWG
 40
0.5007825231
  9
$TDUSRTIMER
 40
0.5007825231
  9
$USRTIMER
 70
     1
  9
$ANGBASE
 50
0.0
  9
$ANGDIR
 70
     0
  9
$PDMODE
 70
     0
  9
$PDSIZE
 40
0.3125
  9
$PLINEWID
 40
0.0
  9
$COORDS
 70
     1
  9
$SPLFRAME
 70
     0
  9
$SPLINETYPE
 70
     6
  9
$SPLINESEGS
 70
     8
  9
$ATTDIA
 70
     1
  9
$ATTREQ
 70
     1
  9
$HANDLING
 70
     1
  9
$HANDSEED
  5
26151
  9
$SURFTAB1
 70
     6
  9
$SURFTAB2
 70
     6
  9
$SURFTYPE
 70
     6
  9
$SURFU
 70
     6
  9
$SURFV
 70
     6
  9
$UCSNAME
  2

  9
$UCSORG
 10
0.0
 20
0.0
 30
0.0
  9
$UCSXDIR
 10
1.0
 20
0.0
 30
0.0
  9
$UCSYDIR
 10
0.0
 20
1.0
 30
0.0
  9
$PUCSNAME
  2

  9
$PUCSORG
 10
0.0
 20
0.0
 30
0.0
  9
$PUCSXDIR
 10
1.0
 20
0.0
 30
0.0
  9
$PUCSYDIR
 10
0.0
 20
1.0
 30
0.0
  9
$USERI1
 70
     0
  9
$USERI2
 70
     0
  9
$USERI3
 70
     0
  9
$USERI4
 70
     0
  9
$USERI5
 70
     0
  9
$USERR1
 40
0.0
  9
$USERR2
 40
0.0
  9
$USERR3
 40
0.0
  9
$USERR4
 40
0.0
  9
$USERR5
 40
0.0
  9
$WORLDVIEW
 70
     1
  9
$SHADEDGE
 70
     3
  9
$SHADEDIF
 70
    70
  9
$TILEMODE
 70
     1
  9
$MAXACTVP
 70
    64
  9
$PLIMCHECK
 70
     0
  9
$PEXTMIN
 10
1.0000000000000000E+20
 20
1.0000000000000000E+20
 30
1.0000000000000000E+20
  9
$PEXTMAX
 10
-1.0000000000000000E+20
 20
-1.0000000000000000E+20
 30
-1.0000000000000000E+20
  9
$PLIMMIN
 10
0.0
 20
0.0
  9
$PLIMMAX
 10
12.0
 20
9.0
  9
$UNITMODE
 70
     0
  9
$VISRETAIN
 70
     1
  9
$PLINEGEN
 70
     0
  9
$PSLTSCALE
 70
     1
  0
ENDSEC
  0
SECTION
  2
TABLES
  0
TABLE
  2
VPORT
 70
     1
  0
VPORT
  2
*ACTIVE
 70
     0
 10
0.0
 20
0.0
 11
1.0
 21
1.0
 12
-616.0470737149162233
 22
3.148451285022404
 13
0.0
 23
0.0
 14
1.0
 24
1.0
 15
0.0
 25
0.0
 16
0.0
 26
0.0
 36
17.1152628219792007
 17
3803.5440673828129547
 27
125.9952621967499056
 37
0.0
 40
7.2538418003014353
 41
1.682022471910112
 42
50.0
 43
0.0
 44
0.0
 50
0.0
 51
0.0
 71
     0
 72
   100
 73
     1
 74
     1
 75
     0
 76
     0
 77
     0
 78
     0
  0
ENDTAB
  0
TABLE
  2
LTYPE
 70
     2
  0
LTYPE
  2
CONTINUOUS
 70
     0
  3
Solid line
 72
    65
 73
     0
 40
0.0
  0
LTYPE
  2
PHANTOM2
 70
     0
  3
___ _ _ ___ _ _ ___ _ _ ___ _ _
 72
    65
 73
     6
 40
1.25
 49
0.625
 49
-0.125
 49
0.125
 49
-0.125
 49
0.125
 49
-0.125
  0
ENDTAB
  0
TABLE
  2
LAYER
 70
     2
  0
LAYER
  2
0
 70
     0
 62
   255
  6
CONTINUOUS
  0
LAYER
  2
DEFPOINTS
 70
     0
 62
     7
  6
CONTINUOUS
  0
ENDTAB
  0
TABLE
  2
STYLE
 70
     1
  0
STYLE
  2
STANDARD
 70
     0
 40
0.0
 41
0.8
 50
0.0
 71
     0
 42
0.2
  3
txt
  4

  0
ENDTAB
  0
TABLE
  2
VIEW
 70
     0
  0
ENDTAB
  0
TABLE
  2
UCS
 70
     0
  0
ENDTAB
  0
TABLE
  2
APPID
 70
     9
  0
APPID
  2
ACAD
 70
     0
  0
APPID
  2
ACAD_MLEADERVER
 70
     0
  0
APPID
  2
ACAD_EXEMPT_FROM_CAD_STANDARDS
 70
     0
  0
APPID
  2
ACAD_NAV_VCDISPLAY
 70
     0
  0
APPID
  2
ACAECLAYERSTANDARD
 70
     0
  0
APPID
  2
ACCMTRANSPARENCY
 70
     0
  0
APPID
  2
ACAD_DSTYLE_DIMJAG
 70
     0
  0
APPID
  2
ACAD_DSTYLE_DIMTALN
 70
     0
  0
APPID
  2
ACDBATTR
 70
     0
  0
ENDTAB
  0
TABLE
  2
DIMSTYLE
 70
     1
  0
DIMSTYLE
  2
STANDARD
 70
     0
  3

  4

  5

  6

  7

 40
1.0
 41
0.1875
 42
0.0625
 43
0.38
 44
0.125
 45
0.0
 46
0.0
 47
0.01
 48
0.01
140
0.15625
141
0.09
142
0.0
143
25.3999999999999986
144
1.0
145
0.0
146
1.0
147
0.09
 71
     1
 72
     0
 73
     1
 74
     1
 75
     0
 76
     0
 77
     0
 78
     4
170
     0
171
     2
172
     0
173
     0
174
     0
175
     0
176
     0
177
     0
178
     0
  0
ENDTAB
  0
ENDSEC
  0
SECTION
  2
BLOCKS
  0
BLOCK
  8
0
  2
$MODEL_SPACE
 70
     0
 10
0.0
 20
0.0
 30
0.0
  3
$MODEL_SPACE
  1

  0
ENDBLK
  5
21
  8
0
  0
BLOCK
 67
     1
  8
0
  2
$PAPER_SPACE
 70
     0
 10
0.0
 20
0.0
 30
0.0
  3
$PAPER_SPACE
  1

  0
ENDBLK
  5
1D
 67
     1
  8
0
  0
ENDSEC
  0
SECTION
  2
ENTITIES
  0
ATTDEF
  5
24B36
  8
DEFPOINTS
 10
3192.4351526766317875
 20
131.5966097968324107
 30
0.0
 40
0.001
  1
P24871-00
  3

  2
MODELNUMBER
 70
     0
1001
ACDBATTR
1070
     0
1070
     1
  0
ATTDEF
  5
24B37
  8
DEFPOINTS
 10
3192.4351526766317875
 20
131.5949431301656887
 30
0.0
 40
0.001
  1
BELLIS
  3

  2
TRADENAME
 70
     0
1001
ACDBATTR
1070
     0
1070
     1
  0
ATTDEF
  5
24B38
  8
DEFPOINTS
 10
3192.4351526766317875
 20
131.5932764634989951
 30
0.0
 40
0.001
  1
SHOWERHEAD
  3

  2
PRODUCT
 70
     0
1001
ACDBATTR
1070
     0
1070
     1
  0
LINE
  5
25DF2
  8
0
 10
3183.8268711877449277
 20
127.7699399524844068
 30
0.0
 11
3183.8875748114451198
 21
127.7021178360843976
 31
0.0
  0
LINE
  5
25DF3
  8
0
 10
3183.5583869004449298
 20
128.0831030419844012
 30
0.0
 11
3183.6166831298451143
 21
128.0132008313844096
 31
0.0
  0
LINE
  5
25DF4
  8
0
 10
3183.3010113455447936
 20
128.4054580588843919
 30
0.0
 11
3183.3568289541449303
 21
128.3335611606844111
 31
0.0
  0
LINE
  5
25DF5
  8
0
 10
3183.0550589846438925
 20
128.7366111493844016
 30
0.0
 11
3183.1083297745440177
 21
128.6628074072843901
 31
0.0
  0
LINE
  5
25DF6
  8
0
 10
3183.0784322784447795
 20
129.6867697474843908
 30
0.0
 11
3183.0500959075448009
 21
129.6584333764843961
 31
0.0
  0
LINE
  5
25DF7
  8
0
 10
3183.1946539080440743
 20
129.7027715182844076
 30
0.0
 11
3183.1730843673449272
 21
129.6812019775844078
 31
0.0
  0
LINE
  5
25DF8
  8
0
 10
3182.6023879494450739
 20
129.2162931883844124
 30
0.0
 11
3186.2604127938438978
 21
125.5582683438843929
 31
0.0
  0
LINE
  5
25DF9
  8
0
 10
3186.3496185783451438
 20
125.5817335391843983
 30
0.0
 11
3182.6258554449450457
 21
129.305496672584411
 31
0.0
  0
LINE
  5
25DFA
  8
0
 10
3183.0066538353448777
 20
129.6573851281843872
 30
0.0
 11
3186.7015047336440148
 21
125.9625342298843975
 31
0.0
  0
LINE
  5
25DFB
  8
0
 10
3183.1575919764450191
 20
128.6486147057844107
 30
0.0
 11
3183.1644281255448732
 21
128.6542530121843981
 31
0.0
  0
LINE
  5
25DFC
  8
0
 10
3183.0568984966448625
 20
128.7502547926843874
 30
0.0
 11
3183.0632864085450819
 21
128.7553947291843883
 31
0.0
  0
LINE
  5
25DFD
  8
0
 10
3186.7308893529439047
 20
126.0788548324843958
 30
0.0
 11
3183.1229744379447766
 21
129.6867697474843908
 31
0.0
  0
LINE
  5
25DFE
  8
0
 10
3186.7517516941438771
 20
126.1888014925844033
 30
0.0
 11
3183.2329210980451535
 21
129.7076320886843916
 31
0.0
  0
LINE
  5
25DFF
  8
0
 10
3183.3812360803449337
 20
128.3395492020844131
 30
0.0
 11
3183.3910220966449742
 21
128.3481672685844046
 31
0.0
  0
LINE
  5
25E00
  8
0
 10
3183.302372903045125
 20
128.4191576562843977
 30
0.0
 11
3183.3114928639452046
 21
128.4270365203844051
 31
0.0
  0
LINE
  5
25E01
  8
0
 10
3183.8272724316439053
 20
127.7837011955843991
 30
0.0
 11
3183.8324158154450743
 21
127.7888141249843983
 31
0.0
  0
LINE
  5
25E02
  8
0
 10
3183.5592688399451617
 20
128.0968418553844117
 30
0.0
 11
3183.5660170751448277
 21
128.1030967069843882
 31
0.0
  0
LINE
  5
25E03
  8
0
 10
3183.450126502645162
 20
128.2525230868843948
 30
0.0
 11
3183.4602186772522145
 21
128.2596851325550915
 31
0.0
  0
LINE
  5
25E04
  8
0
 10
3183.370438518345054
 20
128.3314844875843903
 30
0.0
 11
3183.3800556901010168
 21
128.3381746224328026
 31
0.0
  0
LINE
  5
25E05
  8
0
 10
3183.2236277063448142
 20
128.5594033369843885
 30
0.0
 11
3183.2373550359448018
 21
128.5684905835844063
 31
0.0
  0
LINE
  5
25E06
  8
0
 10
3183.1218584471439499
 20
128.6602563630843861
 30
0.0
 11
3183.1339659255449988
 21
128.6680654926844056
 31
0.0
  0
LINE
  5
25E07
  8
0
 10
3185.8732133695448283
 20
129.7199369529843977
 30
0.0
 11
3186.0849725546449918
 21
129.9316961380843907
 31
0.0
  0
LINE
  5
25E08
  8
0
 10
3186.9886715329698745
 20
130.6445876409092932
 30
0.0
 11
3186.471651464245042
 21
130.1275675720843878
 31
0.0
  0
LINE
  5
25E09
  8
0
 10
3187.7874322098450648
 20
131.3174833106843948
 30
0.0
 11
3187.0657461721439176
 21
130.595797272984413
 31
0.0
  0
LINE
  5
25E0A
  8
0
 10
3183.6303569574452013
 20
128.011601066684392
 30
0.0
 11
3183.6371522487452239
 21
128.0166895967844027
 31
0.0
  0
LINE
  5
25E0B
  8
0
 10
3185.3505232134448306
 20
129.4181592942844077
 30
0.0
 11
3186.4622788997448879
 21
128.3064036078843912
 31
0.0
  0
LINE
  5
25E0C
  8
0
 10
3185.358751427945208
 20
129.4838635078843936
 30
0.0
 11
3186.527983113344817
 21
128.3146318224843867
 31
0.0
  0
LINE
  5
25E0D
  8
0
 10
3186.6824755082448064
 20
129.9167435284844032
 30
0.0
 11
3187.0905006275452251
 21
130.3247686477843956
 31
0.0
  0
LINE
  5
25E0E
  8
0
 10
3183.9012961958451342
 20
127.7009969342844045
 30
0.0
 11
3183.9066033645440257
 21
127.7052685648844061
 31
0.0
  0
LINE
  5
25E0F
  8
0
 10
3186.6671773616449173
 20
128.4593938406844131
 30
0.0
 11
3185.5035137691447744
 21
129.6230574331844139
 31
0.0
  0
LINE
  5
25E10
  8
0
 10
3185.5331314443451447
 20
129.6191371576844062
 30
0.0
 11
3186.6632567631450001
 21
128.4890118387843927
 31
0.0
  0
LINE
  5
25E11
  8
0
 10
3186.6696076468451793
 20
128.5182090246844098
 30
0.0
 11
3185.5623286301452026
 21
129.6254880413843864
 31
0.0
  0
LINE
  5
25E12
  8
0
 10
3187.3688877177451104
 20
130.0463804870844058
 30
0.0
 11
3186.96086313354499
 21
129.6383559027844115
 31
0.0
  0
LINE
  5
25E13
  8
0
 10
3188.3616029161448751
 20
130.743312604384414
 30
0.0
 11
3187.6399168784450922
 21
130.0216265666844038
 31
0.0
  0
LINE
  5
25E14
  8
0
 10
3187.688707246345075
 20
129.9445519274842979
 30
0.0
 11
3187.1716871775452091
 21
129.4275318586844037
 31
0.0
  0
LINE
  5
25E15
  8
0
 10
3183.4450749126449409
 20
128.250688642984386
 30
0.0
 11
3183.450126502645162
 21
128.2525230868843948
 31
0.0
  0
LINE
  5
25E16
  8
0
 10
3183.2178425841448188
 20
128.5577106166844032
 30
0.0
 11
3183.2236277063448142
 21
128.5594033369843885
 31
0.0
  0
LINE
  5
25E17
  8
0
 10
3186.7996226765449137
 20
128.7935276459843976
 30
0.0
 11
3186.7640565584451906
 21
128.8290937640844049
 31
0.0
  0
LINE
  5
25E18
  8
0
 10
3185.8732133695448283
 20
129.7199369529843977
 30
0.0
 11
3185.8376472514451052
 21
129.7555030709843891
 31
0.0
  0
LINE
  5
25E19
  8
0
 10
3186.0435871294448589
 20
129.8903107127844123
 30
0.0
 11
3186.9344303183452212
 21
128.9994675238843911
 31
0.0
  0
LINE
  5
25E1A
  8
0
 10
3186.9706208228449213
 20
129.0467935683844019
 30
0.0
 11
3186.0849725546449918
 21
129.9316961380843907
 31
0.0
  0
LINE
  5
25E1B
  8
0
 10
3186.3502756876450803
 20
129.7806507462844081
 30
0.0
 11
3186.8247704470441022
 21
129.3061550605843877
 31
0.0
  0
LINE
  5
25E1C
  8
0
 10
3186.4968997511450652
 20
128.3457151846843942
 30
0.0
 11
3186.4622788997448879
 21
128.3064036078843912
 31
0.0
  0
LINE
  5
25E1D
  8
0
 10
3186.9758157435448993
 20
129.0408529491843979
 30
0.0
 11
3186.7640565584451906
 21
128.8290937640844049
 31
0.0
  0
LINE
  5
25E1E
  8
0
 10
3186.4217318594451172
 20
129.8770653437844089
 30
0.0
 11
3186.9211849492448891
 21
129.3776122539844096
 31
0.0
  0
LINE
  5
25E1F
  8
0
 10
3186.9608631335440805
 20
129.6383559027837009
 30
0.0
 11
3187.1716871775452091
 21
129.4275318586844037
 31
0.0
  0
LINE
  5
25E20
  8
0
 10
3186.471651464245042
 20
130.1275675720843878
 30
0.0
 11
3186.6824755079310307
 21
129.9167435287930914
 31
0.0
  0
LINE
  5
25E21
  8
0
 10
3191.3789039053449414
 20
132.0900306726344127
 30
0.0
 11
3191.4091723623450889
 21
132.1199603209344104
 31
0.0
  0
LINE
  5
25E22
  8
0
 10
3187.688707246345075
 20
129.9445519274842979
 30
0.0
 11
3186.9886715329448634
 21
130.6445876408843958
 31
0.0
  0
LINE
  5
25E23
  8
0
 10
3187.0169558042189237
 20
130.6445876409106006
 30
0.0
 11
3187.6887065825449099
 21
129.9728368625843871
 31
0.0
  0
ARC
  5
25E24
  8
0
 10
3187.0028136685950813
 20
130.6304455052869002
 30
0.0
 40
0.02
 50
44.9999999999953886
 51
135.0000000055391922
  0
LINE
  5
25E25
  8
0
 10
3191.5447242404438839
 20
131.101841696234402
 30
0.0
 11
3191.5144537309452062
 21
131.0715713881344016
 31
0.0
  0
LINE
  5
25E26
  8
0
 10
3186.7468911237451721
 20
126.1505343024844024
 30
0.0
 11
3186.7253215830451154
 21
126.1289647617844025
 31
0.0
  0
LINE
  5
25E27
  8
0
 10
3186.7308893529439047
 20
126.0343126729843988
 30
0.0
 11
3186.7025529819447911
 21
126.0059763019844041
 31
0.0
  0
LINE
  5
25E28
  8
0
 10
3192.1077163663439933
 20
130.6392432710343883
 30
0.0
 11
3192.1460196686448398
 21
130.6392432710343883
 31
0.0
  0
LINE
  5
25E29
  8
0
 10
3192.0301590541448604
 20
130.7494794915344016
 30
0.0
 11
3192.0486612482450255
 21
130.7494794915344016
 31
0.0
  0
LINE
  5
25E2A
  8
0
 10
3191.5144537309452062
 20
131.0715713881344016
 30
0.0
 11
3191.4091744148449834
 21
131.0715713881344016
 31
0.0
  0
LINE
  5
25E2B
  8
0
 10
3191.3754329018452154
 20
131.1899361844344014
 30
0.0
 11
3189.4335767964448678
 21
131.1899361844344014
 31
0.0
  0
LINE
  5
25E2C
  8
0
 10
3191.7379885719451522
 20
132.1271138108344019
 30
0.0
 11
3191.6208189926451269
 21
132.1124990013344132
 31
0.0
  0
LINE
  5
25E2D
  8
0
 10
3191.7379885719451522
 20
131.0647585579343968
 30
0.0
 11
3191.6208189926451269
 21
131.0793733674344139
 31
0.0
  0
LINE
  5
25E2E
  8
0
 10
3191.3754329018452154
 20
132.0019361844344132
 30
0.0
 11
3189.4335767964448678
 21
131.9993387240843958
 31
0.0
  0
LINE
  5
25E2F
  8
0
 10
3191.3754329018452154
 20
132.0703456332344103
 30
0.0
 11
3191.3789039053449414
 21
132.0900306726344127
 31
0.0
  0
LINE
  5
25E30
  8
0
 10
3191.5144560329440537
 20
132.1199603209344104
 30
0.0
 11
3191.4091721128452264
 21
132.1199603209344104
 31
0.0
  0
LINE
  5
25E31
  8
0
 10
3192.0301590541448604
 20
132.442392877334413
 30
0.0
 11
3192.0486612482450255
 21
132.442392877334413
 31
0.0
  0
LINE
  5
25E32
  8
0
 10
3191.3754329018452154
 20
132.0703287032343951
 30
0.0
 11
3191.3754329018452154
 21
131.1215436656343911
 31
0.0
  0
LINE
  5
25E33
  8
0
 10
3191.3789039053449414
 20
131.101841696234402
 30
0.0
 11
3191.3789039053449414
 21
132.0900306726344127
 31
0.0
  0
LINE
  5
25E34
  8
0
 10
3192.1077163663439933
 20
132.552629097834398
 30
0.0
 11
3192.1460196686448398
 21
132.552629097834398
 31
0.0
  0
LINE
  5
25E35
  8
0
 10
3191.5447242404438839
 20
131.1018636372344019
 30
0.0
 11
3191.5447242404438839
 21
132.0900087315343967
 31
0.0
  0
LINE
  5
25E36
  8
0
 10
3191.6041815878447778
 20
132.1017536625344064
 30
0.0
 11
3191.6041815878447778
 21
131.0901187063344082
 31
0.0
  0
LINE
  5
25E37
  8
0
 10
3191.7379885719451522
 20
131.0647585579343968
 30
0.0
 11
3191.7379885719451522
 21
132.1271138108344019
 31
0.0
  0
LINE
  5
25E38
  8
0
 10
3191.3789039053449414
 20
131.101841696234402
 30
0.0
 11
3191.4091744148449834
 21
131.0715713881344016
 31
0.0
  0
LINE
  5
25E39
  8
0
 10
3191.3754329018452154
 20
131.1215267355343883
 30
0.0
 11
3191.3789039053449414
 21
131.101841696234402
 31
0.0
  0
LINE
  5
25E3A
  8
0
 10
3191.8943022373450731
 20
130.9837721424343897
 30
0.0
 11
3191.8943022373450731
 21
132.2081002264343965
 31
0.0
  0
LINE
  5
25E3B
  8
0
 10
3192.006804266844938
 20
132.422314137134407
 30
0.0
 11
3192.006804266844938
 21
130.7695582316343916
 31
0.0
  0
LINE
  5
25E3C
  8
0
 10
3192.0683462876449994
 20
130.67861571943439
 30
0.0
 11
3192.0683462876449994
 21
132.5132566493344086
 31
0.0
  0
LINE
  5
25E3D
  8
0
 10
3192.1762629700451726
 20
130.616541791534388
 30
0.0
 11
3192.1762629700451726
 21
132.5753305773343982
 31
0.0
  0
LINE
  5
25E3E
  8
0
 10
3192.4015459028451005
 20
130.501778761734414
 30
0.0
 11
3192.407356167243961
 21
130.5540561349343989
 31
0.0
  0
LINE
  5
25E3F
  8
0
 10
3192.4015459028451005
 20
130.501778761734414
 30
0.0
 11
3192.4015459028451005
 21
132.6900936071344006
 31
0.0
  0
LINE
  5
25E40
  8
0
 10
3192.4344880199450927
 20
130.5913589501344063
 30
0.0
 11
3192.4344880199450927
 21
132.6005134186343923
 31
0.0
  0
LINE
  5
25E41
  8
0
 10
3191.5447242404438839
 20
132.0900306726344127
 30
0.0
 11
3191.5144557991438887
 21
132.1199603209344104
 31
0.0
  0
LINE
  5
25E42
  8
0
 10
3192.4015459028451005
 20
132.6900936071344006
 30
0.0
 11
3192.407356167243961
 21
132.6378162339343874
 31
0.0
  0
ARC
  5
25E43
  8
0
 10
3186.9288625483450232
 20
129.0050352938843901
 30
0.0
 40
0.0590551181
 50
37.3377443392987516
 51
44.9999999999953886
  0
ARC
  5
25E44
  8
0
 10
3186.6393385119449704
 20
128.5095037700843932
 30
0.0
 40
0.031496063
 50
319.4117257858914058
 51
16.0449756282983707
  0
ARC
  5
25E45
  8
0
 10
3186.7248240617450392
 20
125.9837052222843994
 30
0.0
 40
0.031496063
 50
135.0000000000046043
 51
222.2354654715078937
  0
ARC
  5
25E46
  8
0
 10
3186.7086182732450652
 20
126.0565837526844035
 30
0.0
 40
0.031496063
 50
315.0000000000046043
 51
44.9999999999953886
  0
ARC
  5
25E47
  8
0
 10
3186.7475926627448644
 20
126.1066936820843978
 30
0.0
 40
0.031496063
 50
135.0000000000046043
 51
224.9999999999953957
  0
ARC
  5
25E48
  8
0
 10
3186.7246200440440589
 20
126.1728053822843947
 30
0.0
 40
0.031496063
 50
315.0000000000046043
 51
30.5224878140960882
  0
ARC
  5
25E49
  8
0
 10
3186.6782056701449619
 20
128.476204381784413
 30
0.0
 40
0.0196850394
 50
139.4117257858000016
 51
224.9999999999953957
  0
ARC
  5
25E4A
  8
0
 10
3183.0631674407450191
 20
128.7424637504844043
 30
0.0
 40
0.01
 50
128.8213676609994138
 51
215.8213676586003942
  0
ARC
  5
25E4B
  8
0
 10
3183.1164382306451444
 20
128.6686600083843928
 30
0.0
 40
0.01
 50
215.8213676586003942
 51
302.8213676595073025
  0
ARC
  5
25E4C
  8
0
 10
3183.8950260956439706
 20
127.7087870461843977
 30
0.0
 40
0.01
 50
221.829869955104698
 51
308.829869955189622
  0
ARC
  5
25E4D
  8
0
 10
3183.8343224719451428
 20
127.7766091626843945
 30
0.0
 40
0.01
 50
134.8298699548003867
 51
221.829869955104698
  0
ARC
  5
25E4E
  8
0
 10
3183.3647279146448454
 20
128.3396935682843889
 30
0.0
 40
0.01
 50
217.8242017590926025
 51
304.8242017582937819
  0
ARC
  5
25E4F
  8
0
 10
3183.3089103060451635
 20
128.4115904664843981
 30
0.0
 40
0.01
 50
130.8242017588962938
 51
217.8242017590926025
  0
ARC
  5
25E50
  8
0
 10
3183.5660667144438776
 20
128.0895077635844075
 30
0.0
 40
0.01
 50
132.8270358565993092
 51
219.8270358568933034
  0
ARC
  5
25E51
  8
0
 10
3183.6243629437440177
 20
128.0196055529843875
 30
0.0
 40
0.01
 50
219.8270358568933034
 51
306.8270358569041036
  0
ARC
  5
25E52
  8
0
 10
3186.299242421344843
 20
129.2551228158843912
 30
0.0
 40
0.5280000000000001
 50
84.4534797991079955
 51
96.5519262694962208
  0
ARC
  5
25E53
  8
0
 10
3187.0090526179451444
 20
129.5901664183843991
 30
0.0
 40
0.23
 50
247.5403104634989973
 51
315.0000000000046043
  0
ARC
  5
25E54
  8
0
 10
3186.6342860238451067
 20
129.9649330123843924
 30
0.0
 40
0.23
 50
135.0000000000046043
 51
202.4596895364973932
  0
ARC
  5
25E55
  8
0
 10
3186.3570414616451671
 20
129.8503230098843915
 30
0.0
 40
0.07
 50
264.4534797991079813
 51
22.4596895364974216
  0
ARC
  5
25E56
  8
0
 10
3186.8944426153439053
 20
129.3129218561844027
 30
0.0
 40
0.07
 50
67.5403104634990257
 51
185.5465202008994936
  0
ARC
  5
25E57
  8
0
 10
3183.0278248277450075
 20
129.6807044561844009
 30
0.0
 40
0.031496063
 50
227.7645345285010023
 51
315.0000000000046043
  0
ARC
  5
25E58
  8
0
 10
3183.1007033582450276
 20
129.664498667784386
 30
0.0
 40
0.031496063
 50
44.9999999999953886
 51
135.0000000000046043
  0
ARC
  5
25E59
  8
0
 10
3183.1508132875451338
 20
129.7034730572844126
 30
0.0
 40
0.031496063
 50
224.9999999999953957
 51
315.0000000000046043
  0
ARC
  5
25E5A
  8
0
 10
3183.2169249877451875
 20
129.6805004384843869
 30
0.0
 40
0.031496063
 50
59.4775121859088927
 51
135.0000000000046043
  0
ARC
  5
25E5B
  8
0
 10
3189.4335767964448678
 20
129.6713387240843929
 30
0.0
 40
2.3279999999999998
 50
90.0
 51
135.0000000000046043
  0
ARC
  5
25E5C
  8
0
 10
3189.4433428223828741
 20
129.6567228333865955
 30
0.0
 40
1.5332444537952199
 50
90.3649488841351172
 51
134.8718477538357945
  0
ARC
  5
25E5D
  8
0
 10
3191.6409125987452171
 20
132.4778259482343969
 30
0.0
 40
0.3700787402
 50
313.211322763198325
 51
351.3730734412989136
  0
ARC
  5
25E5E
  8
0
 10
3191.6409125987452171
 20
130.7140464206343893
 30
0.0
 40
0.3700787402
 50
8.6269265587003101
 51
46.788677236801739
  0
ARC
  5
25E5F
  8
0
 10
3191.6732602122451681
 20
130.7484794915343969
 30
0.0
 40
0.3228346457
 50
46.7886772369055421
 51
78.4337984010887226
  0
ARC
  5
25E60
  8
0
 10
3191.6732602122451681
 20
132.4433928773343894
 30
0.0
 40
0.3228346457
 50
281.5662015989112774
 51
313.2113227630944721
  0
ARC
  5
25E61
  8
0
 10
3192.4371114454452254
 20
130.6923950741343958
 30
0.0
 40
0.2716535433
 50
196.2141362986029947
 51
228.6362828644913066
  0
ARC
  5
25E62
  8
0
 10
3192.4371114454452254
 20
132.4994772946344028
 30
0.0
 40
0.2716535433
 50
131.3637171355086934
 51
163.7858637013968917
  0
ARC
  5
25E63
  8
0
 10
3192.359059864244955
 20
132.5881225346344081
 30
0.0
 40
0.1535433071
 50
102.1520869793121022
 51
131.3637171355086934
  0
ARC
  5
25E64
  8
0
 10
3192.359059864244955
 20
130.6037498341343905
 30
0.0
 40
0.1535433071
 50
228.6362828644913066
 51
257.8479130206878835
  0
ARC
  5
25E65
  8
0
 10
3192.3399998309450893
 20
130.5152353970343881
 30
0.0
 40
0.063
 50
257.8479130207941239
 51
347.6667479827008265
  0
ARC
  5
25E66
  8
0
 10
3192.3399998309450893
 20
132.6766369718343981
 30
0.0
 40
0.063
 50
12.3332520172991398
 51
102.1520869792059045
  0
ARC
  5
25E67
  8
0
 10
3191.5515352640450146
 20
131.0633629301343888
 30
0.0
 40
0.0590551181
 50
26.9404682657999288
 51
83.9248194282058364
  0
ARC
  5
25E68
  8
0
 10
3191.5515352640450146
 20
132.1285094387343975
 30
0.0
 40
0.0590551181
 50
276.075180571794192
 51
333.059531734199993
  0
ARC
  5
25E69
  8
0
 10
3192.1077163663439933
 20
130.6786133497344053
 30
0.0
 40
0.0393700787
 50
180.0
 51
270.0
  0
ARC
  5
25E6A
  8
0
 10
3192.1077163663439933
 20
132.5132590190343933
 30
0.0
 40
0.0393700787
 50
90.0
 51
180.0
  0
ARC
  5
25E6B
  8
0
 10
3192.1460196686448398
 20
132.584125160734402
 30
0.0
 40
0.031496063
 50
270.0
 51
343.7858637012973873
  0
ARC
  5
25E6C
  8
0
 10
3192.1460196686448398
 20
130.6077472080343966
 30
0.0
 40
0.031496063
 50
16.2141362987025914
 51
90.0
  0
ARC
  5
25E6D
  8
0
 10
3192.0301590541448604
 20
132.41877083003439
 30
0.0
 40
0.0236220472
 50
90.0
 51
171.3730734412997094
  0
ARC
  5
25E6E
  8
0
 10
3192.0301590541448604
 20
130.7731015387344087
 30
0.0
 40
0.0236220472
 50
188.6269265587002906
 51
270.0
  0
ARC
  5
25E6F
  8
0
 10
3187.6745651107448793
 20
129.9586940630844083
 30
0.0
 40
0.02
 50
315.0000000000046043
 51
44.9999999999953886
  0
ARC
  5
25E70
  8
0
 10
3192.4148029805451188
 20
130.591355385234408
 30
0.0
 40
0.0196850394
 50
288.1099549492041092
 51
0.0
  0
ARC
  5
25E71
  8
0
 10
3192.4148029805451188
 20
132.6005169836344066
 30
0.0
 40
0.0196850394
 50
0.0
 51
71.8900450507958766
  0
ARC
  5
25E72
  8
0
 10
3192.4270408378451975
 20
132.6379367370344085
 30
0.0
 40
0.0196850394
 50
180.3507417904000079
 51
251.8900450507958908
  0
ARC
  5
25E73
  8
0
 10
3192.4270408378451975
 20
130.5539356317343902
 30
0.0
 40
0.0196850394
 50
108.109954949204095
 51
179.6492582095999921
  0
ARC
  5
25E74
  8
0
 10
3192.0486612482450255
 20
130.7297944521343993
 30
0.0
 40
0.0196850394
 50
0.0
 51
90.0
  0
ARC
  5
25E75
  8
0
 10
3192.0486612482450255
 20
132.4620779167343869
 30
0.0
 40
0.0196850394
 50
270.0
 51
0.0
  0
ARC
  5
25E76
  8
0
 10
3191.6217303624448505
 20
131.0990372984344106
 30
0.0
 40
0.0196850394
 50
206.9404682657998933
 51
267.3463949486975935
  0
ARC
  5
25E77
  8
0
 10
3191.6217303624448505
 20
132.0928350704344041
 30
0.0
 40
0.0196850394
 50
92.653605051302435
 51
153.0595317342001067
  0
ARC
  5
25E78
  8
0
 10
3191.5565352640451238
 20
132.0815306726343863
 30
0.0
 40
0.0118110236
 50
180.0
 51
276.075180571794192
  0
ARC
  5
25E79
  8
0
 10
3191.5565352640451238
 20
131.1103416962343999
 30
0.0
 40
0.0118110236
 50
83.9248194282058364
 51
180.0
  0
ARC
  5
25E7A
  8
0
 10
3187.0990288977841374
 20
130.3135414480329928
 30
0.0
 40
0.0140989859723255
 50
71.8192828674901307
 51
127.2205971706574985
  0
ARC
  5
25E7B
  8
0
 10
3187.0339767206901342
 20
130.1154594731609961
 30
0.0
 40
0.2225894042505916
 50
57.5032301722323425
 51
71.8192828674901307
  0
ARC
  5
25E7C
  8
0
 10
3186.8665402927640571
 20
129.8094753275699134
 30
0.0
 40
0.5710889092182123
 50
45.918409991043653
 51
59.8285601660206723
  0
ARC
  5
25E7D
  8
0
 10
3186.9076263731108156
 20
129.8633423124720139
 30
0.0
 40
0.5038736007229041
 50
23.78682895287535
 51
45.0132230368759991
  0
ARC
  5
25E7E
  8
0
 10
3187.3524917318909502
 20
130.0563224536313101
 30
0.0
 40
0.0191747503485107
 50
328.7688063580114886
 51
32.3128077062363275
  0
LINE
  5
25E7F
  8
0
 10
3187.0905006267448698
 20
130.3247686470843973
 30
0.0
 11
3187.3688877177451104
 21
130.0463804870844058
 31
0.0
  0
ARC
  5
25E80
  8
0
 10
3186.8873714347819259
 20
129.7152680734155865
 30
0.0
 40
0.1063790946484438
 50
268.2630392135366151
 51
313.6972088755014738
  0
ARC
  5
25E81
  8
0
 10
3186.900930645841072
 20
129.8433357146192009
 30
0.0
 40
0.234997971607963
 50
222.6761830984941071
 51
265.9044199911525084
  0
ARC
  5
25E82
  8
0
 10
3186.9073198551318455
 20
129.8703380522005091
 30
0.0
 40
0.2584653889969593
 50
193.8081016644044041
 51
226.118915526236492
  0
ARC
  5
25E83
  8
0
 10
3186.7689072040111569
 20
129.8386224731343077
 30
0.0
 40
0.1165046665250192
 50
137.8912332718184075
 51
194.9078296478571986
  0
ARC
  5
25E84
  8
0
 10
3187.2108117833899996
 20
128.3700465390593024
 30
0.0
 40
0.5902649655120841
 50
134.1562789625278924
 51
150.749415511807598
  0
ARC
  5
25E85
  8
0
 10
3186.8902729679180084
 20
128.5495611963904139
 30
0.0
 40
0.2228814541500687
 50
150.7494155118068875
 51
188.0864720502761998
  0
ARC
  5
25E86
  8
0
 10
3185.3451666854120958
 20
130.25646096096321
 30
0.0
 40
0.7024926444115152
 50
300.5832165992371188
 51
314.5110888936167726
  0
ARC
  5
25E87
  8
0
 10
3185.5990344163269583
 20
129.8174969449140121
 30
0.0
 40
0.1954858915126921
 50
259.1775064903234806
 51
301.986605940219988
  0
ARC
  5
25E88
  8
0
 10
3185.5536233755437934
 20
129.5952189064657887
 30
0.0
 40
0.0314960630180313
 50
73.9550243799689895
 51
130.5882741379861045
  0
ARC
  5
25E89
  8
0
 10
3185.5203248240100038
 20
129.6341078109294074
 30
0.0
 40
0.0197010147702598
 50
225.0477371964890949
 51
310.5452786999762793
  0
ARC
  5
25E8A
  8
0
 10
3186.6060807343669694
 20
128.3908284306334906
 30
0.0
 40
0.0918368843122007
 50
316.35462596224869
 51
48.2967042021535278
  0
ARC
  5
25E8B
  8
0
 10
3186.5903340090580969
 20
128.4330300845894044
 30
0.0
 40
0.1338124906937011
 50
242.2278109302546909
 51
307.9017389368066233
  0
ARC
  5
25E8C
  8
0
 10
3187.1852888060830082
 20
127.5558809420592041
 30
0.0
 40
1.0421264782073241
 50
133.9303379601057031
 51
178.0401664619641906
  0
ARC
  5
25E8D
  8
0
 10
3187.5410104291167954
 20
127.5437085413115028
 30
0.0
 40
1.398056303361072
 50
178.0401664619641906
 51
210.8018733475961994
  0
ARC
  5
25E8E
  8
0
 10
3195.7674302240088764
 20
132.4480035113986105
 30
0.0
 40
10.9754302542626601
 50
210.8018733475961994
 51
214.7706026928819085
  0
ARC
  5
25E8F
  8
0
 10
3186.5381246032989111
 20
125.8117764700617016
 30
0.0
 40
0.2223082749735024
 50
335.9846975763144883
 51
42.6990367341215986
  0
ARC
  5
25E90
  8
0
 10
3186.4916183811051269
 20
125.8643989661110965
 30
0.0
 40
0.2876847462101214
 50
290.1955356669712955
 51
330.1711171703070136
  0
ARC
  5
25E91
  8
0
 10
3186.4465687171950776
 20
126.0396977586284066
 30
0.0
 40
0.468113827712948
 50
258.0470701958556106
 51
287.9627494675037838
  0
ARC
  5
25E92
  8
0
 10
3186.3441561207077939
 20
125.5446169527279068
 30
0.0
 40
0.0375163888879311
 50
81.6278644024087043
 51
129.978578516492405
  0
LINE
  5
25E93
  8
0
 10
3186.3200517973450587
 20
125.5733651879843933
 30
0.0
 11
3186.3049549532729543
 21
125.5582683439563993
 31
0.0
  0
ARC
  5
25E94
  8
0
 10
3186.282683873545011
 20
125.5805394237906967
 30
0.0
 40
0.0314960631063337
 50
225.0000001359977091
 51
314.9999998632272877
  0
ARC
  5
25E95
  8
0
 10
3184.5735371862451757
 20
126.9976955526294944
 30
0.0
 40
0.0787401576451058
 50
225.0000001261174134
 51
314.9999999253267902
  0
LINE
  5
25E96
  8
0
 10
3184.5178594868170876
 20
126.9420178532122065
 30
0.0
 11
3184.2519984727950941
 21
127.207878867284407
 31
0.0
  0
LINE
  5
25E97
  8
0
 10
3185.3898347900440058
 20
129.4527801457111877
 30
0.0
 11
3185.3505232132451965
 21
129.4181592943085946
 31
0.0
  0
ARC
  5
25E98
  8
0
 10
3185.4349480359851441
 20
129.5619611289363888
 30
0.0
 40
0.0918368843122007
 50
41.7032958017101976
 51
133.6453740416204994
  0
ARC
  5
25E99
  8
0
 10
3185.4771496899420526
 20
129.5462144036297047
 30
0.0
 40
0.1338124906937011
 50
142.0982610670515101
 51
207.7721890735984971
  0
ARC
  5
25E9A
  8
0
 10
3184.6000005473720194
 20
130.1411692005962948
 30
0.0
 40
1.0421264782073241
 50
271.9598335419059936
 51
316.0696620437590241
  0
ARC
  5
25E9B
  8
0
 10
3184.5878281465988948
 20
130.4968908236295988
 30
0.0
 40
1.398056303361072
 50
239.1981266562738995
 51
271.9598335419059936
  0
ARC
  5
25E9C
  8
0
 10
3189.492123116131097
 20
138.7233106188525937
 30
0.0
 40
10.9754302542626601
 50
235.2293973109921126
 51
239.1981266562738995
  0
ARC
  5
25E9D
  8
0
 10
3182.8558960754180589
 20
129.4940049976943044
 30
0.0
 40
0.2223082749735024
 50
47.3009632697458073
 51
114.0153024275675051
  0
ARC
  5
25E9E
  8
0
 10
3182.9085185714698127
 20
129.4474987755039024
 30
0.0
 40
0.2876847462101215
 50
119.8288828335577989
 51
159.8044643368891968
  0
ARC
  5
25E9F
  8
0
 10
3183.0838173639908746
 20
129.4024491116059892
 30
0.0
 40
0.468113827712948
 50
162.0372505363617108
 51
191.9529298080036881
  0
ARC
  5
25EA0
  8
0
 10
3182.5887365580970254
 20
129.3000365150859068
 30
0.0
 40
0.0375163888879311
 50
320.0214214873670926
 51
8.3721356014694397
  0
LINE
  5
25EA1
  8
0
 10
3182.6174847933548335
 20
129.2759321917239959
 30
0.0
 11
3182.6023879493282038
 21
129.2608353476508967
 31
0.0
  0
ARC
  5
25EA2
  8
0
 10
3182.6246590291639222
 20
129.2385642679244881
 30
0.0
 40
0.0314960631063337
 50
135.0000001406519914
 51
224.9999998678619875
  0
ARC
  5
25EA3
  8
0
 10
3184.04181515811797
 20
127.5294175807202066
 30
0.0
 40
0.0787401576451058
 50
135.0000000785339864
 51
224.9999998777608141
  0
LINE
  5
25EA4
  8
0
 10
3183.9861374587048886
 20
127.4737398812885942
 30
0.0
 11
3184.2519984727950941
 21
127.207878867284407
 31
0.0
  0
ARC
  5
25EA5
  8
0
 10
3186.3754381766138977
 20
129.2578863500116881
 30
0.0
 40
0.4519174235085428
 50
351.9399926912996079
 51
6.1313832867479752
  0
LINE
  5
25EA6
  8
0
 10
3184.3915185841451603
 20
127.4271625535843953
 30
0.0
 11
3184.38008316994501
 21
127.4144448650844055
 31
0.0
  0
LINE
  5
25EA7
  8
0
 10
3184.4712821590451313
 20
127.3473989786843958
 30
0.0
 11
3184.4589922466170719
 21
127.3363482095844006
 31
0.0
  0
ARC
  5
25EA8
  8
0
 10
3184.4498935703359166
 20
127.3466231377106936
 30
0.0
 40
0.0137244328865188
 50
233.0015384079289049
 51
311.5256006100586887
  0
ARC
  5
25EA9
  8
0
 10
3184.5535308441608322
 20
127.5077179577979933
 30
0.0
 40
0.2052414606835949
 50
211.3506429333544077
 51
236.962032635924686
  0
ARC
  5
25EAA
  8
0
 10
3184.3900113045478975
 20
127.4062230026395071
 30
0.0
 40
0.0128905732520818
 50
140.3705634369063091
 51
204.213299461331701
  0
ARC
  5
25EAB
  8
0
 10
3183.1638838225621839
 20
128.6406777913637995
 30
0.0
 40
0.0100315205494857
 50
127.599844774741598
 51
189.657939274583299
  0
ARC
  5
25EAC
  8
0
 10
3183.1789369819439344
 20
128.6444746200996008
 30
0.0
 40
0.0255373517678974
 50
192.390817188765908
 51
211.9111915743048939
  0
ARC
  5
25EAD
  8
0
 10
3183.6179385447439927
 20
128.9220681391886956
 30
0.0
 40
0.5449407909004274
 50
212.287845199121989
 51
221.090703216207487
  0
ARC
  5
25EAE
  8
0
 10
3183.2278037876399139
 20
128.5821638853716991
 30
0.0
 40
0.0275058922903879
 50
221.5939096415509084
 51
237.8677812277024941
  0
LINE
  5
25EAF
  8
0
 10
3183.2131740952449945
 20
128.5588712639844005
 30
0.0
 11
3183.2177092471902142
 21
128.5577437659925977
 31
0.0
  0
ARC
  5
25EB0
  8
0
 10
3183.3883197665441003
 20
128.3314771857058076
 30
0.0
 40
0.0106372279363603
 50
130.6807364478623867
 51
220.4267744578721135
  0
ARC
  5
25EB1
  8
0
 10
3183.9261819259581898
 20
128.6994905806060956
 30
0.0
 40
0.6622917933471336
 50
214.4774522605233074
 51
222.0646683520695888
  0
ARC
  5
25EB2
  8
0
 10
3183.4445612530648759
 20
128.2631486402636085
 30
0.0
 40
0.0124705805142245
 50
216.2444289098579873
 51
272.3606643077563945
  0
LINE
  5
25EB3
  8
0
 10
3183.4569007909549327
 20
128.2573305505034966
 30
0.0
 11
3183.4669135273447864
 21
128.2474527084843885
 31
0.0
  0
LINE
  5
25EB4
  8
0
 10
3183.4669135273447864
 20
128.2474527084843885
 30
0.0
 11
3183.4667491443451581
 21
128.2494306609843875
 31
0.0
  0
LINE
  5
25EB5
  8
0
 10
3183.4667491443451581
 20
128.2494306609843875
 30
0.0
 11
3183.4587605375450039
 21
128.2619747776844008
 31
0.0
  0
LINE
  5
25EB6
  8
0
 10
3183.3880716464450416
 20
128.34556895118439
 30
0.0
 11
3183.3817713716448452
 21
128.3555947288843981
 31
0.0
  0
LINE
  5
25EB7
  8
0
 10
3183.3817713716448452
 20
128.3555947288843981
 30
0.0
 11
3183.3811343566449068
 21
128.3578332602843943
 31
0.0
  0
LINE
  5
25EB8
  8
0
 10
3183.3811343566449068
 20
128.3578332602843943
 30
0.0
 11
3183.3854222869440491
 21
128.3545259835844092
 31
0.0
  0
ARC
  5
25EB9
  8
0
 10
3182.630425317559002
 20
127.6809283929952983
 30
0.0
 40
1.0118073620155481
 50
35.0482333383649092
 51
41.7388903443294694
  0
ARC
  5
25EBA
  8
0
 10
3182.8345634829120172
 20
128.3307777507056073
 30
0.0
 40
0.46742241462709
 50
29.0807070358934503
 51
36.2489951905733534
  0
LINE
  5
25EBB
  8
0
 10
3183.2430607279438846
 20
128.5579642698843941
 30
0.0
 11
3183.2433439448450372
 21
128.5557786535844116
 31
0.0
  0
LINE
  5
25EBC
  8
0
 10
3183.2433439448450372
 20
128.5557786535844116
 30
0.0
 11
3183.2429589724451944
 21
128.5557357994844097
 31
0.0
  0
LINE
  5
25EBD
  8
0
 10
3183.2429589724451944
 20
128.5557357994844097
 30
0.0
 11
3183.2389058271451177
 21
128.5589728278843893
 31
0.0
  0
LINE
  5
25EBE
  8
0
 10
3183.2389058271451177
 20
128.5589728278843893
 30
0.0
 11
3183.232944835942817
 21
128.565571110086097
 31
0.0
  0
LINE
  5
25EBF
  8
0
 10
3184.4638525351238059
 20
127.3407184543988961
 30
0.0
 11
3184.4735731286450573
 21
127.3356778096843982
 31
0.0
  0
LINE
  5
25EC0
  8
0
 10
3184.4735731286450573
 20
127.3356778096843982
 30
0.0
 11
3184.4788726772449081
 21
127.3357581801843992
 31
0.0
  0
LINE
  5
25EC1
  8
0
 10
3184.4788726772449081
 20
127.3357581801843992
 30
0.0
 11
3184.479063418745227
 21
127.3396177189843996
 31
0.0
  0
LINE
  5
25EC2
  8
0
 10
3184.3837562214448553
 20
127.4349249162844018
 30
0.0
 11
3184.3798777856450215
 21
127.4347530717843995
 31
0.0
  0
LINE
  5
25EC3
  8
0
 10
3184.3798777856450215
 20
127.4347530717843995
 30
0.0
 11
3184.3797814644558457
 21
127.4294959418265023
 31
0.0
  0
LINE
  5
25EC4
  8
0
 10
3184.3797814644558457
 20
127.4294959418265023
 30
0.0
 11
3184.3848398857448956
 21
127.4197349602844014
 31
0.0
  0
LINE
  5
25EC5
  8
0
 10
3184.4209695993449714
 20
127.2976491756843984
 30
0.0
 11
3184.4302427390448429
 21
127.2923830184844007
 31
0.0
  0
LINE
  5
25EC6
  8
0
 10
3184.4302427390448429
 20
127.2923830184844007
 30
0.0
 11
3184.4349826752450099
 21
127.2918681554843943
 31
0.0
  0
LINE
  5
25EC7
  8
0
 10
3184.4349826752450099
 20
127.2918681554843943
 30
0.0
 11
3184.4346871235447907
 21
127.2960506469843978
 31
0.0
  0
LINE
  5
25EC8
  8
0
 10
3184.3495003339448886
 20
127.3850733874843968
 30
0.0
 11
3184.3401979229452081
 21
127.3905563301843955
 31
0.0
  0
LINE
  5
25EC9
  8
0
 10
3184.3401979229452081
 20
127.3905563301843955
 30
0.0
 11
3184.335987760945045
 21
127.3908630697844018
 31
0.0
  0
LINE
  5
25ECA
  8
0
 10
3184.335987760945045
 20
127.3908630697844018
 30
0.0
 11
3184.3365046389440067
 21
127.3861185429844056
 31
0.0
  0
LINE
  5
25ECB
  8
0
 10
3184.3365046389440067
 20
127.3861185429844056
 30
0.0
 11
3184.3420594758022162
 21
127.3768025984909968
 31
0.0
  0
ARC
  5
25ECC
  8
0
 10
3184.0955453874880732
 20
127.0514650488278932
 30
0.0
 40
0.4192703643844517
 50
37.2721222295188568
 51
52.7202740301285573
  0
LINE
  5
25ECD
  8
0
 10
3184.4291874256441588
 20
127.3053757197843936
 30
0.0
 11
3184.4346871235447907
 21
127.2960506469843978
 31
0.0
  0
LINE
  5
25ECE
  8
0
 10
3184.3495003339448886
 20
127.3850733874843968
 30
0.0
 11
3184.3386496475450258
 21
127.3730124482843991
 31
0.0
  0
ARC
  5
25ECF
  8
0
 10
3184.3512748486728015
 20
127.3648957620124946
 30
0.0
 40
0.0150092071593616
 50
147.2632145913202066
 51
214.5798355028709921
  0
ARC
  5
25ED0
  8
0
 10
3184.5583357419291133
 20
127.5144026041597982
 30
0.0
 40
0.2704006386323354
 50
215.7614613497993901
 51
234.2189591859863071
  0
ARC
  5
25ED1
  8
0
 10
3184.40897453703883
 20
127.3044557395017051
 30
0.0
 40
0.0128477448611097
 50
227.1400641061354122
 51
309.4153589405811999
  0
LINE
  5
25ED2
  8
0
 10
3184.4171320537448082
 20
127.2945300420844035
 30
0.0
 11
3184.429185813292861
 21
127.3053778383985986
 31
0.0
  0
LINE
  5
25ED3
  8
0
 10
3184.385916719306806
 20
127.2625963733269003
 30
0.0
 11
3184.3951898590071323
 21
127.2573302161269027
 31
0.0
  0
LINE
  5
25ED4
  8
0
 10
3184.3951898590071323
 20
127.2573302161269027
 30
0.0
 11
3184.3999297952068446
 21
127.2568153531268962
 31
0.0
  0
LINE
  5
25ED5
  8
0
 10
3184.3999297952068446
 20
127.2568153531268962
 30
0.0
 11
3184.3996342435070801
 21
127.2609978446268997
 31
0.0
  0
LINE
  5
25ED6
  8
0
 10
3184.314447453907178
 20
127.3500205851268987
 30
0.0
 11
3184.3051450429079523
 21
127.3555035278268974
 31
0.0
  0
LINE
  5
25ED7
  8
0
 10
3184.3051450429079523
 20
127.3555035278268974
 30
0.0
 11
3184.3009348809068797
 21
127.3558102674269037
 31
0.0
  0
LINE
  5
25ED8
  8
0
 10
3184.3009348809068797
 20
127.3558102674269037
 30
0.0
 11
3184.3014517589072057
 21
127.3510657406268933
 31
0.0
  0
LINE
  5
25ED9
  8
0
 10
3184.3014517589072057
 20
127.3510657406268933
 30
0.0
 11
3184.3070065957649604
 21
127.3417497961334988
 31
0.0
  0
ARC
  5
25EDA
  8
0
 10
3184.0604925074499079
 20
127.0164122464703951
 30
0.0
 40
0.4192703643844517
 50
37.2721222295188568
 51
52.7202740301285573
  0
LINE
  5
25EDB
  8
0
 10
3184.3941345456078125
 20
127.2703229174268955
 30
0.0
 11
3184.3996342435070801
 21
127.2609978446268997
 31
0.0
  0
LINE
  5
25EDC
  8
0
 10
3184.314447453907178
 20
127.3500205851268987
 30
0.0
 11
3184.3035967675082247
 21
127.337959645926901
 31
0.0
  0
ARC
  5
25EDD
  8
0
 10
3184.3162219686350909
 20
127.329842959655096
 30
0.0
 40
0.0150092071593616
 50
147.2632145913202066
 51
214.5798355028709921
  0
ARC
  5
25EDE
  8
0
 10
3184.5232828618918575
 20
127.4793498018023001
 30
0.0
 40
0.2704006386323354
 50
215.7614613497993901
 51
234.2189591859863071
  0
ARC
  5
25EDF
  8
0
 10
3184.373921657002029
 20
127.269402937144207
 30
0.0
 40
0.0128477448611097
 50
227.1400641061354122
 51
309.4153589405811999
  0
LINE
  5
25EE0
  8
0
 10
3184.3820791737070977
 20
127.2594772397269054
 30
0.0
 11
3184.3941329332560599
 21
127.2703250360411005
 31
0.0
  0
LINE
  5
25EE1
  8
0
 10
3184.3710927351121427
 20
127.2478429566435949
 30
0.0
 11
3184.364612084944838
 21
127.242008695484401
 31
0.0
  0
ARC
  5
25EE2
  8
0
 10
3184.3574748062410436
 20
127.2515247788253987
 30
0.0
 40
0.0118952338963241
 50
227.3780256530029078
 51
306.8707307343497064
  0
ARC
  5
25EE3
  8
0
 10
3184.6928513087291321
 20
127.6474537091237949
 30
0.0
 40
0.5307660477094083
 50
219.9184011890239958
 51
229.680548964017504
  0
ARC
  5
25EE4
  8
0
 10
3184.2945450627180435
 20
127.3134554066684956
 30
0.0
 40
0.0109709740935516
 50
140.1017323162946866
 51
216.9322889636619038
  0
LINE
  5
25EE5
  8
0
 10
3184.2861283009451654
 20
127.3204924794844004
 30
0.0
 11
3184.2908256912451179
 21
127.3257103026843993
 31
0.0
  0
LINE
  5
25EE6
  8
0
 10
3184.2886505590449815
 20
127.3233202117844058
 30
0.0
 11
3184.2823919216730246
 21
127.3310989880866941
 31
0.0
  0
LINE
  5
25EE7
  8
0
 10
3184.2823919216730246
 20
127.3310989880866941
 30
0.0
 11
3184.2803056885450133
 21
127.3351810256844061
 31
0.0
  0
LINE
  5
25EE8
  8
0
 10
3184.2803056885450133
 20
127.3351810256844061
 30
0.0
 11
3184.2833591665271342
 21
127.333867141259006
 31
0.0
  0
ARC
  5
25EE9
  8
0
 10
3184.0121726864040284
 20
126.9937543679577061
 30
0.0
 40
0.4349568422141188
 50
44.9552446822890985
 51
51.4505244420797894
  0
ARC
  5
25EEA
  8
0
 10
3183.937670669416093
 20
126.8731088588903049
 30
0.0
 40
0.5729575298838505
 50
40.8464951500338174
 51
44.6853712567525818
  0
LINE
  5
25EEB
  8
0
 10
3184.3710927351121427
 20
127.2478429566436944
 30
0.0
 11
3184.3779535810449488
 21
127.2392427330843958
 31
0.0
  0
LINE
  5
25EEC
  8
0
 10
3184.3779535810449488
 20
127.2392427330843958
 30
0.0
 11
3184.3793006311448153
 21
127.2361860830844051
 31
0.0
  0
LINE
  5
25EED
  8
0
 10
3184.3793006311448153
 20
127.2361860830844051
 30
0.0
 11
3184.3756779930440644
 21
127.2379228614844067
 31
0.0
  0
LINE
  5
25EEE
  8
0
 10
3184.3756779930440644
 20
127.2379228614844067
 30
0.0
 11
3184.3674945507009397
 21
127.2446036601206032
 31
0.0
  0
LINE
  5
25EEF
  8
0
 10
3183.0912661054439923
 20
128.727415032284398
 30
0.0
 11
3183.1339659255449988
 21
128.6680654926844056
 31
0.0
  0
LINE
  5
25EF0
  8
0
 10
3183.1339659255449988
 20
128.6680654926844056
 30
0.0
 11
3183.1539944798450961
 21
128.638994845984314
 31
0.0
  0
LINE
  5
25EF1
  8
0
 10
3183.2119452806450681
 20
128.5596898588844113
 30
0.0
 11
3183.3114928639452046
 21
128.4270365203844051
 31
0.0
  0
LINE
  5
25EF2
  8
0
 10
3183.3114928639452046
 20
128.4270365203844051
 30
0.0
 11
3183.3789562681558891
 21
128.33740981535081
 31
0.0
  0
LINE
  5
25EF3
  8
0
 10
3183.447048889845064
 20
128.2501153358844022
 30
0.0
 11
3183.5660170751448277
 21
128.1030967069843882
 31
0.0
  0
LINE
  5
25EF4
  8
0
 10
3183.5660170751448277
 20
128.1030967069843882
 30
0.0
 11
3183.6385227835589831
 21
128.0166895967844027
 31
0.0
  0
LINE
  5
25EF5
  8
0
 10
3183.6385227835589831
 20
128.0166895967844027
 30
0.0
 11
3183.8324158154450743
 21
127.7888141249843983
 31
0.0
  0
LINE
  5
25EF6
  8
0
 10
3183.8324158154450743
 20
127.7888141249843983
 30
0.0
 11
3183.9066033645440257
 21
127.7052685648844061
 31
0.0
  0
LINE
  5
25EF7
  8
0
 10
3183.9066033645440257
 20
127.7052685648844061
 30
0.0
 11
3183.959107805381791
 21
127.6462670658141008
 31
0.0
  0
LINE
  5
25EF8
  8
0
 10
3184.0341151133629864
 20
127.5649564749658964
 30
0.0
 11
3184.2837363407529665
 21
127.3153352475757032
 31
0.0
  0
LINE
  5
25EF9
  8
0
 10
3183.4524231994450929
 20
128.3662579382844058
 30
0.0
 11
3183.4443636797450381
 21
128.3591271815843982
 31
0.0
  0
ARC
  5
25EFA
  8
0
 10
3183.4522953203108955
 20
128.3506286469614963
 30
0.0
 40
0.0116248016248066
 50
133.023894659182389
 51
207.5102465339988953
  0
ARC
  5
25EFB
  8
0
 10
3183.6891711034968466
 20
128.4811474967117135
 30
0.0
 40
0.2820756230569431
 50
208.7994116974273027
 51
226.9466974328227877
  0
ARC
  5
25EFC
  8
0
 10
3183.5078983580588101
 20
128.2860675482274075
 30
0.0
 40
0.0157923232030228
 50
224.3428302472188989
 51
269.361868436309976
  0
LINE
  5
25EFD
  8
0
 10
3183.507722474745151
 20
128.2702762044843894
 30
0.0
 11
3183.5134299601450039
 21
128.2722426294843956
 31
0.0
  0
LINE
  5
25EFE
  8
0
 10
3183.5134299601450039
 20
128.2722426294843956
 30
0.0
 11
3183.5286841632450887
 21
128.2830377721344064
 31
0.0
  0
LINE
  5
25EFF
  8
0
 10
3183.5208058798930324
 20
128.2774624436781892
 30
0.0
 11
3183.5257940201449856
 21
128.2729022667843992
 31
0.0
  0
LINE
  5
25F00
  8
0
 10
3183.5257940201449856
 20
128.2729022667843992
 30
0.0
 11
3183.5317869215450628
 21
128.2692430408843904
 31
0.0
  0
LINE
  5
25F01
  8
0
 10
3183.5317869215450628
 20
128.2692430408843904
 30
0.0
 11
3183.5336110510511389
 21
128.2694125208944911
 31
0.0
  0
LINE
  5
25F02
  8
0
 10
3183.5336110510511389
 20
128.2694125208944911
 30
0.0
 11
3183.5338124872450862
 21
128.2707923899843934
 31
0.0
  0
LINE
  5
25F03
  8
0
 10
3183.5338124872450862
 20
128.2707923899843934
 30
0.0
 11
3183.5286841632450887
 21
128.2830377721344064
 31
0.0
  0
LINE
  5
25F04
  8
0
 10
3183.5286841632450887
 20
128.2830377721344064
 30
0.0
 11
3183.5174864790451466
 21
128.301194658684409
 31
0.0
  0
LINE
  5
25F05
  8
0
 10
3183.6823602534450401
 20
128.0316742271843964
 30
0.0
 11
3183.6930028580450198
 21
128.0231819626843901
 31
0.0
  0
LINE
  5
25F06
  8
0
 10
3183.6930028580450198
 20
128.0231819626843901
 30
0.0
 11
3183.6943703877441294
 21
128.0231648917844041
 31
0.0
  0
LINE
  5
25F07
  8
0
 10
3183.6943703877441294
 20
128.0231648917844041
 30
0.0
 11
3183.6946275864452218
 21
128.0243418965843887
 31
0.0
  0
LINE
  5
25F08
  8
0
 10
3183.6946275864452218
 20
128.0243418965843887
 30
0.0
 11
3183.6884469301439822
 21
128.0362443789844065
 31
0.0
  0
ARC
  5
25F09
  8
0
 10
3183.2043804639770315
 20
127.7085222031854954
 30
0.0
 40
0.5845700712834341
 50
34.0987452422086932
 51
45.1444619117606507
  0
LINE
  5
25F0A
  8
0
 10
3183.6166904097290171
 20
128.1229165526580118
 30
0.0
 11
3183.6120280017448749
 21
128.1272552802844018
 31
0.0
  0
LINE
  5
25F0B
  8
0
 10
3183.6120280017448749
 20
128.1272552802844018
 30
0.0
 11
3183.6062983625452034
 21
128.1310729009844067
 31
0.0
  0
LINE
  5
25F0C
  8
0
 10
3183.6062983625452034
 20
128.1310729009844067
 30
0.0
 11
3183.6051241942450361
 21
128.1310310590843926
 31
0.0
  0
LINE
  5
25F0D
  8
0
 10
3183.6051241942450361
 20
128.1310310590843926
 30
0.0
 11
3183.6049152602449794
 21
128.1295180489844086
 31
0.0
  0
LINE
  5
25F0E
  8
0
 10
3183.6049152602449794
 20
128.1295180489844086
 30
0.0
 11
3183.6111550913451538
 21
128.1177684154843917
 31
0.0
  0
LINE
  5
25F0F
  8
0
 10
3183.6166904097290171
 20
128.1229165526580118
 30
0.0
 11
3183.6058343193449218
 21
128.1128198174843931
 31
0.0
  0
ARC
  5
25F10
  8
0
 10
3183.6139365643280144
 20
128.1046116454886885
 30
0.0
 40
0.0115334496691026
 50
134.6279012689184924
 51
213.6889087091659007
  0
ARC
  5
25F11
  8
0
 10
3183.9129974754191608
 20
128.2964951591551994
 30
0.0
 40
0.3668579392886925
 50
212.7166077365943124
 51
226.6159098741514981
  0
ARC
  5
25F12
  8
0
 10
3183.6704234427429583
 20
128.0390021545055959
 30
0.0
 40
0.0131128453578524
 50
224.1077134396790882
 51
300.3492894935461095
  0
LINE
  5
25F13
  8
0
 10
3183.6770489725440711
 20
128.0276862776844098
 30
0.0
 11
3183.6884469301871832
 21
128.0362443790162956
 31
0.0
  0
LINE
  5
25F14
  8
0
 10
3183.8599924685331644
 20
127.7989579284749055
 30
0.0
 11
3183.8519842859159326
 21
127.7926263932906039
 31
0.0
  0
ARC
  5
25F15
  8
0
 10
3183.8450210748301288
 20
127.801642386837301
 30
0.0
 40
0.011391858859125
 50
226.2333406546019035
 51
307.679543002438777
  0
ARC
  5
25F16
  8
0
 10
3184.1640187878801953
 20
128.1414652069695137
 30
0.0
 40
0.4774804385274417
 50
216.09070731616481
 51
226.7967287338589983
  0
ARC
  5
25F17
  8
0
 10
3183.7855560021521342
 20
127.8678704973835067
 30
0.0
 40
0.0106472243353484
 50
132.6971199518384879
 51
226.1045050476114966
  0
LINE
  5
25F18
  8
0
 10
3183.7783358773449436
 20
127.8756956608844035
 30
0.0
 11
3183.7862048377210158
 21
127.8833862787495974
 31
0.0
  0
LINE
  5
25F19
  8
0
 10
3183.7823618810948574
 20
127.8796304190844069
 30
0.0
 11
3183.7753069136451813
 21
127.8905254672844052
 31
0.0
  0
LINE
  5
25F1A
  8
0
 10
3183.7753069136451813
 20
127.8905254672844052
 30
0.0
 11
3183.7752315417451427
 21
127.8918582894844036
 31
0.0
  0
LINE
  5
25F1B
  8
0
 10
3183.7752315417451427
 20
127.8918582894844036
 30
0.0
 11
3183.7762083692450688
 21
127.8917617023844002
 31
0.0
  0
LINE
  5
25F1C
  8
0
 10
3183.7762083692450688
 20
127.8917617023844002
 30
0.0
 11
3183.7863997385438779
 21
127.883201285384402
 31
0.0
  0
ARC
  5
25F1D
  8
0
 10
3183.2120346067258652
 20
127.3071853667614022
 30
0.0
 40
0.8134430792352576
 50
37.196957761735689
 51
45.0822188889728395
  0
LINE
  5
25F1E
  8
0
 10
3183.8599924685331644
 20
127.7989579284749055
 30
0.0
 11
3183.8673411573449812
 21
127.7873288459844048
 31
0.0
  0
LINE
  5
25F1F
  8
0
 10
3183.8673411573449812
 20
127.7873288459844048
 30
0.0
 11
3183.8672942144448825
 21
127.786385730284394
 31
0.0
  0
LINE
  5
25F20
  8
0
 10
3183.8672942144448825
 20
127.786385730284394
 30
0.0
 11
3183.8652726415298275
 21
127.7867219654362003
 31
0.0
  0
LINE
  5
25F21
  8
0
 10
3183.8652726415298275
 20
127.7867219654362003
 30
0.0
 11
3183.8556252177158967
 21
127.7955050349119972
 31
0.0
  0
LINE
  5
25F22
  8
0
 10
3183.9630235025201728
 20
127.8552252417429003
 30
0.0
 11
3183.9471048655450431
 21
127.8425953938843946
 31
0.0
  0
ARC
  5
25F23
  8
0
 10
3183.9393686361649998
 20
127.8533429842598963
 30
0.0
 40
0.0132423541675656
 50
230.0883108479141015
 51
305.7467393936672124
  0
LINE
  5
25F24
  8
0
 10
3183.9625911464818273
 20
127.8560899913100002
 30
0.0
 11
3183.9669723857450663
 21
127.8473271328844021
 31
0.0
  0
LINE
  5
25F25
  8
0
 10
3183.9669723857450663
 20
127.8473271328844021
 30
0.0
 11
3183.9676442297450194
 21
127.8415022086844033
 31
0.0
  0
LINE
  5
25F26
  8
0
 10
3183.9676442297450194
 20
127.8415022086844033
 30
0.0
 11
3183.9638794313450489
 21
127.840732450784401
 31
0.0
  0
LINE
  5
25F27
  8
0
 10
3183.9638794313450489
 20
127.840732450784401
 30
0.0
 11
3183.953065190246889
 21
127.8473243159829025
 31
0.0
  0
LINE
  5
25F28
  8
0
 10
3183.8793679165469257
 20
127.9314221225796047
 30
0.0
 11
3183.8753754813587875
 21
127.9391119537682044
 31
0.0
  0
LINE
  5
25F29
  8
0
 10
3183.8753754813587875
 20
127.9391119537682044
 30
0.0
 11
3183.8745471935449132
 21
127.9441339441844008
 31
0.0
  0
LINE
  5
25F2A
  8
0
 10
3183.8833482573440961
 20
127.9353328803843937
 30
0.0
 11
3183.8736163994440176
 21
127.9257711515843994
 31
0.0
  0
ARC
  5
25F2B
  8
0
 10
3183.8872304176061334
 20
127.9161639532761967
 30
0.0
 40
0.0166625253137208
 50
144.7899831356461107
 51
218.8921292404635039
  0
ARC
  5
25F2C
  8
0
 10
3184.0735531254558737
 20
128.0292773752468065
 30
0.0
 40
0.2344951201166402
 50
211.8018768489831984
 51
232.5217770010031018
  0
LINE
  5
25F2D
  8
0
 10
3184.0191389034071108
 20
127.6988042540268964
 30
0.0
 11
3184.0284120431069823
 21
127.6935380968268987
 31
0.0
  0
LINE
  5
25F2E
  8
0
 10
3184.0284120431069823
 20
127.6935380968268987
 30
0.0
 11
3184.0331519793071493
 21
127.6930232338269064
 31
0.0
  0
LINE
  5
25F2F
  8
0
 10
3184.0331519793071493
 20
127.6930232338269064
 30
0.0
 11
3184.0328564276078396
 21
127.6972057253268957
 31
0.0
  0
LINE
  5
25F30
  8
0
 10
3183.947669638007028
 20
127.7862284658268948
 30
0.0
 11
3183.9383672270068928
 21
127.7917114085268935
 31
0.0
  0
LINE
  5
25F31
  8
0
 10
3183.9383672270068928
 20
127.7917114085268935
 30
0.0
 11
3183.9341570650071844
 21
127.7920181481268997
 31
0.0
  0
LINE
  5
25F32
  8
0
 10
3183.9341570650071844
 20
127.7920181481268997
 30
0.0
 11
3183.9346739430070556
 21
127.7872736213269036
 31
0.0
  0
LINE
  5
25F33
  8
0
 10
3183.9346739430070556
 20
127.7872736213269036
 30
0.0
 11
3183.9402287798648103
 21
127.7779576768334948
 31
0.0
  0
ARC
  5
25F34
  8
0
 10
3183.6937146915502126
 20
127.4526201271704053
 30
0.0
 40
0.4192703643844517
 50
37.2721222295188568
 51
52.7202740301285573
  0
LINE
  5
25F35
  8
0
 10
3184.0273567297072077
 20
127.7065307981269058
 30
0.0
 11
3184.0328564276078396
 21
127.6972057253268957
 31
0.0
  0
LINE
  5
25F36
  8
0
 10
3183.947669638007028
 20
127.7862284658268948
 30
0.0
 11
3183.9368189516071652
 21
127.774167526626897
 31
0.0
  0
ARC
  5
25F37
  8
0
 10
3183.9494441527349409
 20
127.7660508403551063
 30
0.0
 40
0.0150092071593616
 50
147.2632145913202066
 51
214.5798355028709921
  0
ARC
  5
25F38
  8
0
 10
3184.1565050459921622
 20
127.9155576825022962
 30
0.0
 40
0.2704006386323354
 50
215.7614613497993901
 51
234.2189591859863071
  0
ARC
  5
25F39
  8
0
 10
3184.0071438411018789
 20
127.7056108178442031
 30
0.0
 40
0.0128477448611097
 50
227.1400641061354122
 51
309.4153589405811999
  0
LINE
  5
25F3A
  8
0
 10
3184.0153013578069476
 20
127.6956851204269014
 30
0.0
 11
3184.0273551173559099
 21
127.7065329167410965
 31
0.0
  0
LINE
  5
25F3B
  8
0
 10
3184.0424647175218524
 20
127.5715416633871939
 30
0.0
 11
3184.0344565349050754
 21
127.565210128202807
 31
0.0
  0
ARC
  5
25F3C
  8
0
 10
3184.0274933238188169
 20
127.5742261217496036
 30
0.0
 40
0.011391858859125
 50
226.2333406546019035
 51
307.679543002438777
  0
ARC
  5
25F3D
  8
0
 10
3184.3464910368688834
 20
127.9140489418818021
 30
0.0
 40
0.4774804385274417
 50
216.09070731616481
 51
226.7967287338589983
  0
ARC
  5
25F3E
  8
0
 10
3183.9680282511408222
 20
127.6404542322956956
 30
0.0
 40
0.0106472243353484
 50
132.6971199518384879
 51
226.1045050476114966
  0
LINE
  5
25F3F
  8
0
 10
3183.9608081263331769
 20
127.6482793957966067
 30
0.0
 11
3183.9686770867087944
 21
127.6559700136618005
 31
0.0
  0
LINE
  5
25F40
  8
0
 10
3183.9648341300840002
 20
127.6522141539966952
 30
0.0
 11
3183.9577791626338694
 21
127.6631092021966936
 31
0.0
  0
LINE
  5
25F41
  8
0
 10
3183.9577791626338694
 20
127.6631092021966936
 30
0.0
 11
3183.9577037907338308
 21
127.6644420243966067
 31
0.0
  0
LINE
  5
25F42
  8
0
 10
3183.9577037907338308
 20
127.6644420243966067
 30
0.0
 11
3183.9586806182328473
 21
127.6643454372967028
 31
0.0
  0
LINE
  5
25F43
  8
0
 10
3183.9586806182328473
 20
127.6643454372967028
 30
0.0
 11
3183.9688719875339302
 21
127.6557850202966051
 31
0.0
  0
ARC
  5
25F44
  8
0
 10
3183.394506855715008
 20
127.0797691016737048
 30
0.0
 40
0.8134430792352576
 50
37.196957761735689
 51
45.0822188889728395
  0
LINE
  5
25F45
  8
0
 10
3184.0424647175218524
 20
127.5715416633871939
 30
0.0
 11
3184.0498134063332145
 21
127.5599125808965937
 31
0.0
  0
LINE
  5
25F46
  8
0
 10
3184.0498134063332145
 20
127.5599125808965937
 30
0.0
 11
3184.0497664634340254
 21
127.5589694651965971
 31
0.0
  0
LINE
  5
25F47
  8
0
 10
3184.0497664634340254
 20
127.5589694651965971
 30
0.0
 11
3184.0477448905189704
 21
127.5593057003484034
 31
0.0
  0
LINE
  5
25F48
  8
0
 10
3184.0477448905189704
 20
127.5593057003484034
 30
0.0
 11
3184.0380974667041301
 21
127.5680887698242998
 31
0.0
  0
LINE
  5
25F49
  8
0
 10
3183.9861374586189413
 20
127.5850952800663975
 30
0.0
 11
3183.9935266483848864
 21
127.5924844699025016
 31
0.0
  0
LINE
  5
25F4A
  8
0
 10
3184.8140648709008929
 20
126.7827507695938039
 30
0.0
 11
3184.746242477775013
 21
126.8434540841155069
 31
0.0
  0
LINE
  5
25F4B
  8
0
 10
3185.1272291843251878
 20
126.5142679098992033
 30
0.0
 11
3185.0573267079730613
 21
126.5725638206385071
 31
0.0
  0
LINE
  5
25F4C
  8
0
 10
3185.449585374507933
 20
126.2568938245074008
 30
0.0
 11
3185.3776882218548963
 21
126.3127111053535998
 31
0.0
  0
LINE
  5
25F4D
  8
0
 10
3185.780739586216896
 20
126.0109429732227966
 30
0.0
 11
3185.7069356012739263
 21
126.0642134266764032
 31
0.0
  0
LINE
  5
25F4E
  8
0
 10
3185.6927426752049541
 20
126.1134755638761931
 30
0.0
 11
3185.6983809504408782
 21
126.1203117386793053
 31
0.0
  0
LINE
  5
25F4F
  8
0
 10
3185.794383221130829
 20
126.0127825474194054
 30
0.0
 11
3185.7995231285108275
 21
126.0191704827504964
 31
0.0
  0
LINE
  5
25F50
  8
0
 10
3185.3836761519919492
 20
126.3371182588507935
 30
0.0
 11
3185.392294173881055
 21
126.346904314437495
 31
0.0
  0
LINE
  5
25F51
  8
0
 10
3185.4632849657009501
 20
126.2582554444590954
 30
0.0
 11
3185.471163788226022
 21
126.2673754412760019
 31
0.0
  0
LINE
  5
25F52
  8
0
 10
3184.8278261121708965
 20
126.7831520762265995
 30
0.0
 11
3184.8329390181252165
 21
126.7882954833345934
 31
0.0
  0
LINE
  5
25F53
  8
0
 10
3185.1409679937041801
 20
126.515149912029699
 30
0.0
 11
3185.1472228145421468
 21
126.5218981757434022
 31
0.0
  0
LINE
  5
25F54
  8
0
 10
3185.2966497227448599
 20
126.4060082844279975
 30
0.0
 11
3185.3038117224091366
 21
126.4161004916841051
 31
0.0
  0
LINE
  5
25F55
  8
0
 10
3185.375611486714206
 20
126.3263206600865942
 30
0.0
 11
3185.3823015777220462
 21
126.3359378623405007
 31
0.0
  0
LINE
  5
25F56
  8
0
 10
3185.6035310053721332
 20
126.1795108870915954
 30
0.0
 11
3185.6126181893941975
 21
126.1932382581171055
 31
0.0
  0
LINE
  5
25F57
  8
0
 10
3185.7043844954018823
 20
126.0777420876468966
 30
0.0
 11
3185.7121935698078232
 21
126.0898496016458949
 31
0.0
  0
LINE
  5
25F58
  8
0
 10
3185.0557268809388916
 20
126.5862376409455976
 30
0.0
 11
3185.0608153800621949
 21
126.5930329554423963
 31
0.0
  0
LINE
  5
25F59
  8
0
 10
3184.7451215134237827
 20
126.8571754634055964
 30
0.0
 11
3184.7493931198300743
 21
126.8624826515784036
 31
0.0
  0
LINE
  5
25F5A
  8
0
 10
3185.294815301872859
 20
126.400956686065399
 30
0.0
 11
3185.2966497227448599
 21
126.4060082844279975
 31
0.0
  0
LINE
  5
25F5B
  8
0
 10
3185.6018383114442258
 20
126.1737257571752053
 30
0.0
 11
3185.6035310053721332
 21
126.1795108870915954
 31
0.0
  0
ARC
  5
25F5C
  8
0
 10
3185.7865921503530444
 20
126.0190514560026998
 30
0.0
 40
0.01
 50
234.1788935331219079
 51
321.1788935307163229
  0
ARC
  5
25F5D
  8
0
 10
3185.7127881654109842
 20
126.0723219094563063
 30
0.0
 40
0.01
 50
147.1788935322219913
 51
234.1788935331219079
  0
ARC
  5
25F5E
  8
0
 10
3184.7529116539071765
 20
126.8509053987180977
 30
0.0
 40
0.01
 50
141.170391236514007
 51
228.1703912366178884
  0
ARC
  5
25F5F
  8
0
 10
3184.8207340471331008
 20
126.7902020841963946
 30
0.0
 40
0.01
 50
228.1703912366178884
 51
315.1703912369133036
  0
ARC
  5
25F60
  8
0
 10
3185.3838205934471262
 20
126.3206100938089946
 30
0.0
 40
0.01
 50
145.1760594334269001
 51
232.1760594326266016
  0
ARC
  5
25F61
  8
0
 10
3185.4557177461001629
 20
126.2647928129627957
 30
0.0
 40
0.01
 50
232.1760594326266016
 51
319.1760594328260936
  0
ARC
  5
25F62
  8
0
 10
3185.1336338709152187
 20
126.5219477530961001
 30
0.0
 40
0.01
 50
230.1732253348145036
 51
317.1732253351250961
  0
ARC
  5
25F63
  8
0
 10
3185.0637313945640017
 20
126.580243663735402
 30
0.0
 40
0.01
 50
143.1732253348127131
 51
230.1732253348145036
  0
ARC
  5
25F64
  8
0
 10
3185.684805732102177
 20
126.119767373811996
 30
0.0
 40
0.0100315205494857
 50
260.3423219171251048
 51
322.4004164169838873
  0
ARC
  5
25F65
  8
0
 10
3185.6886024922150682
 20
126.1348205505018996
 30
0.0
 40
0.0255373517678974
 50
238.0890696174078869
 51
257.6094440029509087
  0
ARC
  5
25F66
  8
0
 10
3185.9661940100450011
 20
126.5738233787511007
 30
0.0
 40
0.5449407909004274
 50
228.9095579755247059
 51
237.7124159926063953
  0
ARC
  5
25F67
  8
0
 10
3185.626291534721986
 20
126.1836870721450055
 30
0.0
 40
0.0275058922903879
 50
212.1324799640034939
 51
228.4063515501744916
  0
LINE
  5
25F68
  8
0
 10
3185.6029989800258591
 20
126.1690572735661959
 30
0.0
 11
3185.6018714613601333
 21
126.1735924203707953
 31
0.0
  0
ARC
  5
25F69
  8
0
 10
3185.3756041033211659
 20
126.3442019082522023
 30
0.0
 40
0.0106372279363603
 50
229.5734867338497907
 51
319.3195247438570163
  0
ARC
  5
25F6A
  8
0
 10
3185.7436150462899604
 20
126.8820657453070027
 30
0.0
 40
0.6622917933471335
 50
227.935592839655186
 51
235.522808931189104
  0
ARC
  5
25F6B
  8
0
 10
3185.3072753014939735
 20
126.400443083286504
 30
0.0
 40
0.0124705805142245
 50
177.6395968839738941
 51
233.7558322818638032
  0
LINE
  5
25F6C
  8
0
 10
3185.3014571554817849
 20
126.4127825946531942
 30
0.0
 11
3185.2915792678190883
 21
126.4227952860136952
 31
0.0
  0
LINE
  5
25F6D
  8
0
 10
3185.2915792678190883
 20
126.4227952860136952
 30
0.0
 11
3185.293557221068113
 21
126.422630912030499
 31
0.0
  0
LINE
  5
25F6E
  8
0
 10
3185.293557221068113
 20
126.422630912030499
 30
0.0
 11
3185.3061013741858005
 21
126.4146423624148952
 31
0.0
  0
LINE
  5
25F6F
  8
0
 10
3185.3896958699310744
 20
126.3439538523926018
 30
0.0
 11
3185.3997216763509641
 21
126.3376536232968022
 31
0.0
  0
LINE
  5
25F70
  8
0
 10
3185.3997216763509641
 20
126.3376536232968022
 30
0.0
 11
3185.4019602106559432
 21
126.3370166185014938
 31
0.0
  0
LINE
  5
25F71
  8
0
 10
3185.4019602106559432
 20
126.3370166185014938
 30
0.0
 11
3185.3986529144081032
 21
126.3413045337246956
 31
0.0
  0
ARC
  5
25F72
  8
0
 10
3184.7250587655971685
 20
125.586304493647603
 30
0.0
 40
1.0118073620155481
 50
48.2613708473870417
 51
54.9520278533565474
  0
ARC
  5
25F73
  8
0
 10
3185.3749071927049954
 20
125.7904456214377973
 30
0.0
 40
0.4674224146270899
 50
53.7512660011527714
 51
60.9195541558289406
  0
LINE
  5
25F74
  8
0
 10
3185.6020918496838021
 20
126.1989439021312052
 30
0.0
 11
3185.5999062320929625
 21
126.1992271090678059
 31
0.0
  0
LINE
  5
25F75
  8
0
 10
3185.5999062320929625
 20
126.1992271090678059
 30
0.0
 11
3185.5998633797471484
 21
126.1988421364723933
 31
0.0
  0
LINE
  5
25F76
  8
0
 10
3185.5998633797471484
 20
126.1988421364723933
 30
0.0
 11
3185.6031004266242235
 21
126.1947890059288966
 31
0.0
  0
LINE
  5
25F77
  8
0
 10
3185.6031004266242235
 20
126.1947890059288966
 30
0.0
 11
3185.6096987360001549
 21
126.1888280448067974
 31
0.0
  0
LINE
  5
25F78
  8
0
 10
3185.7715433040621065
 20
126.0471500521005055
 30
0.0
 11
3185.7121935698078232
 21
126.0898496016458949
 31
0.0
  0
LINE
  5
25F79
  8
0
 10
3185.7121935698078232
 20
126.0898496016458949
 30
0.0
 11
3185.6831228318051217
 21
126.109878023422695
 31
0.0
  0
LINE
  5
25F7A
  8
0
 10
3185.6038175805279025
 20
126.1678284626978979
 30
0.0
 11
3185.471163788226022
 21
126.2673754412760019
 31
0.0
  0
LINE
  5
25F7B
  8
0
 10
3185.471163788226022
 20
126.2673754412760019
 30
0.0
 11
3185.3815367756510568
 21
126.3348384369089956
 31
0.0
  0
LINE
  5
25F7C
  8
0
 10
3185.2942419857749883
 20
126.4029306606519043
 30
0.0
 11
3185.1472228145421468
 21
126.5218981757434022
 31
0.0
  0
LINE
  5
25F7D
  8
0
 10
3185.1472228145421468
 20
126.5218981757434022
 30
0.0
 11
3185.0608153738139663
 21
126.5944034902562976
 31
0.0
  0
LINE
  5
25F7E
  8
0
 10
3185.0608153738139663
 20
126.5944034902562976
 30
0.0
 11
3184.8329390181252165
 21
126.7882954833345934
 31
0.0
  0
LINE
  5
25F7F
  8
0
 10
3184.8329390181252165
 20
126.7882954833345934
 30
0.0
 11
3184.7493931198300743
 21
126.8624826515784036
 31
0.0
  0
LINE
  5
25F80
  8
0
 10
3184.7493931198300743
 20
126.8624826515784036
 30
0.0
 11
3184.6903913814107909
 21
126.914986823447606
 31
0.0
  0
LINE
  5
25F81
  8
0
 10
3184.6090804486311754
 20
126.9899937607609957
 30
0.0
 11
3184.3594580833059808
 21
127.2396138502113985
 31
0.0
  0
LINE
  5
25F82
  8
0
 10
3185.4103845636741426
 20
126.4083054997060032
 30
0.0
 11
3185.4032538437149924
 21
126.4002459474993998
 31
0.0
  0
ARC
  5
25F83
  8
0
 10
3185.3947552729341623
 20
126.408177549324094
 30
0.0
 40
0.0116248016248066
 50
242.490014657725709
 51
316.9763665325323814
  0
ARC
  5
25F84
  8
0
 10
3185.5252730428478571
 20
126.6450539274982958
 30
0.0
 40
0.282075623056943
 50
223.0535637589003102
 51
241.2008494942751042
  0
ARC
  5
25F85
  8
0
 10
3185.3301939207258329
 20
126.4637802927585994
 30
0.0
 40
0.0157923232030228
 50
180.6383927554219895
 51
225.6574309445155961
  0
LINE
  5
25F86
  8
0
 10
3185.3144025777851311
 20
126.4636043374576957
 30
0.0
 11
3185.3163689767661708
 21
126.4693118318218978
 31
0.0
  0
LINE
  5
25F87
  8
0
 10
3185.3163689767661708
 20
126.4693118318218978
 30
0.0
 11
3185.3271640498778652
 21
126.4845660841331068
 31
0.0
  0
LINE
  5
25F88
  8
0
 10
3185.3215887573360305
 20
126.4766877753653063
 30
0.0
 11
3185.3170285577029972
 21
126.4816758948287969
 31
0.0
  0
LINE
  5
25F89
  8
0
 10
3185.3170285577029972
 20
126.4816758948287969
 30
0.0
 11
3185.313369304482876
 21
126.4876687795476045
 31
0.0
  0
LINE
  5
25F8A
  8
0
 10
3185.313369304482876
 20
126.4876687795476045
 30
0.0
 11
3185.3135387761781203
 21
126.4894929098266942
 31
0.0
  0
LINE
  5
25F8B
  8
0
 10
3185.3135387761781203
 20
126.4894929098266942
 30
0.0
 11
3185.3149186443488361
 21
126.4896943523105932
 31
0.0
  0
LINE
  5
25F8C
  8
0
 10
3185.3149186443488361
 20
126.4896943523105932
 30
0.0
 11
3185.3271640498778652
 21
126.4845660841331068
 31
0.0
  0
LINE
  5
25F8D
  8
0
 10
3185.3271640498778652
 20
126.4845660841331068
 30
0.0
 11
3185.3453209874742242
 21
126.4733684827042026
 31
0.0
  0
LINE
  5
25F8E
  8
0
 10
3185.0757998043741281
 20
126.6382410284517022
 30
0.0
 11
3185.0673074913579512
 21
126.6488835943383009
 31
0.0
  0
LINE
  5
25F8F
  8
0
 10
3185.0673074913579512
 20
126.6488835943383009
 30
0.0
 11
3185.0672904142238622
 21
126.6502511239604019
 31
0.0
  0
LINE
  5
25F90
  8
0
 10
3185.0672904142238622
 20
126.6502511239604019
 30
0.0
 11
3185.0684674178510249
 21
126.6505083280260067
 31
0.0
  0
LINE
  5
25F91
  8
0
 10
3185.0684674178510249
 20
126.6505083280260067
 30
0.0
 11
3185.0803699284269896
 21
126.6443277259854057
 31
0.0
  0
ARC
  5
25F92
  8
0
 10
3184.7526499593232074
 20
126.1602597658504976
 30
0.0
 40
0.584570071283434
 50
44.8557992799646712
 51
55.9015159495107099
  0
LINE
  5
25F93
  8
0
 10
3185.1670424292119606
 20
126.5725716006787991
 30
0.0
 11
3185.1713811780928154
 21
126.567909212473495
 31
0.0
  0
LINE
  5
25F94
  8
0
 10
3185.1713811780928154
 20
126.567909212473495
 30
0.0
 11
3185.1751988249129681
 21
126.5621795906768057
 31
0.0
  0
LINE
  5
25F95
  8
0
 10
3185.1751988249129681
 20
126.5621795906768057
 30
0.0
 11
3185.1751569883649609
 21
126.5610054221860992
 31
0.0
  0
LINE
  5
25F96
  8
0
 10
3185.1751569883649609
 20
126.5610054221860992
 30
0.0
 11
3185.1736439792180136
 21
126.5607964812888042
 31
0.0
  0
LINE
  5
25F97
  8
0
 10
3185.1736439792180136
 20
126.5607964812888042
 30
0.0
 11
3185.1618943172729814
 21
126.5670362588262066
 31
0.0
  0
LINE
  5
25F98
  8
0
 10
3185.1670424292119606
 20
126.5725716006787991
 30
0.0
 11
3185.1569457435280128
 21
126.5617154642672944
 31
0.0
  0
ARC
  5
25F99
  8
0
 10
3185.1487375345977853
 20
126.5698176718316006
 30
0.0
 40
0.0115334496691026
 50
236.3113524825407978
 51
315.3723599228114836
  0
ARC
  5
25F9A
  8
0
 10
3185.3406196849459775
 20
126.8688794576508059
 30
0.0
 40
0.3668579392886924
 50
223.384351317561908
 51
237.2836534551252896
  0
ARC
  5
25F9B
  8
0
 10
3185.083127786111163
 20
126.6263042511560997
 30
0.0
 40
0.0131128453578524
 50
149.6509716981647955
 51
225.8925477520253082
  0
LINE
  5
25F9C
  8
0
 10
3185.071811879085999
 20
126.6329297293720941
 30
0.0
 11
3185.080369928458822
 21
126.6443277260279956
 31
0.0
  0
LINE
  5
25F9D
  8
0
 10
3184.8430826959020123
 20
126.8158721826645063
 30
0.0
 11
3184.8367511972251123
 21
126.8078639711845028
 31
0.0
  0
ARC
  5
25F9E
  8
0
 10
3184.8457672225149508
 20
126.8009008011992051
 30
0.0
 40
0.011391858859125
 50
142.3207181892859126
 51
223.7669205371144017
  0
ARC
  5
25F9F
  8
0
 10
3185.1855885884428972
 20
127.1199000633809959
 30
0.0
 40
0.4774804385274417
 50
223.2035324578662028
 51
233.909553875548113
  0
ARC
  5
25FA0
  8
0
 10
3184.9119956041408841
 20
126.7414360304329932
 30
0.0
 40
0.0106472243353484
 50
223.8957561441050927
 51
317.3031412398897828
  0
LINE
  5
25FA1
  8
0
 10
3184.9198208005559536
 20
126.7342159412981033
 30
0.0
 11
3184.9275113825488006
 21
126.7420849367329936
 31
0.0
  0
LINE
  5
25FA2
  8
0
 10
3184.9237555404029081
 20
126.738241962985299
 30
0.0
 11
3184.9346506207639322
 21
126.7311870452022049
 31
0.0
  0
LINE
  5
25FA3
  8
0
 10
3184.9346506207639322
 20
126.7311870452022049
 30
0.0
 11
3184.9359834433071228
 21
126.731111679378003
 31
0.0
  0
LINE
  5
25FA4
  8
0
 10
3184.9359834433071228
 20
126.731111679378003
 30
0.0
 11
3184.9358868517538212
 21
126.7320885064377052
 31
0.0
  0
LINE
  5
25FA5
  8
0
 10
3184.9358868517538212
 20
126.7320885064377052
 30
0.0
 11
3184.9273263882960237
 21
126.7422798367136068
 31
0.0
  0
ARC
  5
25FA6
  8
0
 10
3184.3513130880110111
 20
126.1679120790431057
 30
0.0
 40
0.8134430792352576
 50
44.9180423027463007
 51
52.8033034299866273
  0
LINE
  5
25FA7
  8
0
 10
3184.8430826959020123
 20
126.8158721826645063
 30
0.0
 11
3184.8314535799117948
 21
126.8232208184633976
 31
0.0
  0
LINE
  5
25FA8
  8
0
 10
3184.8314535799117948
 20
126.8232208184633976
 30
0.0
 11
3184.83051046442597
 21
126.8231738712640038
 31
0.0
  0
LINE
  5
25FA9
  8
0
 10
3184.83051046442597
 20
126.8231738712640038
 30
0.0
 11
3184.8308467087940699
 21
126.8211522998818026
 31
0.0
  0
LINE
  5
25FAA
  8
0
 10
3184.8308467087940699
 20
126.8211522998818026
 30
0.0
 11
3184.8396298222478435
 21
126.8115049161067986
 31
0.0
  0
LINE
  5
25FAB
  8
0
 10
3184.8993495394870479
 20
126.9189034731544012
 30
0.0
 11
3184.8867197641961866
 21
126.9029847786036953
 31
0.0
  0
ARC
  5
25FAC
  8
0
 10
3184.8974673898378569
 20
126.8952485982184015
 30
0.0
 40
0.0132423541675656
 50
144.2535217980662878
 51
219.9119503438147092
  0
LINE
  5
25FAD
  8
0
 10
3184.9002142910248949
 20
126.9184711210579053
 30
0.0
 11
3184.8914514126267932
 21
126.9228523203738064
 31
0.0
  0
LINE
  5
25FAE
  8
0
 10
3184.8914514126267932
 20
126.9228523203738064
 30
0.0
 11
3184.8856264853639004
 21
126.9235241378199959
 31
0.0
  0
LINE
  5
25FAF
  8
0
 10
3184.8856264853639004
 20
126.9235241378199959
 30
0.0
 11
3184.8848567446270863
 21
126.9197593359109959
 31
0.0
  0
LINE
  5
25FB0
  8
0
 10
3184.8848567446270863
 20
126.9197593359109959
 30
0.0
 11
3184.8914486591229434
 21
126.9089451248629956
 31
0.0
  0
LINE
  5
25FB1
  8
0
 10
3184.9755468016801387
 20
126.8352482345373033
 30
0.0
 11
3184.9832366510690917
 21
126.8312558344045016
 31
0.0
  0
LINE
  5
25FB2
  8
0
 10
3184.9832366510690917
 20
126.8312558344045016
 30
0.0
 11
3184.9882586452599753
 21
126.8304275694837031
 31
0.0
  0
LINE
  5
25FB3
  8
0
 10
3184.9794575413397979
 20
126.839228593162602
 30
0.0
 11
3184.9698958569038041
 21
126.8294966916740947
 31
0.0
  0
ARC
  5
25FB4
  8
0
 10
3184.9602885965341557
 20
126.8431106660393937
 30
0.0
 40
0.0166625253137208
 50
231.1081319512551033
 51
305.2102780560716724
  0
ARC
  5
25FB5
  8
0
 10
3185.0734011691229171
 20
127.0294338895330952
 30
0.0
 40
0.2344951201166402
 50
217.4784841907184045
 51
238.1983843427273086
  0
LINE
  5
25FB6
  8
0
 10
3184.7429282959619741
 20
126.9750181609713024
 30
0.0
 11
3184.7376620964892027
 21
126.9842912766646066
 31
0.0
  0
LINE
  5
25FB7
  8
0
 10
3184.7376620964892027
 20
126.9842912766646066
 30
0.0
 11
3184.7371472118811653
 21
126.9890312105174957
 31
0.0
  0
LINE
  5
25FB8
  8
0
 10
3184.7371472118811653
 20
126.9890312105174957
 30
0.0
 11
3184.741329704727832
 21
126.9887356778839944
 31
0.0
  0
LINE
  5
25FB9
  8
0
 10
3184.8303528335650299
 20
126.9035492941088989
 30
0.0
 11
3184.8358358186710575
 21
126.8942469081037956
 31
0.0
  0
LINE
  5
25FBA
  8
0
 10
3184.8358358186710575
 20
126.8942469081037956
 30
0.0
 11
3184.8361425774642157
 21
126.8900367475021937
 31
0.0
  0
LINE
  5
25FBB
  8
0
 10
3184.8361425774642157
 20
126.8900367475021937
 30
0.0
 11
3184.8313980483080741
 21
126.8905536038734994
 31
0.0
  0
LINE
  5
25FBC
  8
0
 10
3184.8313980483080741
 20
126.8905536038734994
 30
0.0
 11
3184.8220820784918033
 21
126.8961083982630953
 31
0.0
  0
ARC
  5
25FBD
  8
0
 10
3184.4967456526051137
 20
126.6495928268491014
 30
0.0
 40
0.4192703643844517
 50
37.2799871615807206
 51
52.728138962200731
  0
LINE
  5
25FBE
  8
0
 10
3184.7506548025990014
 20
126.9832360224937986
 30
0.0
 11
3184.741329704727832
 21
126.9887356778839944
 31
0.0
  0
LINE
  5
25FBF
  8
0
 10
3184.8303528335650299
 20
126.9035492941088989
 30
0.0
 11
3184.818291943829081
 21
126.8926985527272961
 31
0.0
  0
ARC
  5
25FC0
  8
0
 10
3184.8101752000029592
 20
126.9053237168538004
 30
0.0
 40
0.0150092071593616
 50
235.420425688846592
 51
302.7370466003990828
  0
ARC
  5
25FC1
  8
0
 10
3184.9596810982297939
 20
127.1123852916585975
 30
0.0
 40
0.2704006386323353
 50
215.7813020057323001
 51
234.2387998419247026
  0
ARC
  5
25FC2
  8
0
 10
3184.7497349144609871
 20
126.9630231296950029
 30
0.0
 40
0.0128477448611097
 50
140.5849022511451096
 51
222.8601970855798129
  0
LINE
  5
25FC3
  8
0
 10
3184.7398091798559108
 20
126.9711806011521986
 30
0.0
 11
3184.7506569212209797
 21
126.9832344101519936
 31
0.0
  0
LINE
  5
25FC4
  8
0
 10
3184.6156655989889259
 20
126.998343394938999
 30
0.0
 11
3184.6093341003111163
 21
126.990335183459095
 31
0.0
  0
ARC
  5
25FC5
  8
0
 10
3184.6183501256009549
 20
126.9833720134736978
 30
0.0
 40
0.011391858859125
 50
142.3207181892859126
 51
223.7669205371144017
  0
ARC
  5
25FC6
  8
0
 10
3184.9581714915289012
 20
127.3023712756555028
 30
0.0
 40
0.4774804385274417
 50
223.2035324578662028
 51
233.909553875548113
  0
ARC
  5
25FC7
  8
0
 10
3184.6845785072268882
 20
126.9239072427075996
 30
0.0
 40
0.0106472243353484
 50
223.8957561441050927
 51
317.3031412398897828
  0
LINE
  5
25FC8
  8
0
 10
3184.6924037036419577
 20
126.9166871535726955
 30
0.0
 11
3184.7000942856361689
 21
126.9245561490075005
 31
0.0
  0
LINE
  5
25FC9
  8
0
 10
3184.6963384434889122
 20
126.9207131752599054
 30
0.0
 11
3184.7072335238499363
 21
126.9136582574766976
 31
0.0
  0
LINE
  5
25FCA
  8
0
 10
3184.7072335238499363
 20
126.9136582574766976
 30
0.0
 11
3184.7085663463940364
 21
126.9135828916525952
 31
0.0
  0
LINE
  5
25FCB
  8
0
 10
3184.7085663463940364
 20
126.9135828916525952
 30
0.0
 11
3184.7084697548398253
 21
126.9145597187121979
 31
0.0
  0
LINE
  5
25FCC
  8
0
 10
3184.7084697548398253
 20
126.9145597187121979
 30
0.0
 11
3184.6999092913820277
 21
126.9247510489881989
 31
0.0
  0
ARC
  5
25FCD
  8
0
 10
3184.1238959910979247
 20
126.3503832913176979
 30
0.0
 40
0.8134430792352576
 50
44.9180423027463007
 51
52.8033034299866273
  0
LINE
  5
25FCE
  8
0
 10
3184.6156655989889259
 20
126.998343394938999
 30
0.0
 11
3184.6040364829977989
 21
127.0056920307379045
 31
0.0
  0
LINE
  5
25FCF
  8
0
 10
3184.6040364829977989
 20
127.0056920307379045
 30
0.0
 11
3184.6030933675119741
 21
127.0056450835384965
 31
0.0
  0
LINE
  5
25FD0
  8
0
 10
3184.6030933675119741
 20
127.0056450835384965
 30
0.0
 11
3184.6034296118800739
 21
127.0036235121562953
 31
0.0
  0
LINE
  5
25FD1
  8
0
 10
3184.6034296118800739
 20
127.0036235121562953
 30
0.0
 11
3184.6122127253361214
 21
126.9939761283813056
 31
0.0
  0
LINE
  5
25FD2
  8
0
 10
3184.6292148856668973
 20
126.9420178532069059
 30
0.0
 11
3184.6366053974429633
 21
126.9494083649826024
 31
0.0
  0
LINE
  5
25FD3
  8
0
 10
3191.5144809468451967
 20
132.1162745927344133
 30
0.0
 11
3191.4091472099471503
 21
132.1162746005344104
 31
0.0
  0
LINE
  5
25FD4
  8
0
 10
3191.4091472099471503
 20
132.1162746005344104
 30
0.0
 11
3191.3956166219450097
 21
132.1001510197343976
 31
0.0
  0
LINE
  5
25FD5
  8
0
 10
3191.3956166219450097
 20
132.1001510197343976
 30
0.0
 11
3191.4091076942449945
 21
132.110427791134299
 31
0.0
  0
LINE
  5
25FD6
  8
0
 10
3191.4091076942449945
 20
132.110427791134299
 30
0.0
 11
3191.3956048800591816
 21
132.093132721717808
 31
0.0
  0
LINE
  5
25FD7
  8
0
 10
3191.3956048800591816
 20
132.093132721717808
 30
0.0
 11
3191.4091547165758129
 21
132.1019901541201875
 31
0.0
  0
LINE
  5
25FD8
  8
0
 10
3191.4091547165758129
 20
132.1019901541201875
 30
0.0
 11
3191.3956291638937728
 21
132.0836114224233029
 31
0.0
  0
LINE
  5
25FD9
  8
0
 10
3191.3956291638937728
 20
132.0836114224233029
 30
0.0
 11
3191.4091494183549003
 21
132.0910563670176998
 31
0.0
  0
LINE
  5
25FDA
  8
0
 10
3191.4091494183549003
 20
132.0910563670176998
 30
0.0
 11
3191.3956612382330604
 21
132.0716449481809889
 31
0.0
  0
LINE
  5
25FDB
  8
0
 10
3191.3956612382330604
 20
132.0716449481809889
 30
0.0
 11
3191.4088871051972092
 21
132.0777939645344077
 31
0.0
  0
LINE
  5
25FDC
  8
0
 10
3191.4088871051972092
 20
132.0777939645344077
 30
0.0
 11
3191.3957019715908245
 21
132.0572928497329883
 31
0.0
  0
LINE
  5
25FDD
  8
0
 10
3191.3957019715908245
 20
132.0572928497329883
 30
0.0
 11
3191.4087807813898507
 21
132.0620655641344001
 31
0.0
  0
LINE
  5
25FDE
  8
0
 10
3191.4087807813898507
 20
132.0620655641344001
 30
0.0
 11
3191.3957191885701832
 21
132.0416536936527052
 31
0.0
  0
LINE
  5
25FDF
  8
0
 10
3191.3957191885701832
 20
132.0416536936527052
 30
0.0
 11
3191.4086616096078615
 21
132.0440325831343955
 31
0.0
  0
LINE
  5
25FE0
  8
0
 10
3191.4086616096078615
 20
132.0440325831343955
 30
0.0
 11
3191.3958107111639038
 21
132.0217293153015987
 31
0.0
  0
LINE
  5
25FE1
  8
0
 10
3191.3958107111639038
 20
132.0217293153015987
 30
0.0
 11
3191.4085228702938366
 21
132.023784861034386
 31
0.0
  0
LINE
  5
25FE2
  8
0
 10
3191.4085228702938366
 20
132.023784861034386
 30
0.0
 11
3191.3964044311451289
 21
132.0006038588344097
 31
0.0
  0
LINE
  5
25FE3
  8
0
 10
3191.3964044311451289
 20
132.0006038588344097
 30
0.0
 11
3191.4084702354712135
 21
132.0014196524344072
 31
0.0
  0
LINE
  5
25FE4
  8
0
 10
3191.4084702354712135
 20
132.0014196524344072
 30
0.0
 11
3191.3964044311451289
 21
131.9775166370343982
 31
0.0
  0
LINE
  5
25FE5
  8
0
 10
3191.3964044311451289
 20
131.9775166370343982
 30
0.0
 11
3191.4082664394509266
 21
131.9770580742344066
 31
0.0
  0
LINE
  5
25FE6
  8
0
 10
3191.4082663973449598
 20
131.9770580742344066
 30
0.0
 11
3191.3960646369650931
 21
131.9526316881888874
 31
0.0
  0
LINE
  5
25FE7
  8
0
 10
3191.3960646369650931
 20
131.9526316881888874
 30
0.0
 11
3191.4082663973690615
 21
131.9507977660294102
 31
0.0
  0
LINE
  5
25FE8
  8
0
 10
3191.4082663973690615
 20
131.9507977660294102
 30
0.0
 11
3191.3964044311651378
 21
131.9257636396343969
 31
0.0
  0
LINE
  5
25FE9
  8
0
 10
3191.3964044311651378
 20
131.9257636396343969
 30
0.0
 11
3191.4082663973449598
 21
131.9227695551344084
 31
0.0
  0
LINE
  5
25FEA
  8
0
 10
3191.4082663767981103
 20
131.9227695603204893
 30
0.0
 11
3191.3964042622451416
 21
131.8973556949343902
 31
0.0
  0
LINE
  5
25FEB
  8
0
 10
3191.3964042622451416
 20
131.8973556949343902
 30
0.0
 11
3191.4082729887832102
 21
131.8931107514476935
 31
0.0
  0
LINE
  5
25FEC
  8
0
 10
3191.4082729887832102
 20
131.8931107514476935
 30
0.0
 11
3191.3964042622451416
 21
131.8674460934344097
 31
0.0
  0
LINE
  5
25FED
  8
0
 10
3191.3964042622451416
 20
131.8674460934344097
 30
0.0
 11
3191.408274488043844
 21
131.8619723939162043
 31
0.0
  0
LINE
  5
25FEE
  8
0
 10
3191.408274488043844
 20
131.8619723939162043
 30
0.0
 11
3191.3964044311451289
 21
131.8361838432344086
 31
0.0
  0
LINE
  5
25FEF
  8
0
 10
3191.3964044311451289
 20
131.8361838432344086
 30
0.0
 11
3191.4079424701708376
 21
131.8296931904440044
 31
0.0
  0
LINE
  5
25FF0
  8
0
 10
3191.4079424701708376
 20
131.8296931904440044
 30
0.0
 11
3191.3964044311451289
 21
131.8037246912344074
 31
0.0
  0
LINE
  5
25FF1
  8
0
 10
3191.3964044311451289
 20
131.8037246912344074
 30
0.0
 11
3191.4082664386819488
 21
131.7958876152343919
 31
0.0
  0
LINE
  5
25FF2
  8
0
 10
3191.4082663973449598
 20
131.7958876152343919
 30
0.0
 11
3191.3964044311451289
 21
131.7702303473344045
 31
0.0
  0
LINE
  5
25FF3
  8
0
 10
3191.3964044311451289
 20
131.7702303473344045
 30
0.0
 11
3191.4082663973322269
 21
131.7612654000344037
 31
0.0
  0
LINE
  5
25FF4
  8
0
 10
3191.4082663973322269
 20
131.7612654000344037
 30
0.0
 11
3191.3964044311451289
 21
131.7402486517343903
 31
0.0
  0
LINE
  5
25FF5
  8
0
 10
3191.3964044311451289
 20
131.7402486517343903
 30
0.0
 11
3191.4082663974209026
 21
131.7258195229800037
 31
0.0
  0
LINE
  5
25FF6
  8
0
 10
3191.4082663973449598
 20
131.7258195229343869
 30
0.0
 11
3191.3964044311542239
 21
131.7052673059343988
 31
0.0
  0
LINE
  5
25FF7
  8
0
 10
3191.3964044311542239
 20
131.7052673059343988
 30
0.0
 11
3191.4085803057560042
 21
131.6893829217711129
 31
0.0
  0
LINE
  5
25FF8
  8
0
 10
3191.4085803057560042
 20
131.6893829217711129
 30
0.0
 11
3191.3964044311451289
 21
131.6697412780343939
 31
0.0
  0
LINE
  5
25FF9
  8
0
 10
3191.3964044311451289
 20
131.6697412780343939
 30
0.0
 11
3191.4082663973449598
 21
131.653166365234398
 31
0.0
  0
LINE
  5
25FFA
  8
0
 10
3191.4082663973449598
 20
131.653166365234398
 30
0.0
 11
3191.3964044311451289
 21
131.6338475568344109
 31
0.0
  0
LINE
  5
25FFB
  8
0
 10
3191.3964044311451289
 20
131.6338475568344109
 30
0.0
 11
3191.4082664159550404
 21
131.6163210562754102
 31
0.0
  0
LINE
  5
25FFC
  8
0
 10
3191.4082664159550404
 20
131.6163210562754102
 30
0.0
 11
3191.3964044311451289
 21
131.5977649631344093
 31
0.0
  0
LINE
  5
25FFD
  8
0
 10
3191.3964044311451289
 20
131.5977649631344093
 30
0.0
 11
3191.3975839830909536
 21
131.5959361843844135
 31
0.0
  0
LINE
  5
25FFE
  8
0
 10
3191.5144809468451967
 20
132.1162745927344133
 30
0.0
 11
3191.5280115348477921
 21
132.1001510197343976
 31
0.0
  0
LINE
  5
25FFF
  8
0
 10
3191.5280115348477921
 20
132.1001510197343976
 30
0.0
 11
3191.5145204625468978
 21
132.110427791134299
 31
0.0
  0
LINE
  5
26000
  8
0
 10
3191.5145204625468978
 20
132.110427791134299
 30
0.0
 11
3191.5280232767331654
 21
132.093132721717808
 31
0.0
  0
LINE
  5
26001
  8
0
 10
3191.5280232767331654
 20
132.093132721717808
 30
0.0
 11
3191.5144734402160793
 21
132.1019901541201875
 31
0.0
  0
LINE
  5
26002
  8
0
 10
3191.5144734402160793
 20
132.1019901541201875
 30
0.0
 11
3191.5279989928981195
 21
132.0836114224233029
 31
0.0
  0
LINE
  5
26003
  8
0
 10
3191.5279989928981195
 20
132.0836114224233029
 30
0.0
 11
3191.514478738436992
 21
132.0910563670176998
 31
0.0
  0
LINE
  5
26004
  8
0
 10
3191.514478738436992
 20
132.0910563670176998
 30
0.0
 11
3191.5279669185601961
 21
132.0716449481809889
 31
0.0
  0
LINE
  5
26005
  8
0
 10
3191.5279669185601961
 20
132.0716449481809889
 30
0.0
 11
3191.5147410515937736
 21
132.0777939645344077
 31
0.0
  0
LINE
  5
26006
  8
0
 10
3191.5147410515937736
 20
132.0777939645344077
 30
0.0
 11
3191.5279261852001582
 21
132.0572928497329883
 31
0.0
  0
LINE
  5
26007
  8
0
 10
3191.5279261852001582
 20
132.0572928497329883
 30
0.0
 11
3191.514847375402951
 21
132.0620655641344001
 31
0.0
  0
LINE
  5
26008
  8
0
 10
3191.514847375402951
 20
132.0620655641344001
 30
0.0
 11
3191.5279089682230733
 21
132.0416536936527052
 31
0.0
  0
LINE
  5
26009
  8
0
 10
3191.5279089682230733
 20
132.0416536936527052
 30
0.0
 11
3191.5149665471840308
 21
132.0440325831343955
 31
0.0
  0
LINE
  5
2600A
  8
0
 10
3191.5149665471840308
 20
132.0440325831343955
 30
0.0
 11
3191.527817445628898
 21
132.0217293153015987
 31
0.0
  0
LINE
  5
2600B
  8
0
 10
3191.527817445628898
 20
132.0217293153015987
 30
0.0
 11
3191.5151052864980556
 21
132.023784861034386
 31
0.0
  0
LINE
  5
2600C
  8
0
 10
3191.5151052864980556
 20
132.023784861034386
 30
0.0
 11
3191.5272237256481276
 21
132.0006038588344097
 31
0.0
  0
LINE
  5
2600D
  8
0
 10
3191.5272237256481276
 20
132.0006038588344097
 30
0.0
 11
3191.5151579213211335
 21
132.0014196524344072
 31
0.0
  0
LINE
  5
2600E
  8
0
 10
3191.5151579213211335
 20
132.0014196524344072
 30
0.0
 11
3191.5272237256481276
 21
131.9775166370343982
 31
0.0
  0
LINE
  5
2600F
  8
0
 10
3191.5272237256481276
 20
131.9775166370343982
 30
0.0
 11
3191.5153617173400562
 21
131.9770580742344066
 31
0.0
  0
LINE
  5
26010
  8
0
 10
3191.5153617594469324
 20
131.9770580742344066
 30
0.0
 11
3191.5275635198267992
 21
131.9526316881888874
 31
0.0
  0
LINE
  5
26011
  8
0
 10
3191.5275635198267992
 20
131.9526316881888874
 30
0.0
 11
3191.5153617594228308
 21
131.9507977660294102
 31
0.0
  0
LINE
  5
26012
  8
0
 10
3191.5153617594228308
 20
131.9507977660294102
 30
0.0
 11
3191.5272237256272092
 21
131.9257636396343969
 31
0.0
  0
LINE
  5
26013
  8
0
 10
3191.5272237256272092
 20
131.9257636396343969
 30
0.0
 11
3191.5153617594469324
 21
131.9227695551344084
 31
0.0
  0
LINE
  5
26014
  8
0
 10
3191.515361779993782
 20
131.9227695603204893
 30
0.0
 11
3191.5272238945481149
 21
131.8973556949343902
 31
0.0
  0
LINE
  5
26015
  8
0
 10
3191.5272238945481149
 20
131.8973556949343902
 30
0.0
 11
3191.5153551680091368
 21
131.8931107514476935
 31
0.0
  0
LINE
  5
26016
  8
0
 10
3191.5153551680091368
 20
131.8931107514476935
 30
0.0
 11
3191.5272238945481149
 21
131.8674460934344097
 31
0.0
  0
LINE
  5
26017
  8
0
 10
3191.5272238945481149
 20
131.8674460934344097
 30
0.0
 11
3191.5153536687480482
 21
131.8619723939162043
 31
0.0
  0
LINE
  5
26018
  8
0
 10
3191.5153536687480482
 20
131.8619723939162043
 30
0.0
 11
3191.5272237256481276
 21
131.8361838432344086
 31
0.0
  0
LINE
  5
26019
  8
0
 10
3191.5272237256481276
 20
131.8361838432344086
 30
0.0
 11
3191.5156856866219641
 21
131.8296931904440044
 31
0.0
  0
LINE
  5
2601A
  8
0
 10
3191.5156856866219641
 20
131.8296931904440044
 30
0.0
 11
3191.5272237256481276
 21
131.8037246912344074
 31
0.0
  0
LINE
  5
2601B
  8
0
 10
3191.5272237256481276
 20
131.8037246912344074
 30
0.0
 11
3191.5153617181099435
 21
131.7958876152343919
 31
0.0
  0
LINE
  5
2601C
  8
0
 10
3191.5153617594469324
 20
131.7958876152343919
 30
0.0
 11
3191.5272237256481276
 21
131.7702303473344045
 31
0.0
  0
LINE
  5
2601D
  8
0
 10
3191.5272237256481276
 20
131.7702303473344045
 30
0.0
 11
3191.5153617594601201
 21
131.7612654000344037
 31
0.0
  0
LINE
  5
2601E
  8
0
 10
3191.5153617594601201
 20
131.7612654000344037
 30
0.0
 11
3191.5272237256481276
 21
131.7402486517343903
 31
0.0
  0
LINE
  5
2601F
  8
0
 10
3191.5272237256481276
 20
131.7402486517343903
 30
0.0
 11
3191.5153617593709896
 21
131.7258195229800037
 31
0.0
  0
LINE
  5
26020
  8
0
 10
3191.5153617594469324
 20
131.7258195229343869
 30
0.0
 11
3191.5272237256381231
 21
131.7052673059343988
 31
0.0
  0
LINE
  5
26021
  8
0
 10
3191.5272237256381231
 20
131.7052673059343988
 30
0.0
 11
3191.515047851035888
 21
131.6893829217711129
 31
0.0
  0
LINE
  5
26022
  8
0
 10
3191.515047851035888
 20
131.6893829217711129
 30
0.0
 11
3191.5272237256481276
 21
131.6697412780343939
 31
0.0
  0
LINE
  5
26023
  8
0
 10
3191.5272237256481276
 20
131.6697412780343939
 30
0.0
 11
3191.5153617594469324
 21
131.653166365234398
 31
0.0
  0
LINE
  5
26024
  8
0
 10
3191.5153617594469324
 20
131.653166365234398
 30
0.0
 11
3191.5272237256481276
 21
131.6338475568344109
 31
0.0
  0
LINE
  5
26025
  8
0
 10
3191.5272237256481276
 20
131.6338475568344109
 30
0.0
 11
3191.5153617408368518
 21
131.6163210562754102
 31
0.0
  0
LINE
  5
26026
  8
0
 10
3191.5153617408368518
 20
131.6163210562754102
 30
0.0
 11
3191.5272237256481276
 21
131.5977649631344093
 31
0.0
  0
LINE
  5
26027
  8
0
 10
3191.5272237256481276
 20
131.5977649631344093
 30
0.0
 11
3191.5260441737009387
 21
131.5959361843844135
 31
0.0
  0
LINE
  5
26028
  8
0
 10
3191.5144560329440537
 20
131.0719120478343882
 30
0.0
 11
3191.4091721128452264
 21
131.0719120478343882
 31
0.0
  0
LINE
  5
26029
  8
0
 10
3191.5144809468451967
 20
131.0755977760344138
 30
0.0
 11
3191.4091472099471503
 21
131.0755977682343882
 31
0.0
  0
LINE
  5
2602A
  8
0
 10
3191.4091472099471503
 20
131.0755977682343882
 30
0.0
 11
3191.3956166219450097
 21
131.0917213490344011
 31
0.0
  0
LINE
  5
2602B
  8
0
 10
3191.3956166219450097
 20
131.0917213490344011
 30
0.0
 11
3191.4091076942449945
 21
131.081444577634386
 31
0.0
  0
LINE
  5
2602C
  8
0
 10
3191.4091076942449945
 20
131.081444577634386
 30
0.0
 11
3191.3956048800591816
 21
131.0987396470509907
 31
0.0
  0
LINE
  5
2602D
  8
0
 10
3191.3956048800591816
 20
131.0987396470509907
 30
0.0
 11
3191.4091547165758129
 21
131.0898822146484974
 31
0.0
  0
LINE
  5
2602E
  8
0
 10
3191.4091547165758129
 20
131.0898822146484974
 30
0.0
 11
3191.3956291638937728
 21
131.1082609463454958
 31
0.0
  0
LINE
  5
2602F
  8
0
 10
3191.3956291638937728
 20
131.1082609463454958
 30
0.0
 11
3191.4091494183549003
 21
131.1008160017510988
 31
0.0
  0
LINE
  5
26030
  8
0
 10
3191.4091494183549003
 20
131.1008160017510988
 30
0.0
 11
3191.3956612382330604
 21
131.1202274205876961
 31
0.0
  0
LINE
  5
26031
  8
0
 10
3191.3956612382330604
 20
131.1202274205876961
 30
0.0
 11
3191.4088871051972092
 21
131.114078404234391
 31
0.0
  0
LINE
  5
26032
  8
0
 10
3191.4088871051972092
 20
131.114078404234391
 30
0.0
 11
3191.3957019715908245
 21
131.1345795190356966
 31
0.0
  0
LINE
  5
26033
  8
0
 10
3191.3957019715908245
 20
131.1345795190356966
 30
0.0
 11
3191.4087807813898507
 21
131.1298068046343985
 31
0.0
  0
LINE
  5
26034
  8
0
 10
3191.4087807813898507
 20
131.1298068046343985
 30
0.0
 11
3191.3957191885701832
 21
131.1502186751160934
 31
0.0
  0
LINE
  5
26035
  8
0
 10
3191.3957191885701832
 20
131.1502186751160934
 30
0.0
 11
3191.4086616096078615
 21
131.1478397856344031
 31
0.0
  0
LINE
  5
26036
  8
0
 10
3191.4086616096078615
 20
131.1478397856344031
 30
0.0
 11
3191.3958107111639038
 21
131.1701430534671999
 31
0.0
  0
LINE
  5
26037
  8
0
 10
3191.3958107111639038
 20
131.1701430534671999
 30
0.0
 11
3191.4085228702938366
 21
131.1680875077344126
 31
0.0
  0
LINE
  5
26038
  8
0
 10
3191.4085228702938366
 20
131.1680875077344126
 30
0.0
 11
3191.3964044311451289
 21
131.1912685099343889
 31
0.0
  0
LINE
  5
26039
  8
0
 10
3191.3964044311451289
 20
131.1912685099343889
 30
0.0
 11
3191.4084702354712135
 21
131.1904527163343914
 31
0.0
  0
LINE
  5
2603A
  8
0
 10
3191.4084702354712135
 20
131.1904527163343914
 30
0.0
 11
3191.3964044311451289
 21
131.2143557317344005
 31
0.0
  0
LINE
  5
2603B
  8
0
 10
3191.3964044311451289
 20
131.2143557317344005
 30
0.0
 11
3191.4082664394509266
 21
131.214814294534392
 31
0.0
  0
LINE
  5
2603C
  8
0
 10
3191.4082663973449598
 20
131.214814294534392
 30
0.0
 11
3191.3960646369650931
 21
131.2392406805799112
 31
0.0
  0
LINE
  5
2603D
  8
0
 10
3191.3960646369650931
 20
131.2392406805799112
 30
0.0
 11
3191.4082663973690615
 21
131.2410746027393884
 31
0.0
  0
LINE
  5
2603E
  8
0
 10
3191.4082663973690615
 20
131.2410746027393884
 30
0.0
 11
3191.3964044311651378
 21
131.2661087291344018
 31
0.0
  0
LINE
  5
2603F
  8
0
 10
3191.3964044311651378
 20
131.2661087291344018
 30
0.0
 11
3191.4082663973449598
 21
131.2691028136343903
 31
0.0
  0
LINE
  5
26040
  8
0
 10
3191.4082663767981103
 20
131.2691028084481957
 30
0.0
 11
3191.3964042622451416
 21
131.2945166738344085
 31
0.0
  0
LINE
  5
26041
  8
0
 10
3191.3964042622451416
 20
131.2945166738344085
 30
0.0
 11
3191.4082729887832102
 21
131.2987616173211052
 31
0.0
  0
LINE
  5
26042
  8
0
 10
3191.4082729887832102
 20
131.2987616173211052
 30
0.0
 11
3191.3964042622451416
 21
131.3244262753343889
 31
0.0
  0
LINE
  5
26043
  8
0
 10
3191.3964042622451416
 20
131.3244262753343889
 30
0.0
 11
3191.408274488043844
 21
131.3298999748525091
 31
0.0
  0
LINE
  5
26044
  8
0
 10
3191.408274488043844
 20
131.3298999748525091
 30
0.0
 11
3191.3964044311451289
 21
131.35568852553439
 31
0.0
  0
LINE
  5
26045
  8
0
 10
3191.3964044311451289
 20
131.35568852553439
 30
0.0
 11
3191.4079424701708376
 21
131.362179178324709
 31
0.0
  0
LINE
  5
26046
  8
0
 10
3191.4079424701708376
 20
131.362179178324709
 30
0.0
 11
3191.3964044311451289
 21
131.3881476775343913
 31
0.0
  0
LINE
  5
26047
  8
0
 10
3191.3964044311451289
 20
131.3881476775343913
 30
0.0
 11
3191.4082664386819488
 21
131.3959847535344068
 31
0.0
  0
LINE
  5
26048
  8
0
 10
3191.4082663973449598
 20
131.3959847535344068
 30
0.0
 11
3191.3964044311451289
 21
131.4216420214343941
 31
0.0
  0
LINE
  5
26049
  8
0
 10
3191.3964044311451289
 20
131.4216420214343941
 30
0.0
 11
3191.4082663973322269
 21
131.430606968734395
 31
0.0
  0
LINE
  5
2604A
  8
0
 10
3191.4082663973322269
 20
131.430606968734395
 30
0.0
 11
3191.3964044311451289
 21
131.4516237170344084
 31
0.0
  0
LINE
  5
2604B
  8
0
 10
3191.3964044311451289
 20
131.4516237170344084
 30
0.0
 11
3191.4082663974209026
 21
131.4660528457887949
 31
0.0
  0
LINE
  5
2604C
  8
0
 10
3191.4082663973449598
 20
131.4660528458344118
 30
0.0
 11
3191.3964044311542239
 21
131.4866050628343999
 31
0.0
  0
LINE
  5
2604D
  8
0
 10
3191.3964044311542239
 20
131.4866050628343999
 30
0.0
 11
3191.4085803057560042
 21
131.5024894469976005
 31
0.0
  0
LINE
  5
2604E
  8
0
 10
3191.4085803057560042
 20
131.5024894469976005
 30
0.0
 11
3191.3964044311451289
 21
131.5221310907344048
 31
0.0
  0
LINE
  5
2604F
  8
0
 10
3191.3964044311451289
 20
131.5221310907344048
 30
0.0
 11
3191.4082663973449598
 21
131.5387060035344007
 31
0.0
  0
LINE
  5
26050
  8
0
 10
3191.4082663973449598
 20
131.5387060035344007
 30
0.0
 11
3191.3964044311451289
 21
131.5580248119343878
 31
0.0
  0
LINE
  5
26051
  8
0
 10
3191.3964044311451289
 20
131.5580248119343878
 30
0.0
 11
3191.4082664159550404
 21
131.5755513124933032
 31
0.0
  0
LINE
  5
26052
  8
0
 10
3191.4082664159550404
 20
131.5755513124933032
 30
0.0
 11
3191.3964044311451289
 21
131.5941074056343894
 31
0.0
  0
LINE
  5
26053
  8
0
 10
3191.3964044311451289
 20
131.5941074056343894
 30
0.0
 11
3191.3975839830909536
 21
131.5959361843844135
 31
0.0
  0
LINE
  5
26054
  8
0
 10
3191.5144809468451967
 20
131.0755977760344138
 30
0.0
 11
3191.5280115348477921
 21
131.0917213490344011
 31
0.0
  0
LINE
  5
26055
  8
0
 10
3191.5280115348477921
 20
131.0917213490344011
 30
0.0
 11
3191.5145204625468978
 21
131.081444577634386
 31
0.0
  0
LINE
  5
26056
  8
0
 10
3191.5145204625468978
 20
131.081444577634386
 30
0.0
 11
3191.5280232767331654
 21
131.0987396470509907
 31
0.0
  0
LINE
  5
26057
  8
0
 10
3191.5280232767331654
 20
131.0987396470509907
 30
0.0
 11
3191.5144734402160793
 21
131.0898822146484974
 31
0.0
  0
LINE
  5
26058
  8
0
 10
3191.5144734402160793
 20
131.0898822146484974
 30
0.0
 11
3191.5279989928981195
 21
131.1082609463454958
 31
0.0
  0
LINE
  5
26059
  8
0
 10
3191.5279989928981195
 20
131.1082609463454958
 30
0.0
 11
3191.514478738436992
 21
131.1008160017510988
 31
0.0
  0
LINE
  5
2605A
  8
0
 10
3191.514478738436992
 20
131.1008160017510988
 30
0.0
 11
3191.5279669185601961
 21
131.1202274205876961
 31
0.0
  0
LINE
  5
2605B
  8
0
 10
3191.5279669185601961
 20
131.1202274205876961
 30
0.0
 11
3191.5147410515937736
 21
131.114078404234391
 31
0.0
  0
LINE
  5
2605C
  8
0
 10
3191.5147410515937736
 20
131.114078404234391
 30
0.0
 11
3191.5279261852001582
 21
131.1345795190356966
 31
0.0
  0
LINE
  5
2605D
  8
0
 10
3191.5279261852001582
 20
131.1345795190356966
 30
0.0
 11
3191.514847375402951
 21
131.1298068046343985
 31
0.0
  0
LINE
  5
2605E
  8
0
 10
3191.514847375402951
 20
131.1298068046343985
 30
0.0
 11
3191.5279089682230733
 21
131.1502186751160934
 31
0.0
  0
LINE
  5
2605F
  8
0
 10
3191.5279089682230733
 20
131.1502186751160934
 30
0.0
 11
3191.5149665471840308
 21
131.1478397856344031
 31
0.0
  0
LINE
  5
26060
  8
0
 10
3191.5149665471840308
 20
131.1478397856344031
 30
0.0
 11
3191.527817445628898
 21
131.1701430534671999
 31
0.0
  0
LINE
  5
26061
  8
0
 10
3191.527817445628898
 20
131.1701430534671999
 30
0.0
 11
3191.5151052864980556
 21
131.1680875077344126
 31
0.0
  0
LINE
  5
26062
  8
0
 10
3191.5151052864980556
 20
131.1680875077344126
 30
0.0
 11
3191.5272237256481276
 21
131.1912685099343889
 31
0.0
  0
LINE
  5
26063
  8
0
 10
3191.5272237256481276
 20
131.1912685099343889
 30
0.0
 11
3191.5151579213211335
 21
131.1904527163343914
 31
0.0
  0
LINE
  5
26064
  8
0
 10
3191.5151579213211335
 20
131.1904527163343914
 30
0.0
 11
3191.5272237256481276
 21
131.2143557317344005
 31
0.0
  0
LINE
  5
26065
  8
0
 10
3191.5272237256481276
 20
131.2143557317344005
 30
0.0
 11
3191.5153617173400562
 21
131.214814294534392
 31
0.0
  0
LINE
  5
26066
  8
0
 10
3191.5153617594469324
 20
131.214814294534392
 30
0.0
 11
3191.5275635198267992
 21
131.2392406805799112
 31
0.0
  0
LINE
  5
26067
  8
0
 10
3191.5275635198267992
 20
131.2392406805799112
 30
0.0
 11
3191.5153617594228308
 21
131.2410746027393884
 31
0.0
  0
LINE
  5
26068
  8
0
 10
3191.5153617594228308
 20
131.2410746027393884
 30
0.0
 11
3191.5272237256272092
 21
131.2661087291344018
 31
0.0
  0
LINE
  5
26069
  8
0
 10
3191.5272237256272092
 20
131.2661087291344018
 30
0.0
 11
3191.5153617594469324
 21
131.2691028136343903
 31
0.0
  0
LINE
  5
2606A
  8
0
 10
3191.515361779993782
 20
131.2691028084481957
 30
0.0
 11
3191.5272238945481149
 21
131.2945166738344085
 31
0.0
  0
LINE
  5
2606B
  8
0
 10
3191.5272238945481149
 20
131.2945166738344085
 30
0.0
 11
3191.5153551680091368
 21
131.2987616173211052
 31
0.0
  0
LINE
  5
2606C
  8
0
 10
3191.5153551680091368
 20
131.2987616173211052
 30
0.0
 11
3191.5272238945481149
 21
131.3244262753343889
 31
0.0
  0
LINE
  5
2606D
  8
0
 10
3191.5272238945481149
 20
131.3244262753343889
 30
0.0
 11
3191.5153536687480482
 21
131.3298999748525091
 31
0.0
  0
LINE
  5
2606E
  8
0
 10
3191.5153536687480482
 20
131.3298999748525091
 30
0.0
 11
3191.5272237256481276
 21
131.35568852553439
 31
0.0
  0
LINE
  5
2606F
  8
0
 10
3191.5272237256481276
 20
131.35568852553439
 30
0.0
 11
3191.5156856866219641
 21
131.362179178324709
 31
0.0
  0
LINE
  5
26070
  8
0
 10
3191.5156856866219641
 20
131.362179178324709
 30
0.0
 11
3191.5272237256481276
 21
131.3881476775343913
 31
0.0
  0
LINE
  5
26071
  8
0
 10
3191.5272237256481276
 20
131.3881476775343913
 30
0.0
 11
3191.5153617181099435
 21
131.3959847535344068
 31
0.0
  0
LINE
  5
26072
  8
0
 10
3191.5153617594469324
 20
131.3959847535344068
 30
0.0
 11
3191.5272237256481276
 21
131.4216420214343941
 31
0.0
  0
LINE
  5
26073
  8
0
 10
3191.5272237256481276
 20
131.4216420214343941
 30
0.0
 11
3191.5153617594601201
 21
131.430606968734395
 31
0.0
  0
LINE
  5
26074
  8
0
 10
3191.5153617594601201
 20
131.430606968734395
 30
0.0
 11
3191.5272237256481276
 21
131.4516237170344084
 31
0.0
  0
LINE
  5
26075
  8
0
 10
3191.5272237256481276
 20
131.4516237170344084
 30
0.0
 11
3191.5153617593709896
 21
131.4660528457887949
 31
0.0
  0
LINE
  5
26076
  8
0
 10
3191.5153617594469324
 20
131.4660528458344118
 30
0.0
 11
3191.5272237256381231
 21
131.4866050628343999
 31
0.0
  0
LINE
  5
26077
  8
0
 10
3191.5272237256381231
 20
131.4866050628343999
 30
0.0
 11
3191.515047851035888
 21
131.5024894469976005
 31
0.0
  0
LINE
  5
26078
  8
0
 10
3191.515047851035888
 20
131.5024894469976005
 30
0.0
 11
3191.5272237256481276
 21
131.5221310907344048
 31
0.0
  0
LINE
  5
26079
  8
0
 10
3191.5272237256481276
 20
131.5221310907344048
 30
0.0
 11
3191.5153617594469324
 21
131.5387060035344007
 31
0.0
  0
LINE
  5
2607A
  8
0
 10
3191.5153617594469324
 20
131.5387060035344007
 30
0.0
 11
3191.5272237256481276
 21
131.5580248119343878
 31
0.0
  0
LINE
  5
2607B
  8
0
 10
3191.5272237256481276
 20
131.5580248119343878
 30
0.0
 11
3191.5153617408368518
 21
131.5755513124933032
 31
0.0
  0
LINE
  5
2607C
  8
0
 10
3191.5153617408368518
 20
131.5755513124933032
 30
0.0
 11
3191.5272237256481276
 21
131.5941074056343894
 31
0.0
  0
LINE
  5
2607D
  8
0
 10
3191.5272237256481276
 20
131.5941074056343894
 30
0.0
 11
3191.5260441737009387
 21
131.5959361843844135
 31
0.0
  0
LINE
  5
2607E
  8
0
 10
3191.408274488043844
 20
131.8619723939162043
 30
0.0
 11
3191.5153536687480482
 21
131.8619723939162043
 31
0.0
  0
LINE
  5
2607F
  8
0
 10
3191.4079424701708376
 20
131.8296931904440044
 30
0.0
 11
3191.5156856866219641
 21
131.8296931904440044
 31
0.0
  0
LINE
  5
26080
  8
0
 10
3191.4091076942449945
 20
132.110427791134299
 30
0.0
 11
3191.5145204625468978
 21
132.110427791134299
 31
0.0
  0
LINE
  5
26081
  8
0
 10
3191.5144734402160793
 20
132.1019901541201875
 30
0.0
 11
3191.4091547165758129
 21
132.1019901541201875
 31
0.0
  0
LINE
  5
26082
  8
0
 10
3191.4091494183549003
 20
132.0910563670176998
 30
0.0
 11
3191.514478738436992
 21
132.0910563670176998
 31
0.0
  0
LINE
  5
26083
  8
0
 10
3191.5147410515937736
 20
132.0777939645344077
 30
0.0
 11
3191.4088871051972092
 21
132.0777939645344077
 31
0.0
  0
LINE
  5
26084
  8
0
 10
3191.4087807813898507
 20
132.0620655641344001
 30
0.0
 11
3191.514847375402951
 21
132.0620655641344001
 31
0.0
  0
LINE
  5
26085
  8
0
 10
3191.5149665471840308
 20
132.0440325831343955
 30
0.0
 11
3191.4086616096078615
 21
132.0440325831343955
 31
0.0
  0
LINE
  5
26086
  8
0
 10
3191.4085228702938366
 20
132.023784861034386
 30
0.0
 11
3191.5151052864980556
 21
132.023784861034386
 31
0.0
  0
LINE
  5
26087
  8
0
 10
3191.4084702354712135
 20
132.0014196524344072
 30
0.0
 11
3191.5151579213211335
 21
132.0014196524344072
 31
0.0
  0
LINE
  5
26088
  8
0
 10
3191.4082664394509266
 20
131.9770580742344066
 30
0.0
 11
3191.5153617173400562
 21
131.9770580742344066
 31
0.0
  0
LINE
  5
26089
  8
0
 10
3191.5153617594228308
 20
131.9507977660294102
 30
0.0
 11
3191.4082663973690615
 21
131.9507977660294102
 31
0.0
  0
LINE
  5
2608A
  8
0
 10
3191.4082663973449598
 20
131.9227695551344084
 30
0.0
 11
3191.5153617594469324
 21
131.9227695551344084
 31
0.0
  0
LINE
  5
2608B
  8
0
 10
3191.5153551680091368
 20
131.8931107514476935
 30
0.0
 11
3191.4082729887832102
 21
131.8931107514476935
 31
0.0
  0
LINE
  5
2608C
  8
0
 10
3191.4082664386819488
 20
131.7958876152343919
 30
0.0
 11
3191.5153617181099435
 21
131.7958876152343919
 31
0.0
  0
LINE
  5
2608D
  8
0
 10
3191.4082663973322269
 20
131.7612654000344037
 30
0.0
 11
3191.5153617594601201
 21
131.7612654000344037
 31
0.0
  0
LINE
  5
2608E
  8
0
 10
3191.5153617594000934
 20
131.7258195230155025
 30
0.0
 11
3191.4082663974209026
 21
131.7258195229800037
 31
0.0
  0
LINE
  5
2608F
  8
0
 10
3191.4085803057560042
 20
131.6893829217711129
 30
0.0
 11
3191.515047851035888
 21
131.6893829217711129
 31
0.0
  0
LINE
  5
26090
  8
0
 10
3191.5153617594469324
 20
131.653166365234398
 30
0.0
 11
3191.4082663973449598
 21
131.653166365234398
 31
0.0
  0
LINE
  5
26091
  8
0
 10
3191.4082664159550404
 20
131.6163210562754102
 30
0.0
 11
3191.5153617408368518
 21
131.6163210562754102
 31
0.0
  0
LINE
  5
26092
  8
0
 10
3191.408274488043844
 20
131.3298999748525091
 30
0.0
 11
3191.5153536687480482
 21
131.3298999748525091
 31
0.0
  0
LINE
  5
26093
  8
0
 10
3191.4079424701708376
 20
131.362179178324709
 30
0.0
 11
3191.5156856866219641
 21
131.362179178324709
 31
0.0
  0
LINE
  5
26094
  8
0
 10
3191.4091076942449945
 20
131.081444577634386
 30
0.0
 11
3191.5145204625468978
 21
131.081444577634386
 31
0.0
  0
LINE
  5
26095
  8
0
 10
3191.5144734402160793
 20
131.0898822146484974
 30
0.0
 11
3191.4091547165758129
 21
131.0898822146484974
 31
0.0
  0
LINE
  5
26096
  8
0
 10
3191.4091494183549003
 20
131.1008160017510988
 30
0.0
 11
3191.514478738436992
 21
131.1008160017510988
 31
0.0
  0
LINE
  5
26097
  8
0
 10
3191.5147410515937736
 20
131.114078404234391
 30
0.0
 11
3191.4088871051972092
 21
131.114078404234391
 31
0.0
  0
LINE
  5
26098
  8
0
 10
3191.4087807813898507
 20
131.1298068046343985
 30
0.0
 11
3191.514847375402951
 21
131.1298068046343985
 31
0.0
  0
LINE
  5
26099
  8
0
 10
3191.5149665471840308
 20
131.1478397856344031
 30
0.0
 11
3191.4086616096078615
 21
131.1478397856344031
 31
0.0
  0
LINE
  5
2609A
  8
0
 10
3191.4085228702938366
 20
131.1680875077344126
 30
0.0
 11
3191.5151052864980556
 21
131.1680875077344126
 31
0.0
  0
LINE
  5
2609B
  8
0
 10
3191.4084702354712135
 20
131.1904527163343914
 30
0.0
 11
3191.5151579213211335
 21
131.1904527163343914
 31
0.0
  0
LINE
  5
2609C
  8
0
 10
3191.4082664394509266
 20
131.214814294534392
 30
0.0
 11
3191.5153617173400562
 21
131.214814294534392
 31
0.0
  0
LINE
  5
2609D
  8
0
 10
3191.5153617594228308
 20
131.2410746027393884
 30
0.0
 11
3191.4082663973690615
 21
131.2410746027393884
 31
0.0
  0
LINE
  5
2609E
  8
0
 10
3191.4082663973449598
 20
131.2691028136343903
 30
0.0
 11
3191.5153617594469324
 21
131.2691028136343903
 31
0.0
  0
LINE
  5
2609F
  8
0
 10
3191.5153551680091368
 20
131.2987616173211052
 30
0.0
 11
3191.4082729887832102
 21
131.2987616173211052
 31
0.0
  0
LINE
  5
260A0
  8
0
 10
3191.4082664386819488
 20
131.3959847535344068
 30
0.0
 11
3191.5153617181099435
 21
131.3959847535344068
 31
0.0
  0
LINE
  5
260A1
  8
0
 10
3191.4082663973322269
 20
131.430606968734395
 30
0.0
 11
3191.5153617594601201
 21
131.430606968734395
 31
0.0
  0
LINE
  5
260A2
  8
0
 10
3191.5153617594000934
 20
131.4660528457532962
 30
0.0
 11
3191.4082663974209026
 21
131.4660528457887949
 31
0.0
  0
LINE
  5
260A3
  8
0
 10
3191.4085803057560042
 20
131.5024894469976005
 30
0.0
 11
3191.515047851035888
 21
131.5024894469976005
 31
0.0
  0
LINE
  5
260A4
  8
0
 10
3191.5153617594469324
 20
131.5387060035344007
 30
0.0
 11
3191.4082663973449598
 21
131.5387060035344007
 31
0.0
  0
LINE
  5
260A5
  8
0
 10
3191.4082664159550404
 20
131.5755513124933032
 30
0.0
 11
3191.5153617408368518
 21
131.5755513124933032
 31
0.0
  0
LINE
  5
260A6
  8
0
 10
3191.3955850809447838
 20
131.0871353233343939
 30
0.0
 11
3191.4091472099471503
 21
131.0755977682343882
 31
0.0
  0
LINE
  5
260A7
  8
0
 10
3191.4091721128452264
 20
131.0719120478343882
 30
0.0
 11
3191.3955850809447838
 21
131.0871353233343939
 31
0.0
  0
LINE
  5
260A8
  8
0
 10
3191.5144560329440537
 20
131.0719120478343882
 30
0.0
 11
3191.5280419253449509
 21
131.0871343352343956
 31
0.0
  0
LINE
  5
260A9
  8
0
 10
3191.5280419253449509
 20
131.0871343352343956
 30
0.0
 11
3191.5144809468451967
 21
131.0755977760344138
 31
0.0
  0
ARC
  5
260AA
  8
0
 10
3183.6852648851518097
 20
127.7257655748159948
 30
0.0
 40
0.1601993413434881
 50
34.1715615252718408
 51
48.1148374697351073
  0
ARC
  5
260AB
  8
0
 10
3183.8921885426389053
 20
127.9065515102239061
 30
0.0
 40
0.1173812333996052
 50
211.6079677663142036
 51
230.6784312287182104
  0
ARC
  5
260AC
  8
0
 10
3183.780781474052219
 20
127.7760233822159961
 30
0.0
 40
0.1601993413434881
 50
34.1715615252718408
 51
48.1148374697351073
  0
ARC
  5
260AD
  8
0
 10
3183.9877051315388599
 20
127.9568093176238932
 30
0.0
 40
0.1173812333996052
 50
211.6079677663142036
 51
230.6784312287182104
  0
ARC
  5
260AE
  8
0
 10
3183.8499254608509546
 20
127.6241913902160974
 30
0.0
 40
0.1601993413434881
 50
34.1715615252718408
 51
48.1148374697351073
  0
ARC
  5
260AF
  8
0
 10
3184.0568491183389597
 20
127.804977325623895
 30
0.0
 40
0.1173812333996052
 50
211.6079677663142036
 51
230.6784312287182104
  0
ARC
  5
260B0
  8
0
 10
3183.5112102199200308
 20
127.961867170920101
 30
0.0
 40
0.1601993413434881
 50
34.1715615252718408
 51
48.1148374697351073
  0
ARC
  5
260B1
  8
0
 10
3183.7181338774080359
 20
128.1426531063279128
 30
0.0
 40
0.1173812333996052
 50
211.6079677663142036
 51
230.6784312287182104
  0
ARC
  5
260B2
  8
0
 10
3183.4017923719729879
 20
128.2593505621188967
 30
0.0
 40
0.0875246782896975
 50
25.6097942651506614
 51
51.3551367340929232
  0
ARC
  5
260B3
  8
0
 10
3183.5265860353079006
 20
128.358553583811613
 30
0.0
 40
0.0766177152737664
 50
203.7385132302007094
 51
233.2264177690427971
  0
ARC
  5
260B4
  8
0
 10
3184.3677234436231629
 20
127.3291707626835034
 30
0.0
 40
0.0626077073140664
 50
26.8533609866668286
 51
63.1477904621637904
  0
ARC
  5
260B5
  8
0
 10
3184.4546934472818975
 20
127.4161425141594037
 30
0.0
 40
0.0664283359496651
 50
207.9302068923273907
 51
242.0709445565157125
  0
ARC
  5
260B6
  8
0
 10
3184.314184447786829
 20
127.2756983746790951
 30
0.0
 40
0.0789264708352596
 50
30.6620521066543503
 51
59.2689185997171819
  0
ARC
  5
260B7
  8
0
 10
3184.413414650418872
 20
127.3748090978677965
 30
0.0
 40
0.0666830953197556
 50
207.9627063771802113
 51
241.9682643292202044
  0
ARC
  5
260B8
  8
0
 10
3184.2828129560871275
 20
127.2443268817791022
 30
0.0
 40
0.0789264708352596
 50
30.6620521066543503
 51
59.2689185997171819
  0
ARC
  5
260B9
  8
0
 10
3184.3820431587191706
 20
127.3434376049678036
 30
0.0
 40
0.0666830953197556
 50
207.9627063771802113
 51
241.9682643292202044
  0
ARC
  5
260BA
  8
0
 10
3184.1926159663648832
 20
127.1542129476561058
 30
0.0
 40
0.1750621174035228
 50
38.5703082312061483
 51
51.3606624751798932
  0
ARC
  5
260BB
  8
0
 10
3184.4413489614858008
 20
127.4026464525119025
 30
0.0
 40
0.1786444907961348
 50
218.6990703938579941
 51
231.2319003125388974
  0
ARC
  5
260BC
  8
0
 10
3184.7142279339382185
 20
126.8757037973429931
 30
0.0
 40
0.0789264708352596
 50
30.6620521066543503
 51
59.2689185997171819
  0
ARC
  5
260BD
  8
0
 10
3184.8134581365698068
 20
126.9748145205316945
 30
0.0
 40
0.0666830953197556
 50
207.9627063771802113
 51
241.9682643292202044
  0
ARC
  5
260BE
  8
0
 10
3184.8763202749510128
 20
126.8133588576555013
 30
0.0
 40
0.0675927778548915
 50
31.77489745344635
 51
65.3094607039879804
  0
ARC
  5
260BF
  8
0
 10
3184.9620171387891787
 20
126.9103653460690992
 30
0.0
 40
0.0675927779264198
 50
211.7748974717098065
 51
245.3094606857206941
  0
ARC
  5
260C0
  8
0
 10
3184.7637865016008618
 20
126.6469134174052016
 30
0.0
 40
0.160341841397428
 50
41.6608054142479602
 51
55.6306214093583193
  0
ARC
  5
260C1
  8
0
 10
3184.9692445684008817
 20
126.8803350160052048
 30
0.0
 40
0.153059359302515
 50
221.3266897506155999
 51
235.9647370729938984
  0
ARC
  5
260C2
  8
0
 10
3184.4730134308138076
 20
126.7680789798177017
 30
0.0
 40
0.2497038649242556
 50
42.7637845431041725
 51
51.7212547964444198
  0
ARC
  5
260C3
  8
0
 10
3184.8110237926612172
 20
127.133640769620996
 30
0.0
 40
0.2497030773565619
 50
222.7637703882616051
 51
231.7212689512913926
  0
ARC
  5
260C4
  8
0
 10
3185.0545833538108127
 20
126.5321255943781011
 30
0.0
 40
0.0814284658038985
 50
36.1718962112226023
 51
63.877212986054829
  0
ARC
  5
260C5
  8
0
 10
3185.1748412707488569
 20
126.6755681978339965
 30
0.0
 40
0.1098672737282645
 50
219.8032183764287026
 51
240.2458908208417938
  0
ARC
  5
260C6
  8
0
 10
3185.2883464241908769
 20
126.3513358436193954
 30
0.0
 40
0.102476550423911
 50
40.5072171169711694
 51
62.4444252950303067
  0
ARC
  5
260C7
  8
0
 10
3185.4038093385138382
 20
126.4963669529552988
 30
0.0
 40
0.0869888418996911
 50
218.5230736446409026
 51
244.4285687673595078
  0
ARC
  5
260C8
  8
0
 10
3185.1968592799407816
 20
126.1978529403362046
 30
0.0
 40
0.2168068103113978
 50
46.3160058702173316
 51
56.6356365417745167
  0
ARC
  5
260C9
  8
0
 10
3185.4511527987838235
 20
126.5172669387669941
 30
0.0
 40
0.1933349668678581
 50
225.687555386392404
 51
237.2640870255877985
  0
ARC
  5
260CA
  8
0
 10
3185.5447171521577729
 20
126.0134048048932982
 30
0.0
 40
0.1605547908309117
 50
46.5126461145872909
 51
60.4647149883848201
  0
ARC
  5
260CB
  8
0
 10
3185.7346177037020425
 20
126.2699346634483959
 30
0.0
 40
0.1609896047289192
 50
226.5315808354270075
 51
240.445780267547093
  0
ENDSEC
  0
EOF
