  0
SECTION
  2
HEADER
  9
$ACADVER
  1
AC1009
  9
$INSBASE
 10
4430.9974108689757486
 20
474.607556958834607
 30
0.0
  9
$EXTMIN
 10
4424.0755997961769026
 20
468.685455365058715
 30
-0.0015258207003583
  9
$EXTMAX
 10
4437.9573312077127412
 20
475.7633216684070021
 30
0.0000000349246037
  9
$LIMMIN
 10
0.0
 20
0.0
  9
$LIMMAX
 10
11.6929133858000007
 20
8.2677165353999982
  9
$ORTHOMODE
 70
     0
  9
$REGENMODE
 70
     1
  9
$FILLMODE
 70
     1
  9
$QTEXTMODE
 70
     0
  9
$MIRRTEXT
 70
     0
  9
$DRAGMODE
 70
     2
  9
$LTSCALE
 40
0.6431102362
  9
$OSMODE
 70
  4095
  9
$ATTMODE
 70
     1
  9
$TEXTSIZE
 40
0.2
  9
$TRACEWID
 40
0.05
  9
$TEXTSTYLE
  7
STANDARD
  9
$CLAYER
  8
0
  9
$CELTYPE
  6
BYLAYER
  9
$CECOLOR
 62
   256
  9
$DIMSCALE
 40
1.0
  9
$DIMASZ
 40
0.1875
  9
$DIMEXO
 40
0.0625
  9
$DIMDLI
 40
0.4443307087
  9
$DIMRND
 40
0.0
  9
$DIMDLE
 40
0.0
  9
$DIMEXE
 40
0.125
  9
$DIMTP
 40
0.01
  9
$DIMTM
 40
0.01
  9
$DIMTXT
 40
2.0
  9
$DIMCEN
 40
0.1052362205
  9
$DIMTSZ
 40
0.0
  9
$DIMTOL
 70
     1
  9
$DIMLIM
 70
     0
  9
$DIMTIH
 70
     1
  9
$DIMTOH
 70
     1
  9
$DIMSE1
 70
     0
  9
$DIMSE2
 70
     0
  9
$DIMTAD
 70
     0
  9
$DIMZIN
 70
     0
  9
$DIMBLK
  1

  9
$DIMASO
 70
     1
  9
$DIMSHO
 70
     1
  9
$DIMPOST
  1
\X
  9
$DIMAPOST
  1

  9
$DIMALT
 70
     1
  9
$DIMALTD
 70
     2
  9
$DIMALTF
 40
25.3999999999999986
  9
$DIMLFAC
 40
1.0
  9
$DIMTOFL
 70
     0
  9
$DIMTVP
 40
0.0
  9
$DIMTIX
 70
     0
  9
$DIMSOXD
 70
     0
  9
$DIMSAH
 70
     0
  9
$DIMBLK1
  1

  9
$DIMBLK2
  1

  9
$DIMSTYLE
  2
STANDARD
  9
$DIMCLRD
 70
     0
  9
$DIMCLRE
 70
     0
  9
$DIMCLRT
 70
     0
  9
$DIMTFAC
 40
1.0
  9
$DIMGAP
 40
0.09
  9
$LUNITS
 70
     2
  9
$LUPREC
 70
     4
  9
$SKETCHINC
 40
0.1
  9
$FILLETRAD
 40
0.0
  9
$AUNITS
 70
     0
  9
$AUPREC
 70
     0
  9
$MENU
  1
.
  9
$ELEVATION
 40
0.0
  9
$PELEVATION
 40
0.0
  9
$THICKNESS
 40
0.0
  9
$LIMCHECK
 70
     0
  9
$BLIPMODE
 70
     0
  9
$CHAMFERA
 40
0.0
  9
$CHAMFERB
 40
0.0
  9
$SKPOLY
 70
     0
  9
$TDCREATE
 40
2458060.468368056230247
  9
$TDUPDATE
 40
2459361.6748379641212523
  9
$TDINDWG
 40
1.4648504282000001
  9
$TDUSRTIMER
 40
1.4648504282000001
  9
$USRTIMER
 70
     1
  9
$ANGBASE
 50
0.0
  9
$ANGDIR
 70
     0
  9
$PDMODE
 70
     0
  9
$PDSIZE
 40
0.3125
  9
$PLINEWID
 40
0.0
  9
$COORDS
 70
     1
  9
$SPLFRAME
 70
     0
  9
$SPLINETYPE
 70
     6
  9
$SPLINESEGS
 70
     8
  9
$ATTDIA
 70
     1
  9
$ATTREQ
 70
     1
  9
$HANDLING
 70
     1
  9
$HANDSEED
  5
21F19
  9
$SURFTAB1
 70
     6
  9
$SURFTAB2
 70
     6
  9
$SURFTYPE
 70
     6
  9
$SURFU
 70
     6
  9
$SURFV
 70
     6
  9
$UCSNAME
  2

  9
$UCSORG
 10
0.0
 20
0.0
 30
0.0
  9
$UCSXDIR
 10
1.0
 20
0.0
 30
0.0
  9
$UCSYDIR
 10
0.0
 20
1.0
 30
0.0
  9
$PUCSNAME
  2

  9
$PUCSORG
 10
0.0
 20
0.0
 30
0.0
  9
$PUCSXDIR
 10
1.0
 20
0.0
 30
0.0
  9
$PUCSYDIR
 10
0.0
 20
1.0
 30
0.0
  9
$USERI1
 70
     0
  9
$USERI2
 70
     0
  9
$USERI3
 70
     0
  9
$USERI4
 70
     0
  9
$USERI5
 70
     0
  9
$USERR1
 40
0.0
  9
$USERR2
 40
0.0
  9
$USERR3
 40
0.0
  9
$USERR4
 40
0.0
  9
$USERR5
 40
0.0
  9
$WORLDVIEW
 70
     1
  9
$SHADEDGE
 70
     3
  9
$SHADEDIF
 70
    70
  9
$TILEMODE
 70
     1
  9
$MAXACTVP
 70
    64
  9
$PLIMCHECK
 70
     0
  9
$PEXTMIN
 10
1.0000000000000000E+20
 20
1.0000000000000000E+20
 30
1.0000000000000000E+20
  9
$PEXTMAX
 10
-1.0000000000000000E+20
 20
-1.0000000000000000E+20
 30
-1.0000000000000000E+20
  9
$PLIMMIN
 10
0.0
 20
0.0
  9
$PLIMMAX
 10
12.0
 20
9.0
  9
$UNITMODE
 70
     0
  9
$VISRETAIN
 70
     1
  9
$PLINEGEN
 70
     0
  9
$PSLTSCALE
 70
     1
  0
ENDSEC
  0
SECTION
  2
TABLES
  0
TABLE
  2
VPORT
 70
     1
  0
VPORT
  2
*ACTIVE
 70
     0
 10
0.0
 20
0.0
 11
1.0
 21
1.0
 12
519.6511090566326629
 22
339.644783414193796
 13
0.0
 23
0.0
 14
1.0
 24
1.0
 15
0.0
 25
0.0
 16
0.0
 26
0.0
 36
60.4960186965801583
 17
3911.3653564453120453
 27
132.5796051025390057
 37
0.0
 40
7.1367667164137174
 41
2.6486111111111108
 42
50.0
 43
0.0
 44
0.0
 50
0.0
 51
0.0
 71
     0
 72
   100
 73
     1
 74
     1
 75
     0
 76
     0
 77
     0
 78
     0
  0
ENDTAB
  0
TABLE
  2
LTYPE
 70
     2
  0
LTYPE
  2
CONTINUOUS
 70
     0
  3
Solid line
 72
    65
 73
     0
 40
0.0
  0
LTYPE
  2
PHANTOM2
 70
     0
  3
___ _ _ ___ _ _ ___ _ _ ___ _ _
 72
    65
 73
     6
 40
1.25
 49
0.625
 49
-0.125
 49
0.125
 49
-0.125
 49
0.125
 49
-0.125
  0
ENDTAB
  0
TABLE
  2
LAYER
 70
     2
  0
LAYER
  2
0
 70
     0
 62
   255
  6
CONTINUOUS
  0
LAYER
  2
DEFPOINTS
 70
     0
 62
     7
  6
CONTINUOUS
  0
ENDTAB
  0
TABLE
  2
STYLE
 70
     1
  0
STYLE
  2
STANDARD
 70
     0
 40
0.0
 41
0.8
 50
0.0
 71
     0
 42
0.2
  3
txt
  4

  0
ENDTAB
  0
TABLE
  2
VIEW
 70
     0
  0
ENDTAB
  0
TABLE
  2
UCS
 70
     0
  0
ENDTAB
  0
TABLE
  2
APPID
 70
    11
  0
APPID
  2
ACAD
 70
     0
  0
APPID
  2
ACAD_MLEADERVER
 70
     0
  0
APPID
  2
ACAD_EXEMPT_FROM_CAD_STANDARDS
 70
     0
  0
APPID
  2
ACAD_NAV_VCDISPLAY
 70
     0
  0
APPID
  2
ACAECLAYERSTANDARD
 70
     0
  0
APPID
  2
ACCMTRANSPARENCY
 70
     0
  0
APPID
  2
ACAD_DSTYLE_DIMJAG
 70
     0
  0
APPID
  2
ACAD_DSTYLE_DIMTALN
 70
     0
  0
APPID
  2
ACDBATTR
 70
     0
  0
APPID
  2
ACADANNOTATIVE
 70
     0
  0
APPID
  2
DCO15
 70
     0
  0
ENDTAB
  0
TABLE
  2
DIMSTYLE
 70
     1
  0
DIMSTYLE
  2
STANDARD
 70
     0
  3

  4

  5

  6

  7

 40
1.0
 41
0.1875
 42
0.0625
 43
0.38
 44
0.125
 45
0.0
 46
0.0
 47
0.01
 48
0.01
140
0.15625
141
0.09
142
0.0
143
25.3999999999999986
144
1.0
145
0.0
146
1.0
147
0.09
 71
     1
 72
     0
 73
     1
 74
     1
 75
     0
 76
     0
 77
     0
 78
     4
170
     0
171
     2
172
     0
173
     0
174
     0
175
     0
176
     0
177
     0
178
     0
  0
ENDTAB
  0
ENDSEC
  0
SECTION
  2
BLOCKS
  0
BLOCK
  8
0
  2
$MODEL_SPACE
 70
     0
 10
0.0
 20
0.0
 30
0.0
  3
$MODEL_SPACE
  1

  0
ENDBLK
  5
21
  8
0
  0
BLOCK
 67
     1
  8
0
  2
$PAPER_SPACE
 70
     0
 10
0.0
 20
0.0
 30
0.0
  3
$PAPER_SPACE
  1

  0
ENDBLK
  5
1D
 67
     1
  8
0
  0
ENDSEC
  0
SECTION
  2
ENTITIES
  0
ATTDEF
  5
2122F
  8
DEFPOINTS
 10
4430.9978625675212243
 20
474.611807855135396
 30
0.0
 40
0.001
  1
P24900-SNW
  3

  2
MODELNUMBER
 70
     0
1001
ACDBATTR
1070
     0
1070
     1
  0
ATTDEF
  5
21230
  8
DEFPOINTS
 10
4430.9978625675212243
 20
474.6101410147562092
 30
0.0
 40
0.001
  1
PINNA PALETTA
  3

  2
TRADENAME
 70
     0
1001
ACDBATTR
1070
     0
1070
     1
  0
ATTDEF
  5
21231
  8
DEFPOINTS
 10
4430.9978625675212243
 20
474.6084745218021226
 30
0.0
 40
0.001
  1
BATHROOM SINK FAUCET
  3

  2
PRODUCT
 70
     0
1001
ACDBATTR
1070
     0
1070
     1
  0
LINE
  5
21C24
  8
0
 10
4431.4992266929166362
 20
474.4564258378201771
 30
0.0
 11
4431.4992205029584511
 21
473.6810876871484766
 31
0.0
  0
ARC
  5
21C25
  8
0
 10
4430.9974108689757486
 20
474.607556958834607
 30
0.0
 40
1.1410011490933849
 50
296.1000196130485733
 51
243.9003097497271995
  0
ARC
  5
21C26
  8
0
 10
4430.9974108694077586
 20
474.607556958834607
 30
0.0
 40
1.038229644100003
 50
298.9134497833504724
 51
241.086921504359708
  0
ARC
  5
21C27
  8
0
 10
4430.9974108694077586
 20
474.607556958834607
 30
0.0
 40
0.801513645999999
 50
308.7761503824352758
 51
231.2243896294961871
  0
ARC
  5
21C28
  8
0
 10
4430.9974108694077586
 20
474.607556958834607
 30
0.0
 40
0.8744881890000019
 50
305.0308500873335902
 51
234.969621140736308
  0
LINE
  5
21C29
  8
0
 10
4426.1017415781088857
 20
474.2041651404649087
 30
0.0
 11
4424.2575610807080011
 21
474.2080627782648889
 31
0.0
  0
LINE
  5
21C2A
  8
0
 10
4424.2575610807080011
 20
475.0073541168649172
 30
0.0
 11
4426.1017415781088857
 21
475.0112517546648974
 31
0.0
  0
ARC
  5
21C2B
  8
0
 10
4425.8495966947248235
 20
473.3013445880862946
 30
0.0
 40
1.71617213293269
 50
81.5513575170901959
 51
85.0182870976126139
  0
ARC
  5
21C2C
  8
0
 10
4425.7974456779320462
 20
473.5358205987449765
 30
0.0
 40
1.478300322126052
 50
78.1212222717738456
 51
86.1688735075667296
  0
ARC
  5
21C2D
  8
0
 10
4425.9233872659342524
 20
474.5785165223778108
 30
0.0
 40
0.4186788190119322
 50
64.7864567390853807
 51
82.6109435620155352
  0
ARC
  5
21C2E
  8
0
 10
4425.6734272009225606
 20
472.6510482988028912
 30
0.0
 40
2.3622872638872932
 50
82.6109435620155352
 51
87.2359617982519069
  0
ARC
  5
21C2F
  8
0
 10
4425.8218363835858327
 20
474.3707848666085738
 30
0.0
 40
0.6251289924814833
 50
63.4002042833375583
 51
84.9974046138045622
  0
ARC
  5
21C30
  8
0
 10
4425.5395901224792397
 20
471.1463775906706246
 30
0.0
 40
3.861865811104745
 50
84.9974046138045622
 51
88.4915837007382038
  0
ARC
  5
21C31
  8
0
 10
4425.3774038557594395
 20
469.531024455242914
 30
0.0
 40
5.48223345269282
 50
87.2414419990182637
 51
88.0592704215820561
  0
ARC
  5
21C32
  8
0
 10
4425.7601997960437075
 20
474.2403685567018101
 30
0.0
 40
0.7497792008703686
 50
62.9014004412769765
 51
82.6223494191020222
  0
ARC
  5
21C33
  8
0
 10
4425.396026496225204
 20
471.4278002025992009
 30
0.0
 40
3.5858262630327542
 50
82.6223494191020222
 51
86.3619318538704164
  0
ARC
  5
21C34
  8
0
 10
4425.4192152518462535
 20
471.0686464930462876
 30
0.0
 40
3.9430523239669242
 50
87.0293710690889242
 51
88.3431037008103175
  0
ARC
  5
21C35
  8
0
 10
4425.6409092841249731
 20
474.0652659852901252
 30
0.0
 40
0.9232179098075507
 50
60.0556413384030918
 51
83.9717582063260863
  0
ARC
  5
21C36
  8
0
 10
4424.9410441059062578
 20
466.5872835275960142
 30
0.0
 40
8.4338210351395269
 50
84.5786572178400462
 51
87.023196124789564
  0
ARC
  5
21C37
  8
0
 10
4425.5591317746429922
 20
473.9608917289618262
 30
0.0
 40
1.026485065716344
 50
58.0884445638406604
 51
84.6546948964383716
  0
ARC
  5
21C38
  8
0
 10
4425.1131306739371212
 20
470.3131079565436039
 30
0.0
 40
4.701110282188262
 50
83.384122710887624
 51
87.460825523392586
  0
ARC
  5
21C39
  8
0
 10
4425.4929162801709026
 20
473.8902374817835721
 30
0.0
 40
1.085872090794606
 50
55.8972560865352932
 51
83.3577342230459948
  0
ARC
  5
21C3A
  8
0
 10
4424.957281358642831
 20
470.0769586136486851
 30
0.0
 40
4.9363500367974931
 50
82.3019333304223153
 51
87.6780494434379136
  0
ARC
  5
21C3B
  8
0
 10
4425.3066300358823355
 20
473.3754926940854943
 30
0.0
 40
1.606126153988056
 50
60.3270022442834488
 51
78.9572027280635496
  0
ARC
  5
21C3C
  8
0
 10
4425.0865975133829124
 20
472.248020436256013
 30
0.0
 40
2.754868075889044
 50
78.9572027280635496
 51
86.660881910333714
  0
ARC
  5
21C3D
  8
0
 10
4416.9367586374046368
 20
358.3947978703234867
 30
0.0
 40
116.8991750472457056
 50
85.9234360785726352
 51
85.9993430157501422
  0
ARC
  5
21C3E
  8
0
 10
4425.1180667760581855
 20
472.9750353233741862
 30
0.0
 40
2.0111293979495581
 50
60.717529605475697
 51
77.550662062823605
  0
ARC
  5
21C3F
  8
0
 10
4425.042231228449964
 20
472.6315261463807929
 30
0.0
 40
2.362909990023347
 50
77.550662062823605
 51
85.1278673168193336
  0
ARC
  5
21C40
  8
0
 10
4424.2127024710498517
 20
461.0109401042691957
 30
0.0
 40
14.01287984699551
 50
85.783854334558896
 51
87.3326303727484969
  0
ARC
  5
21C41
  8
0
 10
4425.0236814492973281
 20
472.8237186318921772
 30
0.0
 40
2.1614904047601522
 50
60.0821514639256193
 51
77.8944011940906051
  0
ARC
  5
21C42
  8
0
 10
4424.7726089571287957
 20
471.2684329206886105
 30
0.0
 40
3.7357155166622049
 50
79.1318495957129784
 51
86.7995974673980157
  0
ARC
  5
21C43
  8
0
 10
4425.2471145171703029
 20
482.7578648918408817
 30
0.0
 40
7.7640988849878321
 50
266.4771544013348148
 51
268.0370458690467785
  0
ARC
  5
21C44
  8
0
 10
4424.8107186758161333
 20
472.3809275697993826
 30
0.0
 40
2.6109506637519702
 50
60.3655426243234672
 51
86.6092173245791344
  0
ARC
  5
21C45
  8
0
 10
4421.5696045337599571
 20
413.2995627225485009
 30
0.0
 40
61.7811260795241566
 50
86.849389896245512
 51
87.2204723761116867
  0
ARC
  5
21C46
  8
0
 10
4424.6657633758431984
 20
472.0608638263685748
 30
0.0
 40
2.9321117929488252
 50
60.6763766536774796
 51
84.1119207801498447
  0
ARC
  5
21C47
  8
0
 10
4424.2973029909817342
 20
466.8559981850434042
 30
0.0
 40
8.1490363758534965
 50
85.2891858502348867
 51
90.2794260142795508
  0
ARC
  5
21C48
  8
0
 10
4426.9601727926738022
 20
477.0789018237665005
 30
0.0
 40
2.6291523440968079
 50
243.9256622037351008
 51
249.4591892268161075
  0
ARC
  5
21C49
  8
0
 10
4424.6121434045180649
 20
472.1576647746541084
 30
0.0
 40
2.823785592196177
 50
65.0215681102781957
 51
79.2740266056623568
  0
ARC
  5
21C4A
  8
0
 10
4424.2712587225059906
 20
469.6234182127428198
 30
0.0
 40
5.378935836800216
 50
80.7305603043006386
 51
90.1459057955403154
  0
ARC
  5
21C4B
  8
0
 10
4426.48442290273033
 20
476.1519151433117258
 30
0.0
 40
1.621694684695236
 50
244.5159669541986887
 51
250.9511633203680105
  0
ARC
  5
21C4C
  8
0
 10
4424.5246157161664087
 20
472.0401454527051897
 30
0.0
 40
2.9332470489708888
 50
64.5159669541987171
 51
83.1568619145900101
  0
ARC
  5
21C4D
  8
0
 10
4424.0630788778653368
 20
468.5815047297911065
 30
0.0
 40
6.4224073065786209
 50
82.7451746196126265
 51
88.2647140570779953
  0
ARC
  5
21C4E
  8
0
 10
4424.3050750199072354
 20
471.428288680091498
 30
0.0
 40
3.5560502580703188
 50
64.0329625575009374
 51
77.2395996288030346
  0
ARC
  5
21C4F
  8
0
 10
4424.0564268204689142
 20
469.6408850955290859
 30
0.0
 40
5.3563942230179258
 50
78.868763793768224
 51
87.8480198262999039
  0
ARC
  5
21C50
  8
0
 10
4424.2823467958742185
 20
471.4738048907681787
 30
0.0
 40
3.494031872025618
 50
64.6931117790550587
 51
75.2459817594670142
  0
ARC
  5
21C51
  8
0
 10
4424.1325832189713765
 20
470.7526847485236203
 30
0.0
 40
4.229693720386944
 50
75.7718740009989347
 51
88.3067931492461184
  0
ARC
  5
21C52
  8
0
 10
4424.0805246520685614
 20
470.8375431023692954
 30
0.0
 40
4.1334608378885642
 50
66.7970255611851513
 51
76.9640490128342947
  0
ARC
  5
21C53
  8
0
 10
4423.966191022388557
 20
470.1325337853691053
 30
0.0
 40
4.8463246572205234
 50
77.5272414255154132
 51
86.5531924731062645
  0
ARC
  5
21C54
  8
0
 10
4423.5917996346961445
 20
469.3078080626564201
 30
0.0
 40
5.7146203565175497
 50
68.8598019492637121
 51
75.4130889244184885
  0
ARC
  5
21C55
  8
0
 10
4424.0697912033474495
 20
470.9751433146507793
 30
0.0
 40
3.9808760954855291
 50
76.0272225500980738
 51
87.2964708047120865
  0
ARC
  5
21C56
  8
0
 10
4423.7953693335311982
 20
469.9065631000781877
 30
0.0
 40
5.0536633508392459
 50
69.5765606151778968
 51
84.7525802263079555
  0
ARC
  5
21C57
  8
0
 10
4423.8338169025973912
 20
469.9485478084001784
 30
0.0
 40
4.9852455871586674
 50
70.3379796306927432
 51
85.1239947026292043
  0
ARC
  5
21C58
  8
0
 10
4423.7499071639458634
 20
469.9247923785121088
 30
0.0
 40
5.0033635727664487
 50
70.6580862722384921
 51
84.1766044347167934
  0
ARC
  5
21C59
  8
0
 10
4425.8227150108450587
 20
476.7750258217080841
 30
0.0
 40
2.1832325545043711
 50
252.2792645602553989
 51
257.2723874711816165
  0
ARC
  5
21C5A
  8
0
 10
4423.836818636935277
 20
470.3971252663206997
 30
0.0
 40
4.4967820773516038
 50
72.9115499469515811
 51
84.6312543600903098
  0
ARC
  5
21C5B
  8
0
 10
4423.5729026152512233
 20
469.4074606921287227
 30
0.0
 40
5.4911270501208467
 50
72.8324188299824442
 51
82.8374632085746327
  0
ARC
  5
21C5C
  8
0
 10
4423.5168464974540257
 20
468.8770315521218777
 30
0.0
 40
5.9929056074353841
 50
74.5502557880758161
 51
82.9001676379098456
  0
ARC
  5
21C5D
  8
0
 10
4423.3941330830602965
 20
468.5025382889047023
 30
0.0
 40
6.3535153462871161
 50
75.5470074694669904
 51
82.1894684135002365
  0
ARC
  5
21C5E
  8
0
 10
4423.188471860034042
 20
466.2840353752810074
 30
0.0
 40
8.5420800264768921
 50
78.2512107355313731
 51
82.8102579579397968
  0
ARC
  5
21C5F
  8
0
 10
4423.3713369207280266
 20
468.1445656463862974
 30
0.0
 40
6.6476653946915789
 50
77.5858519547819441
 51
82.3388855551890373
  0
ARC
  5
21C60
  8
0
 10
4424.0319962372277587
 20
471.2780134537313756
 30
0.0
 40
3.4252022843293699
 50
78.2482555142756837
 51
86.2240848371364308
  0
ARC
  5
21C61
  8
0
 10
4423.6696908835483555
 20
469.0057000616936875
 30
0.0
 40
5.6927336437344511
 50
80.7519146864656534
 51
84.0726832543701619
  0
ARC
  5
21C62
  8
0
 10
4423.8865807246511395
 20
470.7069815305201814
 30
0.0
 40
3.9502053186082482
 50
81.5702001478036181
 51
82.4048307020209734
  0
ARC
  5
21C63
  8
0
 10
4424.2805190030076119
 20
473.6613116142663102
 30
0.0
 40
0.9697265632936835
 50
82.4048307020209734
 51
91.3565834039359999
  0
ARC
  5
21C64
  8
0
 10
4425.8495966947248235
 20
475.9140723072436003
 30
0.0
 40
1.71617213293269
 50
274.981712862737993
 51
278.4486424829098041
  0
ARC
  5
21C65
  8
0
 10
4425.7974456779320462
 20
475.6795962965848048
 30
0.0
 40
1.478300322126052
 50
273.8311264299697996
 51
281.8787777282262255
  0
ARC
  5
21C66
  8
0
 10
4425.9233872659342524
 20
474.6369003729520841
 30
0.0
 40
0.4186788190119322
 50
277.3890564379843795
 51
295.2135432609146051
  0
ARC
  5
21C67
  8
0
 10
4425.6734272009225606
 20
476.5643685965271175
 30
0.0
 40
2.3622872638872932
 50
272.7640381453513214
 51
277.3890564379843795
  0
ARC
  5
21C68
  8
0
 10
4425.8218363835858327
 20
474.8446320287213211
 30
0.0
 40
0.6251289924814833
 50
275.0025953861954804
 51
296.5997957166624133
  0
ARC
  5
21C69
  8
0
 10
4425.5395901224792397
 20
478.069039304659384
 30
0.0
 40
3.861865811104745
 50
271.5084162992617962
 51
275.0025953861954804
  0
ARC
  5
21C6A
  8
0
 10
4425.3774038557594395
 20
479.6843924400869241
 30
0.0
 40
5.48223345269282
 50
271.9407295408771006
 51
272.7585580009816795
  0
ARC
  5
21C6B
  8
0
 10
4425.7601997960437075
 20
474.975048338628028
 30
0.0
 40
0.7497792008703686
 50
277.3776505808979778
 51
297.0985995587230946
  0
ARC
  5
21C6C
  8
0
 10
4425.396026496225204
 20
477.7876166927305803
 30
0.0
 40
3.5858262630327542
 50
273.6380681461296263
 51
277.3776505808979778
  0
ARC
  5
21C6D
  8
0
 10
4425.4192152518462535
 20
478.1467704022834937
 30
0.0
 40
3.9430523239669242
 50
271.656896237934518
 51
272.9706289309111185
  0
ARC
  5
21C6E
  8
0
 10
4425.6409092841249731
 20
475.1501509100398266
 30
0.0
 40
0.9232179098075507
 50
276.0282417936738852
 51
299.9443586615968798
  0
ARC
  5
21C6F
  8
0
 10
4424.9410441059062578
 20
482.6281333677338807
 30
0.0
 40
8.4338210351395269
 50
272.9768038577299194
 51
275.4213427821600249
  0
ARC
  5
21C70
  8
0
 10
4425.5591317746429922
 20
475.2545251663681256
 30
0.0
 40
1.026485065716344
 50
275.3453051035615999
 51
301.9115554361594036
  0
ARC
  5
21C71
  8
0
 10
4425.1131306739371212
 20
478.9023089387861205
 30
0.0
 40
4.701110282188262
 50
272.539174439259682
 51
276.6158772891122908
  0
ARC
  5
21C72
  8
0
 10
4425.4929162801709026
 20
475.3251794135463228
 30
0.0
 40
1.085872090794606
 50
276.642265776953991
 51
304.1027439134646784
  0
ARC
  5
21C73
  8
0
 10
4424.957281358642831
 20
479.1384582816812099
 30
0.0
 40
4.9363500367974931
 50
272.321950515361209
 51
277.6980666695777131
  0
ARC
  5
21C74
  8
0
 10
4425.3066300358823355
 20
475.8399242012442869
 30
0.0
 40
1.606126153988056
 50
281.0427972719364789
 51
299.672997755716608
  0
ARC
  5
21C75
  8
0
 10
4425.0865975133829124
 20
476.9673964590738819
 30
0.0
 40
2.754868075889044
 50
273.3391180896662718
 51
281.0427972719364789
  0
ARC
  5
21C76
  8
0
 10
4416.9367586374046368
 20
590.8206190250064083
 30
0.0
 40
116.8991750472457056
 50
274.0006569832052037
 51
274.0765639214274074
  0
ARC
  5
21C77
  8
0
 10
4425.1180667760581855
 20
476.2403815719555951
 30
0.0
 40
2.0111293979495581
 50
282.4493379371763808
 51
299.2824703945242959
  0
ARC
  5
21C78
  8
0
 10
4425.042231228449964
 20
476.5838907489492158
 30
0.0
 40
2.362909990023347
 50
274.8721326831806095
 51
282.4493379371763808
  0
ARC
  5
21C79
  8
0
 10
4424.2127024710498517
 20
488.2044767910605856
 30
0.0
 40
14.01287984699551
 50
272.6673696132186251
 51
274.216145665441104
  0
ARC
  5
21C7A
  8
0
 10
4425.0236814492973281
 20
476.3916982634376041
 30
0.0
 40
2.1614904047601522
 50
282.1055988059093806
 51
299.9178485360744162
  0
ARC
  5
21C7B
  8
0
 10
4424.7726089571287957
 20
477.9469839746412276
 30
0.0
 40
3.7357155166622049
 50
273.2004025326020269
 51
280.8681504042870074
  0
ARC
  5
21C7C
  8
0
 10
4425.2471145171703029
 20
466.4575520034888996
 30
0.0
 40
7.7640988849878321
 50
91.9629541309532215
 51
93.5228456186611936
  0
ARC
  5
21C7D
  8
0
 10
4424.8107186758161333
 20
476.834489325530626
 30
0.0
 40
2.6109506637519702
 50
273.3907826754208941
 51
299.6344573756765044
  0
ARC
  5
21C7E
  8
0
 10
4421.5696045337599571
 20
535.9158541727808824
 30
0.0
 40
61.7811260795236592
 50
272.7795276204972197
 51
273.1506101037545022
  0
ARC
  5
21C7F
  8
0
 10
4426.9601727926738022
 20
472.1365150715633945
 30
0.0
 40
2.6291523440968079
 50
110.5408107731839067
 51
116.0743377962648992
  0
ARC
  5
21C80
  8
0
 10
4424.6121434045180649
 20
477.0577521206757865
 30
0.0
 40
2.823785592196177
 50
280.7259733943377
 51
294.9784318897217759
  0
ARC
  5
21C81
  8
0
 10
4424.2712587225059906
 20
479.5919986825870751
 30
0.0
 40
5.3789358368002151
 50
269.8540942044597273
 51
279.2694396956993046
  0
ARC
  5
21C82
  8
0
 10
4426.48442290273033
 20
473.0635017520182259
 30
0.0
 40
1.621694684695236
 50
109.0488366796319042
 51
115.4840330458012971
  0
ARC
  5
21C83
  8
0
 10
4424.5246157161664087
 20
477.1752714426247053
 30
0.0
 40
2.9332470489708888
 50
276.8431380854099757
 51
295.4840330458013113
  0
ARC
  5
21C84
  8
0
 10
4424.0630788778653368
 20
480.6339121655387885
 30
0.0
 40
6.4224073065786147
 50
271.7352859429220189
 51
277.254825380387274
  0
ARC
  5
21C85
  8
0
 10
4424.3050750199072354
 20
477.7871282152383969
 30
0.0
 40
3.5560502580703188
 50
282.7604003711970222
 51
295.96703744249902
  0
ARC
  5
21C86
  8
0
 10
4424.0564268204689142
 20
479.574531799800809
 30
0.0
 40
5.3563942230179311
 50
272.1519801737001103
 51
281.1312362062317902
  0
ARC
  5
21C87
  8
0
 10
4424.2823467958742185
 20
477.7416120045616026
 30
0.0
 40
3.494031872025618
 50
284.7540182405330143
 51
295.3068882209449839
  0
ARC
  5
21C88
  8
0
 10
4424.1325832189713765
 20
478.4627321468062746
 30
0.0
 40
4.229693720386944
 50
271.6932068507538247
 51
284.2281259990011222
  0
ARC
  5
21C89
  8
0
 10
4424.0805246520685614
 20
478.3778737929605995
 30
0.0
 40
4.1334608378885642
 50
283.0359509871656769
 51
293.2029744388149197
  0
ARC
  5
21C8A
  8
0
 10
4423.966191022388557
 20
479.0828831099607896
 30
0.0
 40
4.846324657220519
 50
273.4468075268936786
 51
282.4727585744844873
  0
ARC
  5
21C8B
  8
0
 10
4423.5917996346961445
 20
479.907608832673418
 30
0.0
 40
5.7146203565175497
 50
284.5869110755814972
 51
291.1401980507362737
  0
ARC
  5
21C8C
  8
0
 10
4424.0697912033474495
 20
478.240273580679002
 30
0.0
 40
3.9808760954855038
 50
272.7035291952878993
 51
283.972777449901912
  0
ARC
  5
21C8D
  8
0
 10
4423.7953693335311982
 20
479.3088537952517072
 30
0.0
 40
5.0536633508392343
 50
275.2474197736920019
 51
290.4234393848220748
  0
ARC
  5
21C8E
  8
0
 10
4423.8338169025973912
 20
479.2668690869296029
 30
0.0
 40
4.9852455871586647
 50
274.8760052973707957
 51
289.6620203693072995
  0
ARC
  5
21C8F
  8
0
 10
4423.7499071639458634
 20
479.2906245168177861
 30
0.0
 40
5.0033635727664523
 50
275.8233955652831924
 51
289.3419137277614936
  0
ARC
  5
21C90
  8
0
 10
4425.8227150108450587
 20
472.4403910736218108
 30
0.0
 40
2.1832325545043711
 50
102.7276125288183977
 51
107.7207354397446011
  0
ARC
  5
21C91
  8
0
 10
4423.836818636935277
 20
478.8182916290090247
 30
0.0
 40
4.4967820773515799
 50
275.3687456399097186
 51
287.0884500530484047
  0
ARC
  5
21C92
  8
0
 10
4423.5729026152512233
 20
479.8079562032012859
 30
0.0
 40
5.491127050120844
 50
277.1625367914253957
 51
287.1675811700176268
  0
ARC
  5
21C93
  8
0
 10
4423.5168464974540257
 20
480.3383853432079036
 30
0.0
 40
5.9929056074353806
 50
277.099832362090126
 51
285.4497442119242123
  0
ARC
  5
21C94
  8
0
 10
4423.3941330830602965
 20
480.7128786064251926
 30
0.0
 40
6.3535153462871232
 50
277.8105315864996783
 51
284.4529925305329812
  0
ARC
  5
21C95
  8
0
 10
4423.188471860034042
 20
482.9313815200488875
 30
0.0
 40
8.5420800264768975
 50
277.1897420420601748
 51
281.7487892644685985
  0
ARC
  5
21C96
  8
0
 10
4423.3713369207280266
 20
481.0708512489434838
 30
0.0
 40
6.6476653946915869
 50
277.6611144448108917
 51
282.4141480452179849
  0
ARC
  5
21C97
  8
0
 10
4424.0319962372277587
 20
477.9374034415985193
 30
0.0
 40
3.4252022843293179
 50
273.7759151628634982
 51
281.7517444857243163
  0
ARC
  5
21C98
  8
0
 10
4423.6696908835483555
 20
480.2097168336362074
 30
0.0
 40
5.692733643734444
 50
275.9273167456299234
 51
279.2480853135343182
  0
ARC
  5
21C99
  8
0
 10
4423.8865807246511395
 20
478.5084353648095998
 30
0.0
 40
3.9502053186082482
 50
277.5951692979789982
 51
278.4297998521964246
  0
ARC
  5
21C9A
  8
0
 10
4424.2805190030076119
 20
475.5541052810635279
 30
0.0
 40
0.9697265632936835
 50
268.6434165960640144
 51
277.5951692979789982
  0
ARC
  5
21C9B
  8
0
 10
4426.0318066706049649
 20
474.6077084476648906
 30
0.0
 40
0.0109063481135023
 50
302.5231555353096269
 51
57.4768444646903518
  0
ARC
  5
21C9C
  8
0
 10
4425.9503456923712292
 20
474.6077084476648906
 30
0.0
 40
0.0122901974052961
 50
292.9804166235791172
 51
67.0195833764209397
  0
ARC
  5
21C9D
  8
0
 10
4425.8409992503320609
 20
474.6077084476648906
 30
0.0
 40
0.0275031245136912
 50
320.1231851561013855
 51
39.8768148438986216
  0
ARC
  5
21C9E
  8
0
 10
4425.7635875666856009
 20
474.6077084476648906
 30
0.0
 40
0.0277099853556749
 50
296.4465207386382986
 51
63.5534792613617228
  0
ARC
  5
21C9F
  8
0
 10
4425.6840183690392223
 20
474.6077084476648906
 30
0.0
 40
0.0382888344227271
 50
310.8558762555467752
 51
49.1441237444532533
  0
ARC
  5
21CA0
  8
0
 10
4425.64008125035798
 20
474.6077084476648906
 30
0.0
 40
0.0326987546723539
 50
292.8611978575603985
 51
67.1388021424395447
  0
ARC
  5
21CA1
  8
0
 10
4425.5424531053640749
 20
474.6077084476648906
 30
0.0
 40
0.0385164461395762
 50
295.2330775189594192
 51
64.7669224810405524
  0
ARC
  5
21CA2
  8
0
 10
4425.503766032031308
 20
474.6077084476648906
 30
0.0
 40
0.0361876532131238
 50
281.8675633860465837
 51
78.1324366139534021
  0
ARC
  5
21CA3
  8
0
 10
4425.401649166239622
 20
474.6077084476648906
 30
0.0
 40
0.0384328824856712
 50
278.0705096419939082
 51
81.9294903580060634
  0
ARC
  5
21CA4
  8
0
 10
4425.3333560805112938
 20
474.6077084476648906
 30
0.0
 40
0.0386446298414099
 50
282.4892854280377037
 51
77.5107145719622821
  0
ARC
  5
21CA5
  8
0
 10
4425.1877495536937204
 20
474.6077084476648906
 30
0.0
 40
0.0466070487399395
 50
277.3410906734026184
 51
82.6589093265973247
  0
ARC
  5
21CA6
  8
0
 10
4425.100401322705693
 20
474.6077084476648906
 30
0.0
 40
0.0474625077778453
 50
285.7880137926675275
 51
74.2119862073325436
  0
ARC
  5
21CA7
  8
0
 10
4424.9622124808511217
 20
474.6077084476648906
 30
0.0
 40
0.0504670506570229
 50
290.4911762847319778
 51
69.508823715268008
  0
ARC
  5
21CA8
  8
0
 10
4424.921744236039558
 20
474.6077084476648906
 30
0.0
 40
0.0399134943447796
 50
278.754734328665279
 51
81.2452656713347068
  0
ARC
  5
21CA9
  8
0
 10
4424.7926264869020088
 20
474.6077084476648906
 30
0.0
 40
0.0301229898713572
 50
285.0114321256460244
 51
74.9885678743548567
  0
ARC
  5
21CAA
  8
0
 10
4424.726791816993682
 20
474.6077084476648906
 30
0.0
 40
0.0238797348960087
 50
276.7837084078840917
 51
83.2162915921158657
  0
ARC
  5
21CAB
  8
0
 10
4424.5805260288007048
 20
474.6077084476648906
 30
0.0
 40
0.0172109058798819
 50
283.5818239283102002
 51
76.4181760716890324
  0
ARC
  5
21CAC
  8
0
 10
4424.464686964937755
 20
474.6077084476648906
 30
0.0
 40
0.0068720853927498
 50
278.2333854130341138
 51
81.7666145869659147
  0
LINE
  5
21CAD
  8
0
 10
4424.2575610807080011
 20
475.0073541168649172
 30
0.0
 11
4424.2575610807080011
 21
474.2080627782650026
 31
0.0
  0
LINE
  5
21CAE
  8
0
 10
4426.1017415781088857
 20
475.0112517546648974
 30
0.0
 11
4426.1017415781088857
 21
474.2041651404649087
 31
0.0
  0
ARC
  5
21CAF
  8
0
 10
4424.2575610807080011
 20
474.9923541168649876
 30
0.0
 40
0.0150000000000032
 50
90.0
 51
135.0000000000023022
  0
ARC
  5
21CB0
  8
0
 10
4424.2575610807080011
 20
474.223062778264989
 30
0.0
 40
0.0150000000000077
 50
225.0
 51
269.9999999951538143
  0
LINE
  5
21CB1
  8
0
 10
4424.2469544789910287
 20
474.2124561765471071
 30
0.0
 11
4424.1783733343700078
 21
474.2810373211048045
 31
0.0
  0
ARC
  5
21CB2
  8
0
 10
4424.1922927588311723
 20
474.2949567457075091
 30
0.0
 40
0.0196850389548746
 50
179.9999992589179101
 51
225.0000002871178992
  0
LINE
  5
21CB3
  8
0
 10
4424.1726077198773055
 20
474.2949567459619971
 30
0.0
 11
4424.1726077198773055
 21
474.9204601490649225
 31
0.0
  0
ARC
  5
21CB4
  8
0
 10
4424.1922927596533555
 20
474.9204601489777247
 30
0.0
 40
0.0196850397757681
 50
135.0000009501468128
 51
179.9999997461418104
  0
LINE
  5
21CB5
  8
0
 10
4424.1783733343090717
 20
474.9343795738603262
 30
0.0
 11
4424.2469544789910287
 21
475.002960718582699
 31
0.0
  0
ARC
  5
21CB6
  8
0
 10
4426.9974108694077586
 20
474.6077084475650167
 30
0.0
 40
1.141
 50
200.6927842301716112
 51
159.3072157649581868
  0
ARC
  5
21CB7
  8
0
 10
4426.9974108694077586
 20
474.6077084475650167
 30
0.0
 40
1.038364993899999
 50
202.8617550674399865
 51
157.1382449267503887
  0
ARC
  5
21CB8
  8
0
 10
4426.9974108694077586
 20
474.6077084475650167
 30
0.0
 40
0.8015254570355255
 50
210.229780984504913
 51
149.770219009119387
  0
LINE
  5
21CB9
  8
0
 10
4426.1017415781088857
 20
475.0112517546648974
 30
0.0
 11
4426.997408131008342
 21
475.0112517546648974
 31
0.0
  0
ARC
  5
21CBA
  8
0
 10
4426.9974110680568629
 20
474.6077086462249213
 30
0.0
 40
0.4035431084507567
 50
359.9999717797070957
 51
90.0004170075614667
  0
ARC
  5
21CBB
  8
0
 10
4426.9974106707486499
 20
474.6077086462250918
 30
0.0
 40
0.4035435057601191
 50
270.0000117497053793
 51
359.9999717797070957
  0
LINE
  5
21CBC
  8
0
 10
4426.9974107535026633
 20
474.2041651404649087
 30
0.0
 11
4426.1017415781088857
 21
474.2041651404649087
 31
0.0
  0
ARC
  5
21CBD
  8
0
 10
4426.9974110680568629
 20
474.6077086462249213
 30
0.0
 40
0.8744879903518826
 50
207.4815270460852048
 51
152.5185022970777027
  0
ARC
  5
21CBE
  8
0
 10
4430.9976696790135975
 20
469.2830227786208752
 30
0.0
 40
0.5623395509279062
 50
236.2722179510805063
 51
269.9736303474816168
  0
ARC
  5
21CBF
  8
0
 10
4430.8789270175257116
 20
469.1584753854356222
 30
0.0
 40
0.3834846682821586
 50
180.0166356231690941
 51
189.13725764711549
  0
ARC
  5
21CC0
  8
0
 10
4430.8950969654742948
 20
469.1614781397810816
 30
0.0
 40
0.3999264664175502
 50
189.194114404409504
 51
201.2106425563196979
  0
ARC
  5
21CC1
  8
0
 10
4430.8975803138946503
 20
469.1624418978648805
 30
0.0
 40
0.4025902699052017
 50
201.2106425563167136
 51
216.9154107259062982
  0
ARC
  5
21CC2
  8
0
 10
4430.9532878212730793
 20
469.2042917124920223
 30
0.0
 40
0.4722661865668654
 50
216.9154107259062982
 51
235.4467794579643964
  0
ARC
  5
21CC3
  8
0
 10
4430.9973977309691691
 20
469.5703286703767958
 30
0.0
 40
0.5716840193788429
 50
250.0285650845301006
 51
252.5560259610450089
  0
ARC
  5
21CC4
  8
0
 10
4430.9973977309691691
 20
469.5703286703767958
 30
0.0
 40
0.5716840193788429
 50
256.2775785941250888
 51
259.111004339256624
  0
ARC
  5
21CC5
  8
0
 10
4430.9973977309691691
 20
469.5703286703767958
 30
0.0
 40
0.5716840193788429
 50
262.1119768689886769
 51
264.5460906407922721
  0
ARC
  5
21CC6
  8
0
 10
4430.9590229045197702
 20
469.4874886945208914
 30
0.0
 40
0.4804195476865246
 50
214.8613623361084137
 51
217.2522473977869026
  0
ARC
  5
21CC7
  8
0
 10
4430.9590229045197702
 20
469.4874886945208914
 30
0.0
 40
0.4804195476865246
 50
220.8317443952182941
 51
224.8915587447814062
  0
ARC
  5
21CC8
  8
0
 10
4430.9590229045197702
 20
469.4874886945208914
 30
0.0
 40
0.4804195476865246
 50
228.9687515961157089
 51
232.7487224965614985
  0
ARC
  5
21CC9
  8
0
 10
4430.9590229045197702
 20
469.4874886945208914
 30
0.0
 40
0.4804195476865246
 50
236.2635876896129901
 51
239.8395762734816117
  0
ARC
  5
21CCA
  8
0
 10
4430.959023663375774
 20
469.4874902619329191
 30
0.0
 40
0.4804212889298358
 50
243.2864756368018959
 51
246.8055630089125998
  0
ARC
  5
21CCB
  8
0
 10
4430.7260226964872345
 20
469.3740456271568178
 30
0.0
 40
0.2194211449726562
 50
199.0180311431936104
 51
205.2132739452115118
  0
ARC
  5
21CCC
  8
0
 10
4430.8786358328197821
 20
469.4314904495432188
 30
0.0
 40
0.3824507529754335
 50
207.3691597507020958
 51
210.5801825884022946
  0
ARC
  5
21CCD
  8
0
 10
4430.908346550792885
 20
469.4398097681134914
 30
0.0
 40
0.4133042426317308
 50
182.5211507055448976
 51
183.8712769230228048
  0
ARC
  5
21CCE
  8
0
 10
4430.9083465782159692
 20
469.4398097723512251
 30
0.0
 40
0.4133042703760342
 50
185.8691311519575891
 51
189.7563825000295026
  0
ARC
  5
21CCF
  8
0
 10
4430.908346550792885
 20
469.4398097681134914
 30
0.0
 40
0.4133042426317308
 50
192.8769888407651933
 51
195.6428142943686908
  0
ARC
  5
21CD0
  8
0
 10
4430.8864584124767134
 20
469.4446132125873987
 30
0.0
 40
0.3912415547352656
 50
181.9454347088039015
 51
201.1573015766441017
  0
ARC
  5
21CD1
  8
0
 10
4430.9129906440339255
 20
469.4556082549235043
 30
0.0
 40
0.4199543128620151
 50
201.2497529798978064
 51
221.7037408878358065
  0
ARC
  5
21CD2
  8
0
 10
4430.9615333229639873
 20
469.4988638898690283
 30
0.0
 40
0.4849730919359052
 50
221.7037408878358065
 51
240.4140780360519045
  0
ARC
  5
21CD3
  8
0
 10
4430.9973249071354076
 20
469.5696824828186209
 30
0.0
 40
0.5642424754618175
 50
240.8040319531299076
 51
270.0087290051905029
  0
ARC
  5
21CD4
  8
0
 10
4430.92640695494174
 20
469.0032916761314254
 30
0.0
 40
0.0385628352073502
 50
354.469757803329685
 51
4.6892595345236971
  0
ARC
  5
21CD5
  8
0
 10
4430.8544125951102615
 20
468.9054841193827201
 30
0.0
 40
0.1450392830714195
 50
35.1084462238184329
 51
40.4458545160436529
  0
ARC
  5
21CD6
  8
0
 10
4431.0111118407639879
 20
469.0155148380541732
 30
0.0
 40
0.046432516687349
 50
214.973310981511986
 51
252.8380989198790871
  0
ARC
  5
21CD7
  8
0
 10
4435.1726815276770139
 20
472.5456258859543937
 30
0.0
 40
5.5183925781692258
 50
219.963015100487695
 51
220.833758001628496
  0
ARC
  5
21CD8
  8
0
 10
4430.9819526125420452
 20
468.9971534742493873
 30
0.0
 40
0.0391039314121492
 50
163.9463050324330879
 51
174.0588089370482976
  0
ARC
  5
21CD9
  8
0
 10
4430.8914486118210334
 20
469.0098877910878059
 30
0.0
 40
0.0281048095547657
 50
348.0194948251944993
 51
1.927761542798466
  0
ARC
  5
21CDA
  8
0
 10
4433.4932728977819352
 20
471.0584418346210782
 30
0.0
 40
3.293583689221165
 50
218.5908373722681972
 51
220.7297856171445005
  0
ARC
  5
21CDB
  8
0
 10
4430.9978107991000797
 20
468.8347470733414184
 30
0.0
 40
0.0236610749756747
 50
224.6693531841982008
 51
269.0315159113732761
  0
ARC
  5
21CDC
  8
0
 10
4430.9178648795477784
 20
469.002461496357796
 30
0.0
 40
0.029189688451666
 50
153.6456647734059118
 51
167.1811050739906079
  0
ARC
  5
21CDD
  8
0
 10
4430.8398617563943844
 20
469.0228025571792045
 30
0.0
 40
0.0232817822148844
 50
340.3214658970888991
 51
357.1405464972773984
  0
ARC
  5
21CDE
  8
0
 10
4430.8493823604985664
 20
469.0158474138497127
 30
0.0
 40
0.0250658861618434
 50
142.7836206267012926
 51
158.7405620342964028
  0
ARC
  5
21CDF
  8
0
 10
4430.7797234443023626
 20
469.0447681539033056
 30
0.0
 40
0.0253050064247109
 50
332.3477561800934268
 51
347.8261794292238847
  0
ARC
  5
21CE0
  8
0
 10
4430.7940180220339244
 20
469.0326427399796785
 30
0.0
 40
0.0276016321383728
 50
136.741850515199701
 51
151.2952390371933973
  0
ARC
  5
21CE1
  8
0
 10
4430.7176785167330308
 20
469.0768770543290884
 30
0.0
 40
0.0314260247998629
 50
323.8675865044091893
 51
336.3580381128231807
  0
ARC
  5
21CE2
  8
0
 10
4430.745233241636015
 20
469.0521674265755792
 30
0.0
 40
0.0340364956675706
 50
132.8436386214166873
 51
144.1376597662990946
  0
ARC
  5
21CE3
  8
0
 10
4430.6690024083263779
 20
469.1099535080197143
 30
0.0
 40
0.0319664717451618
 50
316.5541215149169147
 51
327.9336156359771053
  0
ARC
  5
21CE4
  8
0
 10
4430.6933825461010201
 20
469.0811937169353882
 30
0.0
 40
0.0346951727414881
 50
126.2713723174833973
 51
136.4909872930521999
  0
ARC
  5
21CE5
  8
0
 10
4430.6253683721060952
 20
469.1472837109134275
 30
0.0
 40
0.0287535230371159
 50
309.4580806520264105
 51
320.8838952146232941
  0
ARC
  5
21CE6
  8
0
 10
4430.6379969693944076
 20
469.123799304614181
 30
0.0
 40
0.0313021026204862
 50
118.1842109741727995
 51
128.1228130498141979
  0
ARC
  5
21CE7
  8
0
 10
4430.5773958416239111
 20
469.2025240181203003
 30
0.0
 40
0.0343282829382346
 50
301.8713782413763056
 51
309.9854546001662925
  0
ARC
  5
21CE8
  8
0
 10
4430.5952388339082972
 20
469.1650285351643106
 30
0.0
 40
0.0367207336082325
 50
113.2618507614547951
 51
120.4678870770027004
  0
ARC
  5
21CE9
  8
0
 10
4430.5486455880281937
 20
469.2466393789404719
 30
0.0
 40
0.0374303457405317
 50
295.603282796365022
 51
302.4880409116922806
  0
ARC
  5
21CEA
  8
0
 10
4430.5661623993428293
 20
469.2014914431669013
 30
0.0
 40
0.03920464168044
 50
108.9026837261946952
 51
115.3499734797587024
  0
ARC
  5
21CEB
  8
0
 10
4430.5257375565033726
 20
469.2932723608277001
 30
0.0
 40
0.0398716542284686
 50
289.4215021980456868
 51
295.3897208462669823
  0
ARC
  5
21CEC
  8
0
 10
4430.5411522137028442
 20
469.2415835539497948
 30
0.0
 40
0.0413100557428162
 50
104.5204781830315
 51
109.288960491619207
  0
ARC
  5
21CED
  8
0
 10
4430.5088066814651029
 20
469.3425130507893073
 30
0.0
 40
0.0411464169363042
 50
283.738266963364083
 51
288.0990626001790815
  0
ARC
  5
21CEE
  8
0
 10
4430.5201398116878408
 20
469.2873685248212041
 30
0.0
 40
0.0421506179170796
 50
100.159905369630394
 51
103.4292818274962968
  0
ARC
  5
21CEF
  8
0
 10
4430.4976924035963748
 20
469.3971373785068977
 30
0.0
 40
0.0500389106339257
 50
278.9030664066368104
 51
281.0686719873232846
  0
ARC
  5
21CF0
  8
0
 10
4430.5082339719092488
 20
469.319868252393519
 30
0.0
 40
0.0504220201147337
 50
96.6398777204776422
 51
98.2258129531740565
  0
ARC
  5
21CF1
  8
0
 10
4430.498600446599994
 20
469.3605242853672053
 30
0.0
 40
0.0568230187320036
 50
92.4361535247569037
 51
92.9689430214471884
  0
ARC
  5
21CF2
  8
0
 10
4420.5013333801680346
 20
460.4897501688600983
 30
0.0
 40
13.4346024317926904
 50
38.6780134781834519
 51
39.3549541456447827
  0
ARC
  5
21CF3
  8
0
 10
4434.7694619563017113
 20
472.0258998010938853
 30
0.0
 40
4.933121871261501
 50
217.6149065630181951
 51
220.0229158431648955
  0
ARC
  5
21CF4
  8
0
 10
4432.0700535117339314
 20
469.7955578309723137
 30
0.0
 40
1.463376791394128
 50
211.7763633960477136
 51
221.908110444260501
  0
ARC
  5
21CF5
  8
0
 10
4432.2332778168165532
 20
469.897956957874726
 30
0.0
 40
1.6722050758307629
 50
211.1473617525736017
 51
221.6898567905803077
  0
ARC
  5
21CF6
  8
0
 10
4432.2471457016072236
 20
469.9017358459785783
 30
0.0
 40
1.7073314950066141
 50
210.0841389562131951
 51
222.5740363097328043
  0
ARC
  5
21CF7
  8
0
 10
4433.5402917722003622
 20
470.7801221287978137
 30
0.0
 40
3.28466389061263
 50
211.6134758554904067
 51
218.5051461307415934
  0
ARC
  5
21CF8
  8
0
 10
4432.4898926851674332
 20
470.0163089823626024
 30
0.0
 40
2.0080746621105119
 50
208.0474386758504863
 51
219.5693226433699863
  0
ARC
  5
21CF9
  8
0
 10
4432.1115717156471874
 20
469.7418539241610915
 30
0.0
 40
1.5627373309657779
 50
204.7349650766061018
 51
219.8302675501437022
  0
ARC
  5
21CFA
  8
0
 10
4432.1746424531993398
 20
469.755985075113415
 30
0.0
 40
1.641032527765919
 50
203.3685119022152037
 51
217.9702708555153947
  0
ARC
  5
21CFB
  8
0
 10
4431.9914074347416317
 20
469.6393800302228101
 30
0.0
 40
1.4425580379264371
 50
200.8864531037773986
 51
217.9259881112982953
  0
ARC
  5
21CFC
  8
0
 10
4432.0300232882618729
 20
469.6404395804393062
 30
0.0
 40
1.49465368831324
 50
199.2192213114470007
 51
215.9777370071342091
  0
ARC
  5
21CFD
  8
0
 10
4431.8234203170650289
 20
469.5376750851311272
 30
0.0
 40
1.2808014736631921
 50
196.5250367192790009
 51
216.9736156672665004
  0
ARC
  5
21CFE
  8
0
 10
4431.7087246277560553
 20
469.4763284545829265
 30
0.0
 40
1.1661330521789699
 50
193.8752991818695079
 51
216.6454188578844935
  0
ARC
  5
21CFF
  8
0
 10
4431.6849151081687523
 20
469.4544050531030166
 30
0.0
 40
1.1458376150468941
 50
192.168117205077408
 51
215.4125171504337004
  0
ARC
  5
21D00
  8
0
 10
4431.6512834095628932
 20
469.4382825168128761
 30
0.0
 40
1.1201535615515781
 50
190.3559193059938082
 51
215.3888834527107861
  0
ARC
  5
21D01
  8
0
 10
4431.7114530608459972
 20
469.4440476354166094
 30
0.0
 40
1.1874944627377719
 50
189.1276739280590107
 51
211.8636839664596039
  0
ARC
  5
21D02
  8
0
 10
4431.690166454649443
 20
469.4294734377385794
 30
0.0
 40
1.172156053179821
 50
187.2979910395796992
 51
211.4387784070974021
  0
ARC
  5
21D03
  8
0
 10
4431.6528121017681769
 20
469.4011646459485974
 30
0.0
 40
1.1385131164964979
 50
184.9693309676733008
 51
208.9503612366397078
  0
ARC
  5
21D04
  8
0
 10
4431.6308279694485464
 20
469.3898475066823153
 30
0.0
 40
1.1221628968316291
 50
183.1406842619439885
 51
208.6662363154466959
  0
ARC
  5
21D05
  8
0
 10
4431.7150194417063176
 20
469.3917642377455195
 30
0.0
 40
1.210385151940278
 50
182.0862574428664971
 51
204.5780440874910084
  0
ARC
  5
21D06
  8
0
 10
4431.6755127515198183
 20
469.3733196024579115
 30
0.0
 40
1.1744982610404231
 50
180.1730868540822996
 51
204.1612196961397956
  0
ARC
  5
21D07
  8
0
 10
4432.470980638340734
 20
469.4449123876971157
 30
0.0
 40
1.9743400606232431
 50
181.374695135006391
 51
189.6303891938389938
  0
ARC
  5
21D08
  8
0
 10
4431.3545769907686918
 20
469.2554777196110081
 30
0.0
 40
0.8419785468891795
 50
189.6303891938389938
 51
202.9749035239487966
  0
ARC
  5
21D09
  8
0
 10
4430.6640586286703183
 20
468.9836748700159887
 30
0.0
 40
0.1063090781110868
 50
197.277472031202592
 51
211.6474633523014859
  0
ARC
  5
21D0A
  8
0
 10
4431.3758275996351585
 20
469.256649386503625
 30
0.0
 40
0.868432980447038
 50
189.3354105538035128
 51
200.5293477400416009
  0
ARC
  5
21D0B
  8
0
 10
4432.427371498910361
 20
469.4123844853108949
 30
0.0
 40
1.931386193344856
 50
180.0142100480059923
 51
188.8339858150933992
  0
ARC
  5
21D0C
  8
0
 10
4428.7424521817301866
 20
468.4331494802009956
 30
0.0
 40
1.8852523960769709
 50
16.6069435659585309
 51
17.494078960560369
  0
ARC
  5
21D0D
  8
0
 10
4431.6614788513870735
 20
469.3113274861420905
 30
0.0
 40
1.163435252783505
 50
181.3495897764858
 51
195.5277492430161885
  0
ARC
  5
21D0E
  8
0
 10
4430.7664660038553848
 20
469.0624028713004918
 30
0.0
 40
0.2393804728530403
 50
195.4600678530829043
 51
201.2267919995194063
  0
ARC
  5
21D0F
  8
0
 10
4431.5441061299943613
 20
469.2774780204736089
 30
0.0
 40
1.046214709591448
 50
181.6294777543373016
 51
195.4600678530829043
  0
ARC
  5
21D10
  8
0
 10
4437.2142625594324272
 20
469.4387793528001112
 30
0.0
 40
6.718664978576026
 50
180.1791749213385003
 51
181.6294777543373016
  0
ARC
  5
21D11
  8
0
 10
4431.5203899168509452
 20
469.2548747338327075
 30
0.0
 40
1.0222032759249149
 50
187.6967356619649081
 51
193.3968932024444882
  0
ARC
  5
21D12
  8
0
 10
4431.6507545889508037
 20
469.2724931659976733
 30
0.0
 40
1.153753102543881
 50
178.9871643776957058
 51
187.6967356619649081
  0
ARC
  5
21D13
  8
0
 10
4431.6211522554540352
 20
469.2581130250836168
 30
0.0
 40
1.1249506137700429
 50
180.7032924025662908
 51
191.8985598387747871
  0
ARC
  5
21D14
  8
0
 10
4431.8456495207792614
 20
469.2561934084682775
 30
0.0
 40
1.3505067799394139
 50
181.206940849726692
 51
187.6882110263622963
  0
ARC
  5
21D15
  8
0
 10
4431.4043783255374365
 20
469.2018109045836809
 30
0.0
 40
0.9080641034713162
 50
181.9528418697748009
 51
187.6952118188777092
  0
ARC
  5
21D16
  8
0
 10
4409.0534522233801908
 20
468.4397175315082791
 30
0.0
 40
21.4558506686204495
 50
1.952841869774812
 51
2.0595768843410278
  0
ARC
  5
21D17
  8
0
 10
4431.7722256263186864
 20
469.2039138726182728
 30
0.0
 40
1.2766639145367811
 50
181.9555779831796087
 51
183.6180791527941949
  0
ARC
  5
21D18
  8
0
 10
4429.7625053325791669
 20
469.1433079961018962
 30
0.0
 40
0.7339977531478697
 50
1.330273179730598
 51
3.0806547082282552
  0
ARC
  5
21D19
  8
0
 10
4430.565911894209421
 20
469.1342927411590722
 30
0.0
 40
0.0692915776881697
 50
182.7643200157741887
 51
191.4828233270897044
  0
ARC
  5
21D1A
  8
0
 10
4442.8844885546441219
 20
469.7134308799920177
 30
0.0
 40
12.4014742943565501
 50
182.5653091259619032
 51
182.6920931302155964
  0
ARC
  5
21D1B
  8
0
 10
4430.4853263857521597
 20
469.1223663003730167
 30
0.0
 40
0.0128176487121866
 50
351.6213246715469722
 51
4.3990301099663469
  0
ARC
  5
21D1C
  8
0
 10
4430.5438873062566927
 20
469.0841620537478889
 30
0.0
 40
0.0395923462696366
 50
185.7170012997746937
 51
204.1788540554302074
  0
ARC
  5
21D1D
  8
0
 10
4430.4779224819649244
 20
469.0698347384907834
 30
0.0
 40
0.0299055915613548
 50
356.3781487840316231
 51
10.9581106067419398
  0
ARC
  5
21D1E
  8
0
 10
4430.5528850513410362
 20
469.0342957597952136
 30
0.0
 40
0.0335126583372801
 50
194.0302120152159944
 51
216.6573863966088993
  0
ARC
  5
21D1F
  8
0
 10
4430.5192811560964401
 20
469.016164789008883
 30
0.0
 40
0.0069766243404731
 50
344.3923749401577084
 51
15.5509375092945703
  0
ARC
  5
21D20
  8
0
 10
4430.5671138411798893
 20
468.9863144290042101
 30
0.0
 40
0.0260349084134632
 50
203.9817374958876997
 51
223.8317588615263105
  0
ARC
  5
21D21
  8
0
 10
4430.545760781649733
 20
468.970709962489309
 30
0.0
 40
0.0035355760227535
 50
316.6762205938774741
 51
20.7589791465266309
  0
ARC
  5
21D22
  8
0
 10
4430.5817421575147819
 20
468.9321527468392787
 30
0.0
 40
0.0092248070079829
 50
207.4844721036905071
 51
254.3692187890563901
  0
ARC
  5
21D23
  8
0
 10
4430.5729978715526158
 20
468.925282160691097
 30
0.0
 40
0.0065745545031192
 50
342.1701755200419939
 51
13.6169503293272491
  0
ARC
  5
21D24
  8
0
 10
4430.6316111197211285
 20
468.907120894949287
 30
0.0
 40
0.0312861777469858
 50
207.6728040119998866
 51
233.9288787421062921
  0
ARC
  5
21D25
  8
0
 10
4430.5981053739560593
 20
468.8791708977412895
 30
0.0
 40
0.0186037135212053
 50
12.4223140915332095
 51
29.4791421267156686
  0
ARC
  5
21D26
  8
0
 10
4430.6146007637644288
 20
468.8828043797316809
 30
0.0
 40
0.0017128853503662
 50
214.5608589265970068
 51
12.42231409150458
  0
ARC
  5
21D27
  8
0
 10
4430.6730989882853464
 20
468.8717155240905186
 30
0.0
 40
0.0336175589277455
 50
216.883412915988913
 51
237.8735609201546879
  0
ARC
  5
21D28
  8
0
 10
4430.6436185367829239
 20
468.8402733045987816
 30
0.0
 40
0.0162351885904055
 50
5.6028492656830506
 51
37.0952788931078175
  0
ARC
  5
21D29
  8
0
 10
4430.6657967638557238
 20
468.8697965213150951
 30
0.0
 40
0.0285794875351184
 50
248.2825968784640907
 51
257.8388719036221914
  0
ARC
  5
21D2A
  8
0
 10
4430.7089379890549026
 20
468.835080491240717
 30
0.0
 40
0.0253779217349852
 50
222.0228163156286882
 51
253.4502892835477894
  0
ARC
  5
21D2B
  8
0
 10
4430.6990977467939956
 20
468.8145605672086731
 30
0.0
 40
0.0046162957279494
 50
304.4505493997240819
 51
34.4081632204516694
  0
ARC
  5
21D2C
  8
0
 10
4430.7539271673222174
 20
468.8067579908909011
 30
0.0
 40
0.0233680883299676
 50
227.3312007765485987
 51
256.3563137137243757
  0
ARC
  5
21D2D
  8
0
 10
4430.7485705681847321
 20
468.7877256134675008
 30
0.0
 40
0.0036795856954193
 50
267.5773432517058836
 51
47.5086603789666313
  0
ARC
  5
21D2E
  8
0
 10
4430.8029138457686713
 20
468.7965356221786237
 30
0.0
 40
0.0339575866584657
 50
208.5450317848973896
 51
259.1654183486006104
  0
ARC
  5
21D2F
  8
0
 10
4430.7974964094810275
 20
468.7660107892002088
 30
0.0
 40
0.0029877971547685
 50
251.1423015348175909
 51
26.4292315956189086
  0
ARC
  5
21D30
  8
0
 10
4430.8481924736061046
 20
468.7797570573728194
 30
0.0
 40
0.03271161492579
 50
212.100103993117898
 51
272.5379291946177887
  0
ARC
  5
21D31
  8
0
 10
4430.8496914751231088
 20
468.751191033325199
 30
0.0
 40
0.0041138150023038
 50
269.2965370876224824
 51
21.8448392873350308
  0
ARC
  5
21D32
  8
0
 10
4430.9033233607033253
 20
468.7605181887919912
 30
0.0
 40
0.0264753635473693
 50
212.3905075244290117
 51
278.9790196735003747
  0
ARC
  5
21D33
  8
0
 10
4430.9066255793559321
 20
468.7393800182289851
 30
0.0
 40
0.0050809802417723
 50
279.400104414400289
 51
17.3651358362775987
  0
ARC
  5
21D34
  8
0
 10
4430.9600133704861946
 20
468.7487663838523986
 30
0.0
 40
0.0214722054474589
 50
212.7748678245341978
 51
289.7066348370706805
  0
ARC
  5
21D35
  8
0
 10
4430.9667486275166084
 20
468.7325662206212087
 30
0.0
 40
0.0040461189118461
 50
277.1735859063267071
 51
39.5006634625067008
  0
ARC
  5
21D36
  8
0
 10
4428.8545078098868544
 20
469.2471249415955867
 30
0.0
 40
1.641781000864615
 50
359.9015833274488045
 51
1.8399166025711191
  0
ARC
  5
21D37
  8
0
 10
4426.3153655571277341
 20
469.1246632999175858
 30
0.0
 40
4.1860315321757771
 50
2.1804082746010822
 51
2.7604152526537051
  0
ARC
  5
21D38
  8
0
 10
4430.9979172131243104
 20
468.7990921172515755
 30
0.0
 40
0.0188685824729934
 50
224.8866736405348092
 51
268.4622670489940788
  0
ARC
  5
21D39
  8
0
 10
4430.9975921162013037
 20
468.753565947791401
 30
0.0
 40
0.0103709714375971
 50
221.7966746206350024
 51
268.9986275691654782
  0
ARC
  5
21D3A
  8
0
 10
4430.9977435229993716
 20
468.8592576736187993
 30
0.0
 40
0.0083606416171927
 50
224.1037286512217008
 51
267.7197109942230213
  0
ARC
  5
21D3B
  8
0
 10
4430.9974838444286434
 20
468.8924473933528816
 30
0.0
 40
0.010640863026171
 50
219.9642585152826086
 51
269.6070625602059749
  0
LINE
  5
21D3C
  8
0
 10
4430.4954423654080529
 20
474.4564298427520725
 30
0.0
 11
4430.4954423654080529
 21
469.1583640420453207
 31
0.0
  0
LINE
  5
21D3D
  8
0
 10
4430.4972088266849823
 20
469.3975466776124108
 30
0.0
 11
4430.4980459849030012
 21
469.3976479035044918
 31
0.0
  0
ARC
  5
21D3E
  8
0
 10
4430.9971522791811367
 20
469.2830220555268852
 30
0.0
 40
0.5623388277331089
 50
270.0263473344957106
 51
303.727804366978603
  0
ARC
  5
21D3F
  8
0
 10
4431.1158947212898056
 20
469.1584753854356222
 30
0.0
 40
0.3834846682821586
 50
350.8627423528844815
 51
359.9833643768309912
  0
ARC
  5
21D40
  8
0
 10
4431.0997247733430413
 20
469.1614781397810816
 30
0.0
 40
0.3999264664175502
 50
338.7893574436802737
 51
350.8058855955903823
  0
ARC
  5
21D41
  8
0
 10
4431.0972414249226858
 20
469.1624418978648805
 30
0.0
 40
0.4025902699052017
 50
323.0845892740936733
 51
338.7893574436834001
  0
ARC
  5
21D42
  8
0
 10
4431.0415339175442568
 20
469.2042917124920223
 30
0.0
 40
0.4722661865668654
 50
304.5532205420354899
 51
323.0845892740936733
  0
ARC
  5
21D43
  8
0
 10
4430.9974240078481671
 20
469.5703286703767958
 30
0.0
 40
0.5716840193788429
 50
287.4439740389548774
 51
289.9714349154697857
  0
ARC
  5
21D44
  8
0
 10
4430.9974240078481671
 20
469.5703286703767958
 30
0.0
 40
0.5716840193788429
 50
280.888995660743376
 51
283.7224214058749112
  0
ARC
  5
21D45
  8
0
 10
4430.9974240078481671
 20
469.5703286703767958
 30
0.0
 40
0.5716840193788429
 50
275.4539093592077279
 51
277.8880231310113231
  0
ARC
  5
21D46
  8
0
 10
4431.0357988342966564
 20
469.4874886945208914
 30
0.0
 40
0.4804195476865246
 50
322.7477526022130974
 51
325.1386376638915863
  0
ARC
  5
21D47
  8
0
 10
4431.0357988342966564
 20
469.4874886945208914
 30
0.0
 40
0.4804195476865246
 50
315.1084412552186222
 51
319.1682556047816774
  0
ARC
  5
21D48
  8
0
 10
4431.0357988342966564
 20
469.4874886945208914
 30
0.0
 40
0.4804195476865246
 50
307.2512775034384731
 51
311.0312484038843763
  0
ARC
  5
21D49
  8
0
 10
4431.0357988342966564
 20
469.4874886945208914
 30
0.0
 40
0.4804195476865246
 50
300.1604237265183883
 51
303.7364123103869815
  0
ARC
  5
21D4A
  8
0
 10
4431.0357980754397431
 20
469.4874902619329191
 30
0.0
 40
0.4804212889298358
 50
293.1944369910874002
 51
296.7135243631980757
  0
ARC
  5
21D4B
  8
0
 10
4431.2687990423310112
 20
469.3740456271568178
 30
0.0
 40
0.2194211449726562
 50
334.7867260547885166
 51
340.981968856806418
  0
ARC
  5
21D4C
  8
0
 10
4431.1161859059975541
 20
469.4314904495432188
 30
0.0
 40
0.3824507529754335
 50
329.4198174115975917
 51
332.6308402492978757
  0
ARC
  5
21D4D
  8
0
 10
4431.0864751880244512
 20
469.4398097681134914
 30
0.0
 40
0.4133042426317308
 50
356.1287230769771099
 51
357.478849294451777
  0
ARC
  5
21D4E
  8
0
 10
4431.086475160601367
 20
469.4398097723512251
 30
0.0
 40
0.4133042703760342
 50
350.2436174999705258
 51
354.1308688480424962
  0
ARC
  5
21D4F
  8
0
 10
4431.0864751880244512
 20
469.4398097681134914
 30
0.0
 40
0.4133042426317308
 50
344.3571857056311956
 51
347.123011159234693
  0
ARC
  5
21D50
  8
0
 10
4431.1083633263397132
 20
469.4446132125873987
 30
0.0
 40
0.3912415547352656
 50
338.8426984233558983
 51
358.054565291196127
  0
ARC
  5
21D51
  8
0
 10
4431.0818310947834107
 20
469.4556082549235043
 30
0.0
 40
0.4199543128620151
 50
318.2962591121643072
 51
338.750247020102222
  0
ARC
  5
21D52
  8
0
 10
4431.0332884158533489
 20
469.4988638898690283
 30
0.0
 40
0.4849730919359052
 50
299.5859219639481239
 51
318.2962591121643072
  0
ARC
  5
21D53
  8
0
 10
4430.9974968316819286
 20
469.5696824828186209
 30
0.0
 40
0.5642424754618175
 50
269.9912709948093834
 51
299.1959680468701208
  0
ARC
  5
21D54
  8
0
 10
4431.0684147838746867
 20
469.0032916761314254
 30
0.0
 40
0.0385628352073502
 50
175.3107404654763002
 51
185.5302421966702013
  0
ARC
  5
21D55
  8
0
 10
4431.1404091437070747
 20
468.9054841193827201
 30
0.0
 40
0.1450392830714195
 50
139.5541454839562903
 51
144.8915537761816097
  0
ARC
  5
21D56
  8
0
 10
4430.9837098980524388
 20
469.0155148380541732
 30
0.0
 40
0.046432516687349
 50
287.1619010801209129
 51
325.0266890184881277
  0
ARC
  5
21D57
  8
0
 10
4426.8221402111403222
 20
472.5456258859543937
 30
0.0
 40
5.5183925781692258
 50
319.1662419983713903
 51
320.0369848995122766
  0
ARC
  5
21D58
  8
0
 10
4431.0128691262752909
 20
468.9971534742493873
 30
0.0
 40
0.0391039314121492
 50
5.9411910629517442
 51
16.0536949675669085
  0
ARC
  5
21D59
  8
0
 10
4431.1033731269972122
 20
469.0098877910878059
 30
0.0
 40
0.0281048095547657
 50
178.0722384572015073
 51
191.980505174805387
  0
ARC
  5
21D5A
  8
0
 10
4428.5015488410363105
 20
471.0584418346210782
 30
0.0
 40
3.293583689221165
 50
319.2702143828554995
 51
321.4091626277318028
  0
ARC
  5
21D5B
  8
0
 10
4430.9970171596687578
 20
468.8347325257523153
 30
0.0
 40
0.0236464250869057
 50
270.9540109629008953
 51
315.3451199415300152
  0
ARC
  5
21D5C
  8
0
 10
4431.0769568592695578
 20
469.002461496357796
 30
0.0
 40
0.029189688451666
 50
12.8188949260093406
 51
26.3543352265940385
  0
ARC
  5
21D5D
  8
0
 10
4431.1549599824229517
 20
469.0228025571792045
 30
0.0
 40
0.0232817822148844
 50
182.8594535027226016
 51
199.678534102908003
  0
ARC
  5
21D5E
  8
0
 10
4431.1454393783178602
 20
469.0158474138497127
 30
0.0
 40
0.0250658861618434
 50
21.2594379657035404
 51
37.2163793732987003
  0
ARC
  5
21D5F
  8
0
 10
4431.2150982945167925
 20
469.0447681539033056
 30
0.0
 40
0.0253050064247109
 50
192.1738205707760017
 51
207.6522438199066016
  0
ARC
  5
21D60
  8
0
 10
4431.2008037167834118
 20
469.0326427399796785
 30
0.0
 40
0.0276016321383728
 50
28.7047609628065601
 51
43.258149484800299
  0
ARC
  5
21D61
  8
0
 10
4431.2771432220843053
 20
469.0768770543290884
 30
0.0
 40
0.0314260247998629
 50
203.6419618871767909
 51
216.1324134955908107
  0
ARC
  5
21D62
  8
0
 10
4431.2495884971813211
 20
469.0521674265755792
 30
0.0
 40
0.0340364956675706
 50
35.8623402337008983
 51
47.1563613785833198
  0
ARC
  5
21D63
  8
0
 10
4431.3258193304909582
 20
469.1099535080197143
 30
0.0
 40
0.0319664717451618
 50
212.0663843640228947
 51
223.4458784850831137
  0
ARC
  5
21D64
  8
0
 10
4431.301439192716316
 20
469.0811937169353882
 30
0.0
 40
0.0346951727414881
 50
43.5090127069477788
 51
53.7286276825165672
  0
ARC
  5
21D65
  8
0
 10
4431.369453366711241
 20
469.1472837109134275
 30
0.0
 40
0.0287535230371159
 50
219.1161047853765922
 51
230.5419193479735895
  0
ARC
  5
21D66
  8
0
 10
4431.356824769422019
 20
469.123799304614181
 30
0.0
 40
0.0313021026204862
 50
51.8771869501857879
 51
61.8157890258271721
  0
ARC
  5
21D67
  8
0
 10
4431.4174258971916061
 20
469.2025240181203003
 30
0.0
 40
0.0343282829382346
 50
230.0145453998316043
 51
238.1286217586236944
  0
ARC
  5
21D68
  8
0
 10
4431.3995829049090389
 20
469.1650285351643106
 30
0.0
 40
0.0367207336082325
 50
59.5321129229972286
 51
66.7381492385452333
  0
ARC
  5
21D69
  8
0
 10
4431.4461761507891424
 20
469.2466393789404719
 30
0.0
 40
0.0374303457405317
 50
237.5119590883076057
 51
244.3967172036350064
  0
ARC
  5
21D6A
  8
0
 10
4431.4286593394726879
 20
469.2014914431669013
 30
0.0
 40
0.03920464168044
 50
64.650026520241326
 51
71.0973162738052338
  0
ARC
  5
21D6B
  8
0
 10
4431.4690841823139635
 20
469.2932723608277001
 30
0.0
 40
0.0398716542284686
 50
244.6102791537329892
 51
250.5784978019543132
  0
ARC
  5
21D6C
  8
0
 10
4431.453669525112673
 20
469.2415835539497948
 30
0.0
 40
0.0413100557428162
 50
70.711039508380793
 51
75.4795218169684148
  0
ARC
  5
21D6D
  8
0
 10
4431.4860150573522333
 20
469.3425130507893073
 30
0.0
 40
0.0411464169363042
 50
251.9009373998208901
 51
256.261733036635917
  0
ARC
  5
21D6E
  8
0
 10
4431.4746819271276763
 20
469.2873685248212041
 30
0.0
 40
0.0421506179170796
 50
76.5707181725037032
 51
79.8400946303696202
  0
ARC
  5
21D6F
  8
0
 10
4431.4971293352200519
 20
469.3971373785068977
 30
0.0
 40
0.0500389106339257
 50
258.9313280126767154
 51
261.0969335933631896
  0
ARC
  5
21D70
  8
0
 10
4431.4865877669080874
 20
469.319868252393519
 30
0.0
 40
0.0504220201147337
 50
81.7741870468259577
 51
83.3601222795223578
  0
ARC
  5
21D71
  8
0
 10
4431.4962212922164326
 20
469.3605242853672053
 30
0.0
 40
0.0568230187320036
 50
87.0310569785527832
 51
87.5638464752430821
  0
ARC
  5
21D72
  8
0
 10
4441.493488358648392
 20
460.4897501688600983
 30
0.0
 40
13.4346024317926904
 50
140.6450458543552031
 51
141.3219865218165978
  0
ARC
  5
21D73
  8
0
 10
4427.2253597825138058
 20
472.0258998010938853
 30
0.0
 40
4.933121871261501
 50
319.9770841568350761
 51
322.3850934369817764
  0
ARC
  5
21D74
  8
0
 10
4429.9247682270843143
 20
469.7955578309723137
 30
0.0
 40
1.463376791394128
 50
318.091889555739499
 51
328.2236366039521727
  0
ARC
  5
21D75
  8
0
 10
4429.7615439219998734
 20
469.897956957874726
 30
0.0
 40
1.6722050758307629
 50
318.3101432094197207
 51
328.8526382474262846
  0
ARC
  5
21D76
  8
0
 10
4429.747676037211022
 20
469.9017358459785783
 30
0.0
 40
1.7073314950066141
 50
317.4259636902672241
 51
329.9158610437867765
  0
ARC
  5
21D77
  8
0
 10
4428.454529966616974
 20
470.7801221287978137
 30
0.0
 40
3.28466389061263
 50
321.4948538692557918
 51
328.3865241445067795
  0
ARC
  5
21D78
  8
0
 10
4429.5049290536480839
 20
470.0163089823626024
 30
0.0
 40
2.0080746621105119
 50
320.4306773566274842
 51
331.9525613241494284
  0
ARC
  5
21D79
  8
0
 10
4429.8832500231701488
 20
469.7418539241610915
 30
0.0
 40
1.5627373309657779
 50
320.1697324498563262
 51
335.2650349233938982
  0
ARC
  5
21D7A
  8
0
 10
4429.8201792856179964
 20
469.755985075113415
 30
0.0
 40
1.641032527765919
 50
322.0297291444845769
 51
336.6314880977848247
  0
ARC
  5
21D7B
  8
0
 10
4430.0034143040747949
 20
469.6393800302228101
 30
0.0
 40
1.4425580379264371
 50
322.0740118887018184
 51
339.1135468962226014
  0
ARC
  5
21D7C
  8
0
 10
4429.9647984505545537
 20
469.6404395804393062
 30
0.0
 40
1.49465368831324
 50
324.0222629928658193
 51
340.780778688552914
  0
ARC
  5
21D7D
  8
0
 10
4430.1714014217523072
 20
469.5376750851311272
 30
0.0
 40
1.2808014736631921
 50
323.026384332733528
 51
343.4749632807208855
  0
ARC
  5
21D7E
  8
0
 10
4430.2860971110612809
 20
469.4763284545829265
 30
0.0
 40
1.1661330521789699
 50
323.3545811421154781
 51
346.1247008181305205
  0
ARC
  5
21D7F
  8
0
 10
4430.3099066306485838
 20
469.4544050531030166
 30
0.0
 40
1.1458376150468941
 50
324.5874828495661859
 51
347.8318827949224783
  0
ARC
  5
21D80
  8
0
 10
4430.3435383292544429
 20
469.4382825168128761
 30
0.0
 40
1.1201535615515781
 50
324.6111165472892139
 51
349.6440806940062203
  0
ARC
  5
21D81
  8
0
 10
4430.2833686779713389
 20
469.4440476354166094
 30
0.0
 40
1.1874944627377719
 50
328.1363160335404245
 51
350.8723260719410177
  0
ARC
  5
21D82
  8
0
 10
4430.3046552841669836
 20
469.4294734377385794
 30
0.0
 40
1.172156053179821
 50
328.5612215929024842
 51
352.7020089604201871
  0
ARC
  5
21D83
  8
0
 10
4430.3420096370491592
 20
469.4011646459485974
 30
0.0
 40
1.1385131164964979
 50
331.0496387633601785
 51
355.0306690323267276
  0
ARC
  5
21D84
  8
0
 10
4430.3639937693669708
 20
469.3898475066823153
 30
0.0
 40
1.1221628968316291
 50
331.3337636845532188
 51
356.8593157380560115
  0
ARC
  5
21D85
  8
0
 10
4430.2798022971110186
 20
469.3917642377455195
 30
0.0
 40
1.210385151940278
 50
335.42195591250902
 51
357.9137425571333893
  0
ARC
  5
21D86
  8
0
 10
4430.3193089872984274
 20
469.3733196024579115
 30
0.0
 40
1.1744982610404231
 50
335.838780303860176
 51
359.826913145917672
  0
ARC
  5
21D87
  8
0
 10
4429.5238411004756927
 20
469.4449123876971157
 30
0.0
 40
1.9743400606232431
 50
350.3696108061610062
 51
358.625304864993609
  0
ARC
  5
21D88
  8
0
 10
4430.6402447480477349
 20
469.2554777196110081
 30
0.0
 40
0.8419785468891795
 50
337.0250964760512034
 51
350.3696108061610062
  0
ARC
  5
21D89
  8
0
 10
4431.3307631101488369
 20
468.9836748700159887
 30
0.0
 40
0.1063090781110868
 50
328.3525366476985141
 51
342.722527968797408
  0
ARC
  5
21D8A
  8
0
 10
4430.6189941391821776
 20
469.256649386503625
 30
0.0
 40
0.868432980447038
 50
339.4706522599552727
 51
350.6645894461963735
  0
ARC
  5
21D8B
  8
0
 10
4429.5674502399069752
 20
469.4123844853108949
 30
0.0
 40
1.931386193344856
 50
351.1660141849064871
 51
359.9857899519939792
  0
ARC
  5
21D8C
  8
0
 10
4433.2523695570880591
 20
468.4331494802009956
 30
0.0
 40
1.8852523960769709
 50
162.5059210394396132
 51
163.3930564340415117
  0
ARC
  5
21D8D
  8
0
 10
4430.3333428874293531
 20
469.3113274861420905
 30
0.0
 40
1.163435252783505
 50
344.472250756983783
 51
358.6504102235142
  0
ARC
  5
21D8E
  8
0
 10
4431.2283557349619514
 20
469.0624028713004918
 30
0.0
 40
0.2393804728530403
 50
338.7732080004806221
 51
344.5399321469171241
  0
ARC
  5
21D8F
  8
0
 10
4430.4507156088229749
 20
469.2774780204736089
 30
0.0
 40
1.046214709591448
 50
344.5399321469171241
 51
358.3705222456626984
  0
ARC
  5
21D90
  8
0
 10
4424.7805591793849089
 20
469.4387793528001112
 30
0.0
 40
6.718664978576026
 50
358.3705222456626984
 51
359.8208250786614144
  0
ARC
  5
21D91
  8
0
 10
4430.474431821964572
 20
469.2548747338327075
 30
0.0
 40
1.0222032759249149
 50
346.6031067975554265
 51
352.3032643380349782
  0
ARC
  5
21D92
  8
0
 10
4430.3440671498656229
 20
469.2724931659976733
 30
0.0
 40
1.153753102543881
 50
352.3032643380349782
 51
1.012835622304292
  0
ARC
  5
21D93
  8
0
 10
4430.373669483363301
 20
469.2581130250836168
 30
0.0
 40
1.1249506137700429
 50
348.1014401612251845
 51
359.296707597433624
  0
ARC
  5
21D94
  8
0
 10
4430.1491722180380748
 20
469.2561934084682775
 30
0.0
 40
1.3505067799394139
 50
352.3117889736377037
 51
358.7930591502732227
  0
ARC
  5
21D95
  8
0
 10
4430.5904434132789902
 20
469.2018109045836809
 30
0.0
 40
0.9080641034713162
 50
352.3047881811223192
 51
358.0471581302252275
  0
ARC
  5
21D96
  8
0
 10
4452.9413695154371453
 20
468.4397175315082791
 30
0.0
 40
21.4558506686204495
 50
177.9404231156590015
 51
178.0471581302251991
  0
ARC
  5
21D97
  8
0
 10
4430.2225961124968308
 20
469.2039138726182728
 30
0.0
 40
1.2766639145367811
 50
356.3819208472057767
 51
358.0444220168204197
  0
ARC
  5
21D98
  8
0
 10
4432.2323164062381693
 20
469.1433079961018962
 30
0.0
 40
0.7339977531478697
 50
176.9193452917716911
 51
178.6697268202694033
  0
ARC
  5
21D99
  8
0
 10
4431.4289098446079151
 20
469.1342927411590722
 30
0.0
 40
0.0692915776881697
 50
348.5171766729102956
 51
357.235679984225726
  0
ARC
  5
21D9A
  8
0
 10
4419.1103331841741237
 20
469.7134308799920177
 30
0.0
 40
12.4014742943565501
 50
357.3079068697844036
 51
357.4346908740380968
  0
ARC
  5
21D9B
  8
0
 10
4431.5094953530651765
 20
469.1223663003730167
 30
0.0
 40
0.0128176487121866
 50
175.6009698900336105
 51
188.3786753284529141
  0
ARC
  5
21D9C
  8
0
 10
4431.450934432559734
 20
469.0841620537478889
 30
0.0
 40
0.0395923462696366
 50
335.821145944569821
 51
354.2829987002252778
  0
ARC
  5
21D9D
  8
0
 10
4431.5168992568524118
 20
469.0698347384907834
 30
0.0
 40
0.0299055915613548
 50
169.0418893932580033
 51
183.6218512159682916
  0
ARC
  5
21D9E
  8
0
 10
4431.4419366874772095
 20
469.0342957597952136
 30
0.0
 40
0.0335126583372801
 50
323.342613603390987
 51
345.9697879847839772
  0
ARC
  5
21D9F
  8
0
 10
4431.4755405827218055
 20
469.016164789008883
 30
0.0
 40
0.0069766243404731
 50
164.4490624907053871
 51
195.6076250598422916
  0
ARC
  5
21DA0
  8
0
 10
4431.4277078976374469
 20
468.9863144290042101
 30
0.0
 40
0.0260349084134632
 50
316.1682411384737179
 51
336.0182625041122719
  0
ARC
  5
21DA1
  8
0
 10
4431.4490609571666937
 20
468.970709962489309
 30
0.0
 40
0.0035355760227535
 50
159.2410208534734011
 51
223.32377940612011
  0
ARC
  5
21DA2
  8
0
 10
4431.4130795813007353
 20
468.9321527468392787
 30
0.0
 40
0.0092248070079829
 50
285.6307812109434963
 51
332.5155278963093792
  0
ARC
  5
21DA3
  8
0
 10
4431.4218238672629013
 20
468.925282160691097
 30
0.0
 40
0.0065745545031192
 50
166.3830496706727047
 51
197.8298244799578924
  0
ARC
  5
21DA4
  8
0
 10
4431.3632106190952982
 20
468.907120894949287
 30
0.0
 40
0.0312861777469858
 50
306.0711212578937079
 51
332.327195988000085
  0
ARC
  5
21DA5
  8
0
 10
4431.3967163648612768
 20
468.8791708977412895
 30
0.0
 40
0.0186037135212053
 50
150.5208578732843137
 51
167.5776859084668047
  0
ARC
  5
21DA6
  8
0
 10
4431.3802209750529073
 20
468.8828043797316809
 30
0.0
 40
0.0017128853503662
 50
167.5776859084953969
 51
325.4391410734028796
  0
ARC
  5
21DA7
  8
0
 10
4431.3217227505310802
 20
468.8717155240905186
 30
0.0
 40
0.0336175589277455
 50
302.1264390798452837
 51
323.1165870840109733
  0
ARC
  5
21DA8
  8
0
 10
4431.3512032020353217
 20
468.8402733045987816
 30
0.0
 40
0.0162351885904055
 50
142.9047211068921968
 51
174.3971507343169094
  0
ARC
  5
21DA9
  8
0
 10
4431.3290249749634313
 20
468.8697965213150951
 30
0.0
 40
0.0285794875351184
 50
282.1611280963776949
 51
291.7174031215359946
  0
ARC
  5
21DAA
  8
0
 10
4431.2858837497606146
 20
468.835080491240717
 30
0.0
 40
0.0253779217349852
 50
286.5497107164521822
 51
317.9771836843713118
  0
ARC
  5
21DAB
  8
0
 10
4431.29572399202425
 20
468.8145605672086731
 30
0.0
 40
0.0046162957279494
 50
145.591836779548288
 51
235.5494506002758897
  0
ARC
  5
21DAC
  8
0
 10
4431.2408945714942092
 20
468.8067579908909011
 30
0.0
 40
0.0233680883299676
 50
283.6436862862756243
 51
312.6687992234514013
  0
ARC
  5
21DAD
  8
0
 10
4431.246251170632604
 20
468.7877256134675008
 30
0.0
 40
0.0036795856954193
 50
132.4913396210334042
 51
272.4226567482941164
  0
ARC
  5
21DAE
  8
0
 10
4431.1919078930477554
 20
468.7965356221786237
 30
0.0
 40
0.0339575866584657
 50
280.8345816513992759
 51
331.4549682151024967
  0
ARC
  5
21DAF
  8
0
 10
4431.1973253293363086
 20
468.7660107892002088
 30
0.0
 40
0.0029877971547685
 50
153.5707684043811128
 51
288.8576984651824091
  0
ARC
  5
21DB0
  8
0
 10
4431.1466292652112315
 20
468.7797570573728194
 30
0.0
 40
0.03271161492579
 50
267.4620708053822113
 51
327.8998960068819883
  0
ARC
  5
21DB1
  8
0
 10
4431.1451302636942273
 20
468.751191033325199
 30
0.0
 40
0.0041138150023038
 50
158.1551607126648946
 51
270.7034629123775176
  0
ARC
  5
21DB2
  8
0
 10
4431.0914983781149203
 20
468.7605181887919912
 30
0.0
 40
0.0264753635473693
 50
261.0209803264996253
 51
327.6094924755710167
  0
ARC
  5
21DB3
  8
0
 10
4431.088196159459585
 20
468.7393800182289851
 30
0.0
 40
0.0050809802417723
 50
162.6348641637223977
 51
260.599895585599711
  0
ARC
  5
21DB4
  8
0
 10
4431.0348083683311415
 20
468.7487663838523986
 30
0.0
 40
0.0214722054474589
 50
250.293365162929291
 51
327.2251321754657738
  0
ARC
  5
21DB5
  8
0
 10
4431.0280731112989088
 20
468.7325662206212087
 30
0.0
 40
0.0040461189118461
 50
140.4993365374932921
 51
262.8264140936732929
  0
ARC
  5
21DB6
  8
0
 10
4433.1403139289286628
 20
469.2471249415955867
 30
0.0
 40
1.641781000864615
 50
178.1600833974287923
 51
180.0984166725511955
  0
ARC
  5
21DB7
  8
0
 10
4435.6794561816896021
 20
469.1246632999175858
 30
0.0
 40
4.1860315321757771
 50
177.2395847473462993
 51
177.819591725398908
  0
ARC
  5
21DB8
  8
0
 10
4430.9969143509051719
 20
468.7990693313172983
 30
0.0
 40
0.0188455433328594
 50
271.5097313178907257
 51
315.1413279925641859
  0
ARC
  5
21DB9
  8
0
 10
4430.99723713410458
 20
468.7535495430548735
 30
0.0
 40
0.0103544404527571
 50
270.9614007423971884
 51
318.2432970678383981
  0
ARC
  5
21DBA
  8
0
 10
4430.9970943361859099
 20
468.859221616301113
 30
0.0
 40
0.0083239843861304
 50
272.1792918614291921
 51
315.9972684931220215
  0
ARC
  5
21DBB
  8
0
 10
4430.9973378943877833
 20
468.8924473933528816
 30
0.0
 40
0.0106408630261746
 50
270.3929374397940251
 51
320.0357414846815232
  0
LINE
  5
21DBC
  8
0
 10
4431.4993793734083738
 20
474.4565020361649204
 30
0.0
 11
4431.4993793734083738
 21
469.1583640420453207
 31
0.0
  0
LINE
  5
21DBD
  8
0
 10
4431.4976129121323538
 20
469.3975466776124108
 30
0.0
 11
4431.4967757539143349
 21
469.3976479035044918
 31
0.0
  0
CIRCLE
  5
21DBE
  8
0
 10
4430.9974108694077586
 20
474.607556958834607
 30
0.0
 40
0.5241742685048989
  0
CIRCLE
  5
21DBF
  8
0
 10
4430.9974108694077586
 20
474.607556958834607
 30
0.0
 40
0.4513321337874385
  0
LINE
  5
21DC0
  8
0
 10
4435.8930801607093599
 20
474.2041651404649087
 30
0.0
 11
4437.7372606581084256
 21
474.2080627782648889
 31
0.0
  0
LINE
  5
21DC1
  8
0
 10
4437.7372606581084256
 20
475.0073541168649172
 30
0.0
 11
4435.8930801607093599
 21
475.0112517546648974
 31
0.0
  0
ARC
  5
21DC2
  8
0
 10
4436.1452250440916032
 20
473.3013445880862946
 30
0.0
 40
1.71617213293269
 50
94.9817129023873719
 51
98.4486424829098041
  0
ARC
  5
21DC3
  8
0
 10
4436.1973760608843804
 20
473.5358205987449765
 30
0.0
 40
1.478300322126052
 50
93.8311264924332846
 51
101.8787777282260976
  0
ARC
  5
21DC4
  8
0
 10
4436.0714344728839933
 20
474.5785165223778108
 30
0.0
 40
0.4186788190119322
 50
97.3890564379844648
 51
115.2135432609146051
  0
ARC
  5
21DC5
  8
0
 10
4436.3213945378938661
 20
472.6510482988028912
 30
0.0
 40
2.3622872638872932
 50
92.7640382017480789
 51
97.3890564379844648
  0
ARC
  5
21DC6
  8
0
 10
4436.1729853552296845
 20
474.3707848666085738
 30
0.0
 40
0.6251289924814833
 50
95.0025953861954235
 51
116.5997957166623991
  0
ARC
  5
21DC7
  8
0
 10
4436.4552316163380965
 20
471.1463775906706246
 30
0.0
 40
3.861865811104745
 50
91.5084162992618246
 51
95.0025953861954235
  0
ARC
  5
21DC8
  8
0
 10
4436.6174178830578967
 20
469.531024455242914
 30
0.0
 40
5.48223345269282
 50
91.9407295784179439
 51
92.7585580009817221
  0
ARC
  5
21DC9
  8
0
 10
4436.2346219427718097
 20
474.2403685567018101
 30
0.0
 40
0.7497792008703686
 50
97.377650580897992
 51
117.0985995587229951
  0
ARC
  5
21DCA
  8
0
 10
4436.5987952425903131
 20
471.4278002025992009
 30
0.0
 40
3.5858262630327542
 50
93.6380681461295552
 51
97.377650580897992
  0
ARC
  5
21DCB
  8
0
 10
4436.5756064869710826
 20
471.0686464930462876
 30
0.0
 40
3.9430523239669242
 50
91.6568962991896683
 51
92.97062893091109
  0
ARC
  5
21DCC
  8
0
 10
4436.3539124546932726
 20
474.0652659852901252
 30
0.0
 40
0.9232179098075507
 50
96.0282417936739137
 51
119.944358661596894
  0
ARC
  5
21DCD
  8
0
 10
4437.0537776329101689
 20
466.5872835275960142
 30
0.0
 40
8.4338210351395269
 50
92.976803875210436
 51
95.4213427821599538
  0
ARC
  5
21DCE
  8
0
 10
4436.4356899641743439
 20
473.9608917289618262
 30
0.0
 40
1.026485065716344
 50
95.3453051035616426
 51
121.9115554361593041
  0
ARC
  5
21DCF
  8
0
 10
4436.8816910648793055
 20
470.3131079565436039
 30
0.0
 40
4.701110282188262
 50
92.5391744766074282
 51
96.6158772891123903
  0
ARC
  5
21DD0
  8
0
 10
4436.5019054586464335
 20
473.8902374817835721
 30
0.0
 40
1.085872090794606
 50
96.6422657769540052
 51
124.1027439134647068
  0
ARC
  5
21DD1
  8
0
 10
4437.0375403801735956
 20
470.0769586136486851
 30
0.0
 40
4.9363500367974931
 50
92.3219505565621148
 51
97.6980666695776847
  0
ARC
  5
21DD2
  8
0
 10
4436.6881917029350006
 20
473.3754926940854943
 30
0.0
 40
1.606126153988056
 50
101.0427972719363936
 51
119.6729977557164943
  0
ARC
  5
21DD3
  8
0
 10
4436.9082242254344237
 20
472.248020436256013
 30
0.0
 40
2.754868075889044
 50
93.339118089666286
 51
101.0427972719363936
  0
ARC
  5
21DD4
  8
0
 10
4445.0580631014117898
 20
358.3947978703234867
 30
0.0
 40
116.8991750472457056
 50
94.0006569842498436
 51
94.0765639214273648
  0
ARC
  5
21DD5
  8
0
 10
4436.8767549627591507
 20
472.9750353233741862
 30
0.0
 40
2.0111293979495581
 50
102.449337937176395
 51
119.2824703945242959
  0
ARC
  5
21DD6
  8
0
 10
4436.9525905103673722
 20
472.6315261463807929
 30
0.0
 40
2.362909990023347
 50
94.8721326831806664
 51
102.449337937176395
  0
ARC
  5
21DD7
  8
0
 10
4437.7821192677656654
 20
461.0109401042691957
 30
0.0
 40
14.01287984699551
 50
92.6673696272515173
 51
94.2161456654410898
  0
ARC
  5
21DD8
  8
0
 10
4436.9711402895200081
 20
472.8237186318921772
 30
0.0
 40
2.1614904047601522
 50
102.1055988059093949
 51
119.917848536074402
  0
ARC
  5
21DD9
  8
0
 10
4437.2222127816867214
 20
471.2684329206886105
 30
0.0
 40
3.7357155166622049
 50
93.2004025326019843
 51
100.8681504042869932
  0
ARC
  5
21DDA
  8
0
 10
4436.7477072216470333
 20
482.7578648918408817
 30
0.0
 40
7.7640988849878321
 50
271.9629541309532783
 51
273.5228455986652989
  0
ARC
  5
21DDB
  8
0
 10
4437.1841030630012028
 20
472.3809275697993826
 30
0.0
 40
2.6109506637519702
 50
93.3907826754208941
 51
119.6344573756765044
  0
ARC
  5
21DDC
  8
0
 10
4440.425217205057379
 20
413.2995627225485009
 30
0.0
 40
61.7811260795241566
 50
92.7795276238883275
 51
93.150610103754488
  0
ARC
  5
21DDD
  8
0
 10
4437.3290583629741377
 20
472.0608638263685748
 30
0.0
 40
2.9321117929488252
 50
95.8880792198501695
 51
119.3236233463225062
  0
ARC
  5
21DDE
  8
0
 10
4437.697518747833783
 20
466.8559981850434042
 30
0.0
 40
8.1490363758534965
 50
89.7205739857204492
 51
94.7108141497651275
  0
ARC
  5
21DDF
  8
0
 10
4435.034648946141715
 20
477.0789018237665005
 30
0.0
 40
2.6291523440968079
 50
290.5408107731838072
 51
296.0743377962648992
  0
ARC
  5
21DE0
  8
0
 10
4437.3826783342992712
 20
472.1576647746541084
 30
0.0
 40
2.823785592196177
 50
100.7259733943376006
 51
114.9784318897218043
  0
ARC
  5
21DE1
  8
0
 10
4437.7235630163113456
 20
469.6234182127428198
 30
0.0
 40
5.378935836800216
 50
89.8540942044596846
 51
99.2694396956993614
  0
ARC
  5
21DE2
  8
0
 10
4435.5103988360888252
 20
476.1519151433117258
 30
0.0
 40
1.621694684695236
 50
289.0488366796319042
 51
295.4840330458013113
  0
ARC
  5
21DE3
  8
0
 10
4437.4702060226509275
 20
472.0401454527051897
 30
0.0
 40
2.9332470489708888
 50
96.8431380854100183
 51
115.4840330458012971
  0
ARC
  5
21DE4
  8
0
 10
4437.9317428609529088
 20
468.5815047297911065
 30
0.0
 40
6.4224073065786209
 50
91.7352859429220047
 51
97.2548253803874019
  0
ARC
  5
21DE5
  8
0
 10
4437.6897467189119197
 20
471.428288680091498
 30
0.0
 40
3.5560502580703188
 50
102.7604003711969938
 51
115.9670374424990058
  0
ARC
  5
21DE6
  8
0
 10
4437.9383949183493314
 20
469.6408850955290859
 30
0.0
 40
5.3563942230179258
 50
92.1519801737000961
 51
101.1312362062318044
  0
ARC
  5
21DE7
  8
0
 10
4437.7124749429431176
 20
471.4738048907681787
 30
0.0
 40
3.494031872025618
 50
104.754018240533
 51
115.3068882209448986
  0
ARC
  5
21DE8
  8
0
 10
4437.8622385198459597
 20
470.7526847485236203
 30
0.0
 40
4.229693720386944
 50
91.6932068507538958
 51
104.2281259990009943
  0
ARC
  5
21DE9
  8
0
 10
4437.9142970867478653
 20
470.8375431023692954
 30
0.0
 40
4.1334608378885642
 50
103.0359509871657053
 51
113.202974438814806
  0
ARC
  5
21DEA
  8
0
 10
4438.0286307164287791
 20
470.1325337853691053
 30
0.0
 40
4.8463246572205234
 50
93.4468075268937639
 51
102.4727585744845015
  0
ARC
  5
21DEB
  8
0
 10
4438.4030221041211917
 20
469.3078080626564201
 30
0.0
 40
5.7146203565175497
 50
104.5869110755814972
 51
111.1401980507363021
  0
ARC
  5
21DEC
  8
0
 10
4437.9250305354698867
 20
470.9751433146507793
 30
0.0
 40
3.9808760954855291
 50
92.7035291952879561
 51
103.9727774499018977
  0
ARC
  5
21DED
  8
0
 10
4438.199452405284319
 20
469.9065631000781877
 30
0.0
 40
5.0536633508392459
 50
95.2474197736920303
 51
110.4234393848221032
  0
ARC
  5
21DEE
  8
0
 10
4438.161004836219945
 20
469.9485478084001784
 30
0.0
 40
4.9852455871586674
 50
94.8760052973707673
 51
109.6620203693072
  0
ARC
  5
21DEF
  8
0
 10
4438.2449145748705632
 20
469.9247923785121088
 30
0.0
 40
5.0033635727664487
 50
95.8233955652832066
 51
109.3419137277614936
  0
ARC
  5
21DF0
  8
0
 10
4436.1721067279722774
 20
476.7750258217080841
 30
0.0
 40
2.1832325545043711
 50
282.7276125288183835
 51
287.7207354397444874
  0
ARC
  5
21DF1
  8
0
 10
4438.1580031018811496
 20
470.3971252663206997
 30
0.0
 40
4.4967820773516038
 50
95.368745639909676
 51
107.0884500530484047
  0
ARC
  5
21DF2
  8
0
 10
4438.4219191235652033
 20
469.4074606921287227
 30
0.0
 40
5.4911270501208467
 50
97.1625367914253673
 51
107.1675811700174989
  0
ARC
  5
21DF3
  8
0
 10
4438.4779752413633105
 20
468.8770315521218777
 30
0.0
 40
5.9929056074353841
 50
97.0998323620901402
 51
105.4497442119240986
  0
ARC
  5
21DF4
  8
0
 10
4438.6006886557579492
 20
468.5025382889047023
 30
0.0
 40
6.3535153462871161
 50
97.8105315864997635
 51
104.4529925305329954
  0
ARC
  5
21DF5
  8
0
 10
4438.8063498787842036
 20
466.2840353752810074
 30
0.0
 40
8.5420800264768921
 50
97.1897420420602032
 51
101.7487892644685985
  0
ARC
  5
21DF6
  8
0
 10
4438.6234848180893096
 20
468.1445656463862974
 30
0.0
 40
6.6476653946915789
 50
97.6611144448109485
 51
102.4141480452180986
  0
ARC
  5
21DF7
  8
0
 10
4437.962825501588668
 20
471.2780134537313756
 30
0.0
 40
3.4252022843293699
 50
93.7759151628635834
 51
101.7517444857243021
  0
ARC
  5
21DF8
  8
0
 10
4438.3251308552698902
 20
469.0057000616936875
 30
0.0
 40
5.6927336437344511
 50
95.9273167456298523
 51
99.2480853135343608
  0
ARC
  5
21DF9
  8
0
 10
4438.1082410141652872
 20
470.7069815305201814
 30
0.0
 40
3.9502053186082482
 50
97.5951692979790408
 51
98.4297998521963677
  0
ARC
  5
21DFA
  8
0
 10
4437.7143027358088148
 20
473.6613116142663102
 30
0.0
 40
0.9697265632936835
 50
88.6434165960640144
 51
97.5951692979790408
  0
ARC
  5
21DFB
  8
0
 10
4436.1452250440916032
 20
475.9140723072436003
 30
0.0
 40
1.71617213293269
 50
261.5513575170900822
 51
265.0182871372618933
  0
ARC
  5
21DFC
  8
0
 10
4436.1973760608843804
 20
475.6795962965848048
 30
0.0
 40
1.478300322126052
 50
258.1212222717737745
 51
266.1688735700303141
  0
ARC
  5
21DFD
  8
0
 10
4436.0714344728839933
 20
474.6369003729520841
 30
0.0
 40
0.4186788190119322
 50
244.7864567390853949
 51
262.6109435620155068
  0
ARC
  5
21DFE
  8
0
 10
4436.3213945378938661
 20
476.5643685965271175
 30
0.0
 40
2.3622872638872932
 50
262.6109435620155068
 51
267.2359618546486786
  0
ARC
  5
21DFF
  8
0
 10
4436.1729853552296845
 20
474.8446320287213211
 30
0.0
 40
0.6251289924814833
 50
243.4002042833375015
 51
264.9974046138045196
  0
ARC
  5
21E00
  8
0
 10
4436.4552316163380965
 20
478.069039304659384
 30
0.0
 40
3.861865811104745
 50
264.9974046138045196
 51
268.4915837007382038
  0
ARC
  5
21E01
  8
0
 10
4436.6174178830578967
 20
479.6843924400869241
 30
0.0
 40
5.48223345269282
 50
267.2414419990182068
 51
268.0592704591228994
  0
ARC
  5
21E02
  8
0
 10
4436.2346219427718097
 20
474.975048338628028
 30
0.0
 40
0.7497792008703686
 50
242.9014004412769907
 51
262.6223494191020222
  0
ARC
  5
21E03
  8
0
 10
4436.5987952425903131
 20
477.7876166927305803
 30
0.0
 40
3.5858262630327542
 50
262.6223494191020222
 51
266.3619318538703737
  0
ARC
  5
21E04
  8
0
 10
4436.5756064869710826
 20
478.1467704022834937
 30
0.0
 40
3.9430523239669242
 50
267.0293710690888815
 51
268.343103762065482
  0
ARC
  5
21E05
  8
0
 10
4436.3539124546932726
 20
475.1501509100398266
 30
0.0
 40
0.9232179098075507
 50
240.0556413384030066
 51
263.9717582063261148
  0
ARC
  5
21E06
  8
0
 10
4437.0537776329101689
 20
482.6281333677338807
 30
0.0
 40
8.4338210351395269
 50
264.5786572178399751
 51
267.0231961422700806
  0
ARC
  5
21E07
  8
0
 10
4436.4356899641743439
 20
475.2545251663681256
 30
0.0
 40
1.026485065716344
 50
238.0884445638407101
 51
264.6546948964382864
  0
ARC
  5
21E08
  8
0
 10
4436.8816910648793055
 20
478.9023089387861205
 30
0.0
 40
4.701110282188262
 50
263.3841227108875955
 51
267.4608255607402043
  0
ARC
  5
21E09
  8
0
 10
4436.5019054586464335
 20
475.3251794135463228
 30
0.0
 40
1.085872090794606
 50
235.8972560865352932
 51
263.357734223046009
  0
ARC
  5
21E0A
  8
0
 10
4437.0375403801735956
 20
479.1384582816812099
 30
0.0
 40
4.9363500367974931
 50
262.3019333304222869
 51
267.6780494846389047
  0
ARC
  5
21E0B
  8
0
 10
4436.6881917029350006
 20
475.8399242012442869
 30
0.0
 40
1.606126153988056
 50
240.3270022442835057
 51
258.9572027280635211
  0
ARC
  5
21E0C
  8
0
 10
4436.9082242254344237
 20
476.9673964590738819
 30
0.0
 40
2.754868075889044
 50
258.9572027280635211
 51
266.6608819103337282
  0
ARC
  5
21E0D
  8
0
 10
4445.0580631014117898
 20
590.8206190250064083
 30
0.0
 40
116.8991750472457056
 50
265.9234360785727063
 51
265.9993430167947963
  0
ARC
  5
21E0E
  8
0
 10
4436.8767549627591507
 20
476.2403815719555951
 30
0.0
 40
2.0111293979495581
 50
240.7175296054757041
 51
257.5506620628236192
  0
ARC
  5
21E0F
  8
0
 10
4436.9525905103673722
 20
476.5838907489492158
 30
0.0
 40
2.362909990023347
 50
257.5506620628236192
 51
265.1278673168192768
  0
ARC
  5
21E10
  8
0
 10
4437.7821192677656654
 20
488.2044767910605856
 30
0.0
 40
14.01287984699551
 50
265.783854334558896
 51
267.3326303867813749
  0
ARC
  5
21E11
  8
0
 10
4436.9711402895200081
 20
476.3916982634376041
 30
0.0
 40
2.1614904047601522
 50
240.0821514639256122
 51
257.8944011940905057
  0
ARC
  5
21E12
  8
0
 10
4437.2222127816867214
 20
477.9469839746412276
 30
0.0
 40
3.7357155166622049
 50
259.1318495957129926
 51
266.7995974673979731
  0
ARC
  5
21E13
  8
0
 10
4436.7477072216470333
 20
466.4575520034888996
 30
0.0
 40
7.7640988849878321
 50
86.4771543813388348
 51
88.0370458690467643
  0
ARC
  5
21E14
  8
0
 10
4437.1841030630012028
 20
476.834489325530626
 30
0.0
 40
2.6109506637519702
 50
240.3655426243234956
 51
266.6092173245791059
  0
ARC
  5
21E15
  8
0
 10
4440.425217205057379
 20
535.9158541727808824
 30
0.0
 40
61.7811260795236592
 50
266.8493898962454978
 51
267.2204723795027803
  0
ARC
  5
21E16
  8
0
 10
4435.034648946141715
 20
472.1365150715633945
 30
0.0
 40
2.6291523440968079
 50
63.9256622037351434
 51
69.4591892268160933
  0
ARC
  5
21E17
  8
0
 10
4437.3826783342992712
 20
477.0577521206757865
 30
0.0
 40
2.823785592196177
 50
245.0215681102781957
 51
259.2740266056623
  0
ARC
  5
21E18
  8
0
 10
4437.7235630163113456
 20
479.5919986825870751
 30
0.0
 40
5.3789358368002151
 50
260.7305603043005817
 51
270.1459057955402727
  0
ARC
  5
21E19
  8
0
 10
4435.5103988360888252
 20
473.0635017520182259
 30
0.0
 40
1.621694684695236
 50
64.5159669541987171
 51
70.9511633203680248
  0
ARC
  5
21E1A
  8
0
 10
4437.4702060226509275
 20
477.1752714426247053
 30
0.0
 40
2.9332470489708888
 50
244.5159669541986887
 51
263.1568619145900243
  0
ARC
  5
21E1B
  8
0
 10
4437.9317428609529088
 20
480.6339121655387885
 30
0.0
 40
6.4224073065786147
 50
262.7451746196126123
 51
268.2647140570779811
  0
ARC
  5
21E1C
  8
0
 10
4437.6897467189119197
 20
477.7871282152383969
 30
0.0
 40
3.5560502580703188
 50
244.0329625575010084
 51
257.2395996288029778
  0
ARC
  5
21E1D
  8
0
 10
4437.9383949183493314
 20
479.574531799800809
 30
0.0
 40
5.3563942230179311
 50
258.8687637937680961
 51
267.8480198262998897
  0
ARC
  5
21E1E
  8
0
 10
4437.7124749429431176
 20
477.7416120045616026
 30
0.0
 40
3.494031872025618
 50
244.6931117790549877
 51
255.2459817594670142
  0
ARC
  5
21E1F
  8
0
 10
4437.8622385198459597
 20
478.4627321468062746
 30
0.0
 40
4.229693720386944
 50
255.7718740009989062
 51
268.3067931492461184
  0
ARC
  5
21E20
  8
0
 10
4437.9142970867478653
 20
478.3778737929605995
 30
0.0
 40
4.1334608378885642
 50
246.7970255611851087
 51
256.9640490128342094
  0
ARC
  5
21E21
  8
0
 10
4438.0286307164287791
 20
479.0828831099607896
 30
0.0
 40
4.846324657220519
 50
257.5272414255155127
 51
266.5531924731062077
  0
ARC
  5
21E22
  8
0
 10
4438.4030221041211917
 20
479.907608832673418
 30
0.0
 40
5.7146203565175497
 50
248.8598019492636979
 51
255.4130889244185028
  0
ARC
  5
21E23
  8
0
 10
4437.9250305354698867
 20
478.240273580679002
 30
0.0
 40
3.9808760954855038
 50
256.027222550098088
 51
267.2964708047121007
  0
ARC
  5
21E24
  8
0
 10
4438.199452405284319
 20
479.3088537952517072
 30
0.0
 40
5.0536633508392343
 50
249.5765606151778968
 51
264.7525802263078845
  0
ARC
  5
21E25
  8
0
 10
4438.161004836219945
 20
479.2668690869296029
 30
0.0
 40
4.9852455871586647
 50
250.3379796306927005
 51
265.1239947026292043
  0
ARC
  5
21E26
  8
0
 10
4438.2449145748705632
 20
479.2906245168177861
 30
0.0
 40
5.0033635727664523
 50
250.6580862722385064
 51
264.1766044347168076
  0
ARC
  5
21E27
  8
0
 10
4436.1721067279722774
 20
472.4403910736218108
 30
0.0
 40
2.1832325545043711
 50
72.2792645602554416
 51
77.2723874711815881
  0
ARC
  5
21E28
  8
0
 10
4438.1580031018811496
 20
478.8182916290090247
 30
0.0
 40
4.4967820773515799
 50
252.91154994695151
 51
264.6312543600902814
  0
ARC
  5
21E29
  8
0
 10
4438.4219191235652033
 20
479.8079562032012859
 30
0.0
 40
5.491127050120844
 50
252.8324188299824016
 51
262.8374632085746043
  0
ARC
  5
21E2A
  8
0
 10
4438.4779752413633105
 20
480.3383853432079036
 30
0.0
 40
5.9929056074353806
 50
254.5502557880757877
 51
262.900167637909874
  0
ARC
  5
21E2B
  8
0
 10
4438.6006886557579492
 20
480.7128786064251926
 30
0.0
 40
6.3535153462871232
 50
255.5470074694669904
 51
262.1894684135003217
  0
ARC
  5
21E2C
  8
0
 10
4438.8063498787842036
 20
482.9313815200488875
 30
0.0
 40
8.5420800264768975
 50
258.2512107355314015
 51
262.8102579579397116
  0
ARC
  5
21E2D
  8
0
 10
4438.6234848180893096
 20
481.0708512489434838
 30
0.0
 40
6.6476653946915869
 50
257.5858519547819014
 51
262.3388855551889947
  0
ARC
  5
21E2E
  8
0
 10
4437.962825501588668
 20
477.9374034415985193
 30
0.0
 40
3.4252022843293179
 50
258.2482555142756269
 51
266.2240848371363882
  0
ARC
  5
21E2F
  8
0
 10
4438.3251308552698902
 20
480.2097168336362074
 30
0.0
 40
5.692733643734444
 50
260.751914686465625
 51
264.0726832543700766
  0
ARC
  5
21E30
  8
0
 10
4438.1082410141652872
 20
478.5084353648095998
 30
0.0
 40
3.9502053186082482
 50
261.5702001478035754
 51
262.4048307020208881
  0
ARC
  5
21E31
  8
0
 10
4437.7143027358088148
 20
475.5541052810635279
 30
0.0
 40
0.9697265632936835
 50
262.4048307020208881
 51
271.3565834039359856
  0
ARC
  5
21E32
  8
0
 10
4435.9630150682123713
 20
474.6077084476648906
 30
0.0
 40
0.0109063481135023
 50
122.5231555353095985
 51
237.4768444646904015
  0
ARC
  5
21E33
  8
0
 10
4436.0444760464461069
 20
474.6077084476648906
 30
0.0
 40
0.0122901974052961
 50
112.9804166235790035
 51
247.0195833764209965
  0
ARC
  5
21E34
  8
0
 10
4436.1538224884852752
 20
474.6077084476648906
 30
0.0
 40
0.0275031245136912
 50
140.1231851561013002
 51
219.8768148438985861
  0
ARC
  5
21E35
  8
0
 10
4436.2312341721299163
 20
474.6077084476648906
 30
0.0
 40
0.0277099853556749
 50
116.4465207386382986
 51
243.5534792613617014
  0
ARC
  5
21E36
  8
0
 10
4436.3108033697790233
 20
474.6077084476648906
 30
0.0
 40
0.0382888344227271
 50
130.8558762555466899
 51
229.1441237444531964
  0
ARC
  5
21E37
  8
0
 10
4436.3547404884602656
 20
474.6077084476648906
 30
0.0
 40
0.0326987546723539
 50
112.8611978575603985
 51
247.1388021424394879
  0
ARC
  5
21E38
  8
0
 10
4436.4523686334523518
 20
474.6077084476648906
 30
0.0
 40
0.0385164461395762
 50
115.233077518959405
 51
244.7669224810404955
  0
ARC
  5
21E39
  8
0
 10
4436.4910557067869377
 20
474.6077084476648906
 30
0.0
 40
0.0361876532131238
 50
101.8675633860465979
 51
258.1324366139534163
  0
ARC
  5
21E3A
  8
0
 10
4436.5931725725758952
 20
474.6077084476648906
 30
0.0
 40
0.0384328824856712
 50
98.0705096419939224
 51
261.9294903580060918
  0
ARC
  5
21E3B
  8
0
 10
4436.6614656583060423
 20
474.6077084476648906
 30
0.0
 40
0.0386446298414099
 50
102.4892854280377037
 51
257.5107145719622963
  0
ARC
  5
21E3C
  8
0
 10
4436.8070721851217968
 20
474.6077084476648906
 30
0.0
 40
0.0466070487399395
 50
97.3410906734026753
 51
262.6589093265973247
  0
ARC
  5
21E3D
  8
0
 10
4436.8944204161116431
 20
474.6077084476648906
 30
0.0
 40
0.0474625077778453
 50
105.7880137926673996
 51
254.2119862073325862
  0
ARC
  5
21E3E
  8
0
 10
4437.0326092579662145
 20
474.6077084476648906
 30
0.0
 40
0.0504670506570229
 50
110.4911762847320063
 51
249.5088237152679937
  0
ARC
  5
21E3F
  8
0
 10
4437.0730775027786876
 20
474.6077084476648906
 30
0.0
 40
0.0399134943447796
 50
98.7547343286653074
 51
261.245265671334721
  0
ARC
  5
21E40
  8
0
 10
4437.2021952519162369
 20
474.6077084476648906
 30
0.0
 40
0.0301229898713572
 50
105.0114321256451007
 51
254.9885678743540041
  0
ARC
  5
21E41
  8
0
 10
4437.2680299218227447
 20
474.6077084476648906
 30
0.0
 40
0.0238797348960087
 50
96.7837084078841485
 51
263.2162915921159083
  0
ARC
  5
21E42
  8
0
 10
4437.4142957100148124
 20
474.6077084476648906
 30
0.0
 40
0.0172109058798819
 50
103.5818239283109961
 51
256.4181760716897998
  0
ARC
  5
21E43
  8
0
 10
4437.5301347738777622
 20
474.6077084476648906
 30
0.0
 40
0.0068720853927498
 50
98.2333854130340853
 51
261.7666145869658862
  0
LINE
  5
21E44
  8
0
 10
4437.7372606581084256
 20
475.0073541168649172
 30
0.0
 11
4437.7372606581084256
 21
474.2080627782650026
 31
0.0
  0
LINE
  5
21E45
  8
0
 10
4435.8930801607093599
 20
475.0112517546648974
 30
0.0
 11
4435.8930801607093599
 21
474.2041651404649087
 31
0.0
  0
ARC
  5
21E46
  8
0
 10
4437.7372606581084256
 20
474.9923541168649876
 30
0.0
 40
0.0150000000000032
 50
44.9999999999976907
 51
90.0
  0
ARC
  5
21E47
  8
0
 10
4437.7372606581084256
 20
474.223062778264989
 30
0.0
 40
0.0150000000000077
 50
270.0000000048461857
 51
315.0
  0
LINE
  5
21E48
  8
0
 10
4437.7478672598263074
 20
474.2124561765471071
 30
0.0
 11
4437.8164484044482379
 21
474.2810373211048045
 31
0.0
  0
ARC
  5
21E49
  8
0
 10
4437.8025289796041761
 20
474.2949567459619971
 30
0.0
 40
0.0196850394043577
 50
314.9999999731036269
 51
0.000000008344147
  0
LINE
  5
21E4A
  8
0
 10
4437.8222140190091523
 20
474.2949567459648961
 30
0.0
 11
4437.8222140189172933
 21
474.9204601490649225
 31
0.0
  0
ARC
  5
21E4B
  8
0
 10
4437.8025289792904005
 20
474.9204601490620803
 30
0.0
 40
0.0196850396268604
 50
0.0000000083474039
 51
44.9999991360670393
  0
LINE
  5
21E4C
  8
0
 10
4437.816448404509174
 20
474.9343795738603262
 30
0.0
 11
4437.7478672598263074
 21
475.002960718582699
 31
0.0
  0
ARC
  5
21E4D
  8
0
 10
4434.9974108694077586
 20
474.6077084475650167
 30
0.0
 40
1.141
 50
20.6927842350417706
 51
339.3072157698284173
  0
ARC
  5
21E4E
  8
0
 10
4434.9974108694077586
 20
474.6077084475650167
 30
0.0
 40
1.038364993899999
 50
22.8617550732495296
 51
337.138244932559985
  0
ARC
  5
21E4F
  8
0
 10
4434.9974108694077586
 20
474.6077084475650167
 30
0.0
 40
0.8015254570355255
 50
30.2297809908806308
 51
329.7702190154951154
  0
LINE
  5
21E50
  8
0
 10
4435.8930801607093599
 20
475.0112517546648974
 30
0.0
 11
4434.9974136078089941
 21
475.0112517546648974
 31
0.0
  0
ARC
  5
21E51
  8
0
 10
4434.9974106707586543
 20
474.6077086462249213
 30
0.0
 40
0.4035431084507567
 50
89.9995829924385333
 51
180.0000282202927906
  0
ARC
  5
21E52
  8
0
 10
4434.9974110680686863
 20
474.6077086462250918
 30
0.0
 40
0.4035435057601191
 50
180.0000282202927906
 51
269.9999882502946207
  0
LINE
  5
21E53
  8
0
 10
4434.9974109853128539
 20
474.2041651404649087
 30
0.0
 11
4435.8930801607093599
 21
474.2041651404649087
 31
0.0
  0
ARC
  5
21E54
  8
0
 10
4434.9974106707586543
 20
474.6077086462249213
 30
0.0
 40
0.8744879903518826
 50
27.4814977029223293
 51
332.5184729539146815
  0
ENDSEC
  0
EOF
