  0
SECTION
  2
HEADER
  9
$ACADVER
  1
AC1009
  9
$INSBASE
 10
4446.9592803431960419
 20
459.0085165477293003
 30
0.0
  9
$EXTMIN
 10
4440.7699872061439237
 20
458.9822601738052867
 30
-0.0015258207003583
  9
$EXTMAX
 10
4448.2359705565368131
 20
466.6363546698938762
 30
0.0000000349246037
  9
$LIMMIN
 10
0.0
 20
0.0
  9
$LIMMAX
 10
11.6929133858000007
 20
8.2677165353999982
  9
$ORTHOMODE
 70
     0
  9
$REGENMODE
 70
     1
  9
$FILLMODE
 70
     1
  9
$QTEXTMODE
 70
     0
  9
$MIRRTEXT
 70
     0
  9
$DRAGMODE
 70
     2
  9
$LTSCALE
 40
0.6431102362
  9
$OSMODE
 70
  4095
  9
$ATTMODE
 70
     1
  9
$TEXTSIZE
 40
0.2
  9
$TRACEWID
 40
0.05
  9
$TEXTSTYLE
  7
STANDARD
  9
$CLAYER
  8
0
  9
$CELTYPE
  6
BYLAYER
  9
$CECOLOR
 62
   256
  9
$DIMSCALE
 40
1.0
  9
$DIMASZ
 40
0.1875
  9
$DIMEXO
 40
0.0625
  9
$DIMDLI
 40
0.4443307087
  9
$DIMRND
 40
0.0
  9
$DIMDLE
 40
0.0
  9
$DIMEXE
 40
0.125
  9
$DIMTP
 40
0.01
  9
$DIMTM
 40
0.01
  9
$DIMTXT
 40
2.0
  9
$DIMCEN
 40
0.1052362205
  9
$DIMTSZ
 40
0.0
  9
$DIMTOL
 70
     1
  9
$DIMLIM
 70
     0
  9
$DIMTIH
 70
     1
  9
$DIMTOH
 70
     1
  9
$DIMSE1
 70
     0
  9
$DIMSE2
 70
     0
  9
$DIMTAD
 70
     0
  9
$DIMZIN
 70
     0
  9
$DIMBLK
  1

  9
$DIMASO
 70
     1
  9
$DIMSHO
 70
     1
  9
$DIMPOST
  1
\X
  9
$DIMAPOST
  1

  9
$DIMALT
 70
     1
  9
$DIMALTD
 70
     2
  9
$DIMALTF
 40
25.3999999999999986
  9
$DIMLFAC
 40
1.0
  9
$DIMTOFL
 70
     0
  9
$DIMTVP
 40
0.0
  9
$DIMTIX
 70
     0
  9
$DIMSOXD
 70
     0
  9
$DIMSAH
 70
     0
  9
$DIMBLK1
  1

  9
$DIMBLK2
  1

  9
$DIMSTYLE
  2
STANDARD
  9
$DIMCLRD
 70
     0
  9
$DIMCLRE
 70
     0
  9
$DIMCLRT
 70
     0
  9
$DIMTFAC
 40
1.0
  9
$DIMGAP
 40
0.09
  9
$LUNITS
 70
     2
  9
$LUPREC
 70
     4
  9
$SKETCHINC
 40
0.1
  9
$FILLETRAD
 40
0.0
  9
$AUNITS
 70
     0
  9
$AUPREC
 70
     0
  9
$MENU
  1
.
  9
$ELEVATION
 40
0.0
  9
$PELEVATION
 40
0.0
  9
$THICKNESS
 40
0.0
  9
$LIMCHECK
 70
     0
  9
$BLIPMODE
 70
     0
  9
$CHAMFERA
 40
0.0
  9
$CHAMFERB
 40
0.0
  9
$SKPOLY
 70
     0
  9
$TDCREATE
 40
2458060.468368056230247
  9
$TDUPDATE
 40
2459361.6744212959893048
  9
$TDINDWG
 40
1.4637624653000001
  9
$TDUSRTIMER
 40
1.4637624653000001
  9
$USRTIMER
 70
     1
  9
$ANGBASE
 50
0.0
  9
$ANGDIR
 70
     0
  9
$PDMODE
 70
     0
  9
$PDSIZE
 40
0.3125
  9
$PLINEWID
 40
0.0
  9
$COORDS
 70
     1
  9
$SPLFRAME
 70
     0
  9
$SPLINETYPE
 70
     6
  9
$SPLINESEGS
 70
     8
  9
$ATTDIA
 70
     1
  9
$ATTREQ
 70
     1
  9
$HANDLING
 70
     1
  9
$HANDSEED
  5
220CF
  9
$SURFTAB1
 70
     6
  9
$SURFTAB2
 70
     6
  9
$SURFTYPE
 70
     6
  9
$SURFU
 70
     6
  9
$SURFV
 70
     6
  9
$UCSNAME
  2

  9
$UCSORG
 10
0.0
 20
0.0
 30
0.0
  9
$UCSXDIR
 10
1.0
 20
0.0
 30
0.0
  9
$UCSYDIR
 10
0.0
 20
1.0
 30
0.0
  9
$PUCSNAME
  2

  9
$PUCSORG
 10
0.0
 20
0.0
 30
0.0
  9
$PUCSXDIR
 10
1.0
 20
0.0
 30
0.0
  9
$PUCSYDIR
 10
0.0
 20
1.0
 30
0.0
  9
$USERI1
 70
     0
  9
$USERI2
 70
     0
  9
$USERI3
 70
     0
  9
$USERI4
 70
     0
  9
$USERI5
 70
     0
  9
$USERR1
 40
0.0
  9
$USERR2
 40
0.0
  9
$USERR3
 40
0.0
  9
$USERR4
 40
0.0
  9
$USERR5
 40
0.0
  9
$WORLDVIEW
 70
     1
  9
$SHADEDGE
 70
     3
  9
$SHADEDIF
 70
    70
  9
$TILEMODE
 70
     1
  9
$MAXACTVP
 70
    64
  9
$PLIMCHECK
 70
     0
  9
$PEXTMIN
 10
1.0000000000000000E+20
 20
1.0000000000000000E+20
 30
1.0000000000000000E+20
  9
$PEXTMAX
 10
-1.0000000000000000E+20
 20
-1.0000000000000000E+20
 30
-1.0000000000000000E+20
  9
$PLIMMIN
 10
0.0
 20
0.0
  9
$PLIMMAX
 10
12.0
 20
9.0
  9
$UNITMODE
 70
     0
  9
$VISRETAIN
 70
     1
  9
$PLINEGEN
 70
     0
  9
$PSLTSCALE
 70
     1
  0
ENDSEC
  0
SECTION
  2
TABLES
  0
TABLE
  2
VPORT
 70
     1
  0
VPORT
  2
*ACTIVE
 70
     0
 10
0.0
 20
0.0
 11
1.0
 21
1.0
 12
533.1376224360282094
 22
330.2297023193106043
 13
0.0
 23
0.0
 14
1.0
 24
1.0
 15
0.0
 25
0.0
 16
0.0
 26
0.0
 36
60.4960186965801583
 17
3911.3653564453120453
 27
132.5796051025390057
 37
0.0
 40
7.717790150702398
 41
2.6486111111111108
 42
50.0
 43
0.0
 44
0.0
 50
0.0
 51
0.0
 71
     0
 72
   100
 73
     1
 74
     1
 75
     0
 76
     0
 77
     0
 78
     0
  0
ENDTAB
  0
TABLE
  2
LTYPE
 70
     2
  0
LTYPE
  2
CONTINUOUS
 70
     0
  3
Solid line
 72
    65
 73
     0
 40
0.0
  0
LTYPE
  2
PHANTOM2
 70
     0
  3
___ _ _ ___ _ _ ___ _ _ ___ _ _
 72
    65
 73
     6
 40
1.25
 49
0.625
 49
-0.125
 49
0.125
 49
-0.125
 49
0.125
 49
-0.125
  0
ENDTAB
  0
TABLE
  2
LAYER
 70
     2
  0
LAYER
  2
0
 70
     0
 62
   255
  6
CONTINUOUS
  0
LAYER
  2
DEFPOINTS
 70
     0
 62
     7
  6
CONTINUOUS
  0
ENDTAB
  0
TABLE
  2
STYLE
 70
     1
  0
STYLE
  2
STANDARD
 70
     0
 40
0.0
 41
0.8
 50
0.0
 71
     0
 42
0.2
  3
txt
  4

  0
ENDTAB
  0
TABLE
  2
VIEW
 70
     0
  0
ENDTAB
  0
TABLE
  2
UCS
 70
     0
  0
ENDTAB
  0
TABLE
  2
APPID
 70
    11
  0
APPID
  2
ACAD
 70
     0
  0
APPID
  2
ACAD_MLEADERVER
 70
     0
  0
APPID
  2
ACAD_EXEMPT_FROM_CAD_STANDARDS
 70
     0
  0
APPID
  2
ACAD_NAV_VCDISPLAY
 70
     0
  0
APPID
  2
ACAECLAYERSTANDARD
 70
     0
  0
APPID
  2
ACCMTRANSPARENCY
 70
     0
  0
APPID
  2
ACAD_DSTYLE_DIMJAG
 70
     0
  0
APPID
  2
ACAD_DSTYLE_DIMTALN
 70
     0
  0
APPID
  2
ACDBATTR
 70
     0
  0
APPID
  2
ACADANNOTATIVE
 70
     0
  0
APPID
  2
DCO15
 70
     0
  0
ENDTAB
  0
TABLE
  2
DIMSTYLE
 70
     1
  0
DIMSTYLE
  2
STANDARD
 70
     0
  3

  4

  5

  6

  7

 40
1.0
 41
0.1875
 42
0.0625
 43
0.38
 44
0.125
 45
0.0
 46
0.0
 47
0.01
 48
0.01
140
0.15625
141
0.09
142
0.0
143
25.3999999999999986
144
1.0
145
0.0
146
1.0
147
0.09
 71
     1
 72
     0
 73
     1
 74
     1
 75
     0
 76
     0
 77
     0
 78
     4
170
     0
171
     2
172
     0
173
     0
174
     0
175
     0
176
     0
177
     0
178
     0
  0
ENDTAB
  0
ENDSEC
  0
SECTION
  2
BLOCKS
  0
BLOCK
  8
0
  2
$MODEL_SPACE
 70
     0
 10
0.0
 20
0.0
 30
0.0
  3
$MODEL_SPACE
  1

  0
ENDBLK
  5
21
  8
0
  0
BLOCK
 67
     1
  8
0
  2
$PAPER_SPACE
 70
     0
 10
0.0
 20
0.0
 30
0.0
  3
$PAPER_SPACE
  1

  0
ENDBLK
  5
1D
 67
     1
  8
0
  0
ENDSEC
  0
SECTION
  2
ENTITIES
  0
ATTDEF
  5
1BE53
  8
DEFPOINTS
 10
4446.9599776623217622
 20
459.0129619680307087
 30
0.0
 40
0.001
  1
P24900-SNW
  3

  2
MODELNUMBER
 70
     0
1001
ACDBATTR
1070
     0
1070
     1
  0
ATTDEF
  5
1BE54
  8
DEFPOINTS
 10
4446.9599776623217622
 20
459.0112951276515219
 30
0.0
 40
0.001
  1
PINNA PALETTA
  3

  2
TRADENAME
 70
     0
1001
ACDBATTR
1070
     0
1070
     1
  0
ATTDEF
  5
1BE55
  8
DEFPOINTS
 10
4446.9599776623217622
 20
459.0096286346973216
 30
0.0
 40
0.001
  1
BATHROOM SINK FAUCET
  3

  2
PRODUCT
 70
     0
1001
ACDBATTR
1070
     0
1070
     1
  0
LINE
  5
21D9B
  8
0
 10
4445.8380319530106135
 20
459.0085165477293003
 30
0.0
 11
4448.0805287333796514
 21
459.0085165477293003
 31
0.0
  0
ARC
  5
21D9C
  8
0
 10
4446.1724725773647151
 20
459.5703298840265916
 30
0.0
 40
0.0222024932002152
 50
92.1520121125295049
 51
131.6454505754178967
  0
LINE
  5
21D9D
  8
0
 10
4446.1577185942642245
 20
459.5869211674905159
 30
0.0
 11
4446.0905056323717872
 21
459.5197082055116766
 31
0.0
  0
ARC
  5
21D9E
  8
0
 10
4446.104425891982828
 20
459.5057879454635099
 30
0.0
 40
0.0196862202417785
 50
134.9999990978193125
 51
180.0000003168105138
  0
LINE
  5
21D9F
  8
0
 10
4446.0847396717408628
 20
459.5057879453547116
 30
0.0
 11
4446.0847396717408628
 21
459.4154868674777958
 31
0.0
  0
ARC
  5
21DA0
  8
0
 10
4446.0647116214586276
 20
459.4156285823202097
 30
0.0
 40
0.0200285516499926
 50
270.9078796033343224
 51
359.5945922470205005
  0
LINE
  5
21DA1
  8
0
 10
4446.0650289703589806
 20
459.3956025449970184
 30
0.0
 11
4447.8535317160331033
 21
459.3956025449970184
 31
0.0
  0
ARC
  5
21DA2
  8
0
 10
4445.9340953224391342
 20
459.3761865248058029
 30
0.0
 40
0.0194163913634973
 50
89.6457239137932049
 51
132.4190199049768921
  0
LINE
  5
21DA3
  8
0
 10
4445.9209980444193206
 20
459.3905203157218011
 30
0.0
 11
4445.8247903302508348
 21
459.303067951495791
 31
0.0
  0
ARC
  5
21DA4
  8
0
 10
4445.8380319522902937
 20
459.2885006353233734
 30
0.0
 40
0.0196862199189331
 50
132.2706898234052062
 51
180.0000011072409052
  0
LINE
  5
21DA5
  8
0
 10
4445.8183457323711991
 20
459.2885006349429204
 30
0.0
 11
4445.8183457323711991
 21
459.0282027219262204
 31
0.0
  0
ARC
  5
21DA6
  8
0
 10
4445.8380318734743923
 20
459.028202688832323
 30
0.0
 40
0.0196861411032139
 50
179.9999036814002125
 51
270.0002316695300237
  0
LINE
  5
21DA7
  8
0
 10
4446.5756741305240212
 20
459.6125166000653053
 30
0.0
 11
4447.342823650245009
 21
459.6125165011371791
 31
0.0
  0
ARC
  5
21DA8
  8
0
 10
4446.5754154837131864
 20
459.632195958589989
 30
0.0
 40
0.0196810581553162
 50
179.0667906666047031
 51
270.7529979909862163
  0
ARC
  5
21DA9
  8
0
 10
4446.6058086976827326
 20
459.6243185841506147
 30
0.0
 40
0.0318044699738125
 50
270.7331936461924897
 51
338.2177821160539111
  0
ARC
  5
21DAA
  8
0
 10
4447.744553696001276
 20
459.566512667499012
 30
0.0
 40
0.0261116587037011
 50
51.4059940805574485
 51
84.7965432314217651
  0
LINE
  5
21DAB
  8
0
 10
4447.7608420921278594
 20
459.5869211674905159
 30
0.0
 11
4447.8280550540202967
 21
459.5197082055116766
 31
0.0
  0
ARC
  5
21DAC
  8
0
 10
4447.8141347944092558
 20
459.5057879454635099
 30
0.0
 40
0.0196862202417785
 50
359.9999996831895146
 51
45.000000902180652
  0
LINE
  5
21DAD
  8
0
 10
4447.833821014651221
 20
459.5057879453547116
 30
0.0
 11
4447.833821014651221
 21
459.4154868674777958
 31
0.0
  0
ARC
  5
21DAE
  8
0
 10
4447.8538490649325468
 20
459.4156285823202097
 30
0.0
 40
0.0200285516499978
 50
180.4054077529891913
 51
269.092120396821997
  0
ARC
  5
21DAF
  8
0
 10
4447.9844663073354241
 20
459.3761889830910263
 30
0.0
 40
0.019413940246529
 50
47.5781415799530123
 51
90.3577033076431064
  0
LINE
  5
21DB0
  8
0
 10
4447.9975626419718537
 20
459.3905203157218011
 30
0.0
 11
4448.0937703561412491
 21
459.303067951495791
 31
0.0
  0
ARC
  5
21DB1
  8
0
 10
4448.0805287341008807
 20
459.2885006353233734
 30
0.0
 40
0.0196862199189331
 50
359.9999988927589811
 51
47.7293101765947583
  0
LINE
  5
21DB2
  8
0
 10
4448.1002149540199753
 20
459.2885006349429204
 30
0.0
 11
4448.1002149540199753
 21
459.0282027219262204
 31
0.0
  0
ARC
  5
21DB3
  8
0
 10
4448.080528812916782
 20
459.028202688832323
 30
0.0
 40
0.0196861411032098
 50
269.9997683304179077
 51
0.0000963186095188
  0
ARC
  5
21DB4
  8
0
 10
4447.3431673040067835
 20
459.6321728473766939
 30
0.0
 40
0.0196593500755136
 50
268.9983945087511756
 51
1.001605491291478
  0
ARC
  5
21DB5
  8
0
 10
4447.3127519898425817
 20
459.6243185864922225
 30
0.0
 40
0.0318044723298438
 50
201.7823828137370867
 51
269.2668043632430113
  0
LINE
  5
21DB6
  8
0
 10
4447.8535317160331033
 20
459.3956025449970184
 30
0.0
 11
4447.9843451049437135
 21
459.3956025449970184
 31
0.0
  0
LINE
  5
21DB7
  8
0
 10
4446.0650289703589806
 20
459.3956025449970184
 30
0.0
 11
4445.9342153787401912
 21
459.3956025449970184
 31
0.0
  0
LINE
  5
21DB8
  8
0
 10
4441.9334880519700164
 20
463.9758011449185915
 30
0.0
 11
4441.8188638199999332
 21
463.9477680135485116
 31
0.0
  0
LINE
  5
21DB9
  8
0
 10
4441.8066530102969409
 20
463.9493756586468862
 30
0.0
 11
4441.1109509831958349
 21
464.3483642693237812
 31
0.0
  0
ARC
  5
21DBA
  8
0
 10
4441.8146990144987285
 20
463.9633115876740135
 30
0.0
 40
0.0160918706639623
 50
239.9997168502457896
 51
270.0
  0
ARC
  5
21DBB
  8
0
 10
4441.1189963173028445
 20
464.3623005845674925
 30
0.0
 40
0.0160918701052385
 50
194.9997161317000121
 51
240.0024706681635962
  0
LINE
  5
21DBC
  8
0
 10
4441.1034527437423094
 20
464.3581357791226196
 30
0.0
 11
4441.0727429196567755
 21
464.4727486708291053
 31
0.0
  0
ARC
  5
21DBD
  8
0
 10
4441.0882389082962618
 20
464.4769258008545876
 30
0.0
 40
0.0160491145901719
 50
149.9699208869085965
 51
195.0861833119340076
  0
LINE
  5
21DBE
  8
0
 10
4442.2189313649359974
 20
464.4606745416152194
 30
0.0
 11
4441.3499231390896966
 21
464.9623910833179821
 31
0.0
  0
LINE
  5
21DBF
  8
0
 10
4441.0743441819968211
 20
464.4849576537034181
 30
0.0
 11
4441.3499231390896966
 21
464.9623910833179821
 31
0.0
  0
ARC
  5
21DC0
  8
0
 10
4441.9292897137720502
 20
463.9913801910283837
 30
0.0
 40
0.0161348294480861
 50
285.0821341583704225
 51
329.9699402285767746
  0
LINE
  5
21DC1
  8
0
 10
4441.9432586515322328
 20
463.9833054465022997
 30
0.0
 11
4442.2189313649359974
 21
464.4606745416152194
 31
0.0
  0
ARC
  5
21DC2
  8
0
 10
4441.3378652320207038
 20
464.6016770546257248
 30
0.0
 40
0.3520215235941112
 50
293.4379668496029012
 51
310.4904225673316773
  0
ARC
  5
21DC3
  8
0
 10
4441.3079596558809499
 20
464.6783922246164025
 30
0.0
 40
0.4086433450063487
 50
288.4568148015275142
 51
314.4246261687918036
  0
ARC
  5
21DC4
  8
0
 10
4441.1888239932459328
 20
464.8684648137203794
 30
0.0
 40
0.6087596577130051
 50
293.0159715594456884
 51
316.2508201011855249
  0
ARC
  5
21DC5
  8
0
 10
4441.132848796689359
 20
465.0013818754160866
 30
0.0
 40
0.7279613117818999
 50
291.4799165316742915
 51
316.0321039263121747
  0
ARC
  5
21DC6
  8
0
 10
4441.0734137067238407
 20
465.1087246989296204
 30
0.0
 40
0.8265863207486034
 50
291.3185163872645944
 51
318.9678080963370235
  0
ARC
  5
21DC7
  8
0
 10
4440.9882751009254207
 20
465.2688306132322964
 30
0.0
 40
0.9853086180355465
 50
291.551392320644311
 51
318.4353088945002241
  0
ARC
  5
21DC8
  8
0
 10
4440.838013831533317
 20
465.4940413195340057
 30
0.0
 40
1.229822285379341
 50
293.4386630634515996
 51
319.9316509913127788
  0
ARC
  5
21DC9
  8
0
 10
4440.7268526944562836
 20
465.6537326709865283
 30
0.0
 40
1.3986878628884241
 50
294.3447974816933765
 51
318.1515849978143819
  0
ARC
  5
21DCA
  8
0
 10
4440.5714920890886788
 20
465.8573705698088929
 30
0.0
 40
1.628837499268057
 50
295.8665336351463111
 51
316.2968317166677252
  0
ARC
  5
21DCB
  8
0
 10
4440.5219507097899623
 20
465.8777336123787904
 30
0.0
 40
1.6473401927630851
 50
296.5995219254472772
 51
316.7088433465996786
  0
ARC
  5
21DCC
  8
0
 10
4440.3502732676633968
 20
466.0789761004842262
 30
0.0
 40
1.885953272782082
 50
298.1475066778783116
 51
315.6580902326759883
  0
ARC
  5
21DCD
  8
0
 10
4440.2379120427212911
 20
466.229752022468972
 30
0.0
 40
2.050419061918058
 50
298.5543308018471862
 51
314.6852198120122921
  0
ARC
  5
21DCE
  8
0
 10
4439.9261447606768343
 20
466.5621584646978022
 30
0.0
 40
2.4774017274088962
 50
300.9840685701477128
 51
314.2239894952580244
  0
ARC
  5
21DCF
  8
0
 10
4438.5001134522653956
 20
468.3391007119400911
 30
0.0
 40
4.7263078652463522
 50
304.596901368377587
 51
311.5034323862735732
  0
ARC
  5
21DD0
  8
0
 10
4437.612651076752627
 20
469.2726059344167879
 30
0.0
 40
5.9860276663477618
 50
306.4447191124729102
 51
311.8556723118085756
  0
ARC
  5
21DD1
  8
0
 10
4435.4331131072822245
 20
471.8300185625483891
 30
0.0
 40
9.3254745246634645
 50
307.7818397029636799
 51
311.3047591894023753
  0
ARC
  5
21DD2
  8
0
 10
4429.3657646945503075
 20
478.5215575409850999
 30
0.0
 40
18.3322420185520301
 50
309.9713683523659142
 51
311.7187052187811105
  0
ARC
  5
21DD3
  8
0
 10
4462.6545974055698025
 20
440.6647993678250828
 30
0.0
 40
32.0987452687664003
 50
131.1138629886852129
 51
132.1072640076725122
  0
ARC
  5
21DD4
  8
0
 10
4446.058062507955583
 20
459.6148884170111728
 30
0.0
 40
6.9340967169851631
 50
130.8296551539808092
 51
135.3912414738356063
  0
ARC
  5
21DD5
  8
0
 10
4444.3410426524305876
 20
461.6590690531851919
 30
0.0
 40
4.2921934959471564
 50
131.453992537346295
 51
138.7538531692123058
  0
ARC
  5
21DD6
  8
0
 10
4444.2204324763124532
 20
461.9315299278896987
 30
0.0
 40
4.0347797673951131
 50
132.853044928770089
 51
140.5647888238682128
  0
ARC
  5
21DD7
  8
0
 10
4443.8016719112492865
 20
462.4485972342852165
 30
0.0
 40
3.3932320233096038
 50
133.7216813314763044
 51
142.8386062719002041
  0
ARC
  5
21DD8
  8
0
 10
4443.7070222480006123
 20
462.6364274836695927
 30
0.0
 40
3.2116067492339821
 50
134.9155994952351136
 51
144.5025447203063038
  0
ARC
  5
21DD9
  8
0
 10
4443.4798828870107172
 20
462.9221272249765775
 30
0.0
 40
2.8668950967310831
 50
135.8274232838384137
 51
146.52386998978821
  0
ARC
  5
21DDA
  8
0
 10
4443.0796270093251223
 20
463.3172692988686094
 30
0.0
 40
2.3199408821926322
 50
136.0351082583109132
 51
149.2156455590067878
  0
ARC
  5
21DDB
  8
0
 10
4443.5893356303540713
 20
463.0133817206940989
 30
0.0
 40
2.916340967160501
 50
138.765319423552512
 51
147.6295437573425886
  0
ARC
  5
21DDC
  8
0
 10
4443.6392729797662469
 20
463.0687214469497235
 30
0.0
 40
2.9331582592300789
 50
140.2785007306968055
 51
147.104126448209513
  0
ARC
  5
21DDD
  8
0
 10
4443.5604336947335469
 20
463.2199574900915877
 30
0.0
 40
2.7871753136907338
 50
141.6711184118632048
 51
148.0386729505102892
  0
ARC
  5
21DDE
  8
0
 10
4443.2336590541090118
 20
463.5325562085175193
 30
0.0
 40
2.3464283891813591
 50
142.7429032543680876
 51
149.2979931509244977
  0
ARC
  5
21DDF
  8
0
 10
4443.1808667028526543
 20
463.6545935953849948
 30
0.0
 40
2.2393832560948419
 50
144.4362894050796058
 51
148.4556750906446894
  0
ARC
  5
21DE0
  8
0
 10
4443.4166302394096419
 20
463.5857538655700978
 30
0.0
 40
2.478654583363046
 50
146.325576807015608
 51
148.819005679560604
  0
ARC
  5
21DE1
  8
0
 10
4443.6948330153400093
 20
463.3426079004487974
 30
0.0
 40
2.8406230983616929
 50
148.5161906705399986
 51
149.9055164932100865
  0
ARC
  5
21DE2
  8
0
 10
4441.6195931794618446
 20
464.0851426453835984
 30
0.0
 40
0.2096304289106298
 50
114.396484217822703
 51
122.5077816066234959
  0
ARC
  5
21DE3
  8
0
 10
4441.4900908311456078
 20
464.2831216236479008
 30
0.0
 40
0.0270720473090812
 50
252.2311586957640088
 51
308.4763254780506259
  0
ARC
  5
21DE4
  8
0
 10
4441.4855909464085926
 20
464.2690798926137177
 30
0.0
 40
0.0123269066491246
 50
128.6985163366024949
 51
252.2311586957640088
  0
ARC
  5
21DE5
  8
0
 10
4441.3735180582880275
 20
464.3812444051069974
 30
0.0
 40
0.0628455459407994
 50
273.2409328473397068
 51
294.3301926244263882
  0
ARC
  5
21DE6
  8
0
 10
4441.3764903451337887
 20
464.3287540169068848
 30
0.0
 40
0.0102710716924564
 50
104.4861880957448932
 51
273.2409328473397068
  0
ARC
  5
21DE7
  8
0
 10
4441.3275941793290258
 20
464.3994817624493976
 30
0.0
 40
0.052227817160548
 50
269.3021537238507221
 51
295.6644764429233874
  0
ARC
  5
21DE8
  8
0
 10
4441.3310530717553775
 20
464.3564254977558221
 30
0.0
 40
0.0100406836919109
 50
112.5864629705441047
 51
245.9307547436430923
  0
ARC
  5
21DE9
  8
0
 10
4441.2743548596990877
 20
464.4376906694621994
 30
0.0
 40
0.065126427172054
 50
276.6388325660474834
 51
296.5149662068735097
  0
ARC
  5
21DEA
  8
0
 10
4441.2856472983239655
 20
464.3823163412554891
 30
0.0
 40
0.0100467907019955
 50
110.582691178135704
 51
248.0027491397152062
  0
ARC
  5
21DEB
  8
0
 10
4441.2261704675393048
 20
464.4674017815094089
 30
0.0
 40
0.0709878886835403
 50
281.8094878643422021
 51
298.0481838136880128
  0
ARC
  5
21DEC
  8
0
 10
4441.2432018095223611
 20
464.4071069595574954
 30
0.0
 40
0.0095252720011865
 50
109.9053010124731031
 51
254.7646598701628022
  0
ARC
  5
21DED
  8
0
 10
4441.1875717038228686
 20
464.4870935839430217
 30
0.0
 40
0.065810985898977
 50
286.0198346079570229
 51
297.535222430371789
  0
ARC
  5
21DEE
  8
0
 10
4441.2044503130437079
 20
464.4312897650489731
 30
0.0
 40
0.0075611680871393
 50
112.8804122810740012
 51
279.7713414801128806
  0
ARC
  5
21DEF
  8
0
 10
4441.1658934323013455
 20
464.4654529595164831
 30
0.0
 40
0.0245503690679972
 50
279.1844660687027044
 51
316.5195602032594024
  0
ARC
  5
21DF0
  8
0
 10
4441.1740944347866389
 20
464.449598527284877
 30
0.0
 40
0.0094118845963965
 50
125.4741223800695025
 51
242.9349057659063078
  0
ARC
  5
21DF1
  8
0
 10
4441.1552888732812789
 20
464.456261857490972
 30
0.0
 40
0.0205689567715574
 50
128.5029218173436902
 51
156.2448171092601115
  0
ARC
  5
21DF2
  8
0
 10
4441.142000653228024
 20
464.4632206426239804
 30
0.0
 40
0.0056947983462428
 50
166.5251120210170939
 51
321.0011586729922897
  0
ARC
  5
21DF3
  8
0
 10
4441.1204993090959761
 20
464.4748367822795103
 30
0.0
 40
0.0049439178110652
 50
156.791146520078911
 51
326.237496694204026
  0
ARC
  5
21DF4
  8
0
 10
4441.0172147095763648
 20
464.5972493512962842
 30
0.0
 40
0.1649202561317413
 50
310.6315184121108928
 51
313.9743572175185022
  0
ARC
  5
21DF5
  8
0
 10
4441.1485576789391416
 20
464.4588330090520003
 30
0.0
 40
0.0372180190398952
 50
136.5253107617342891
 51
151.1610375730502085
  0
ARC
  5
21DF6
  8
0
 10
4441.1041633638387793
 20
464.4848366124916765
 30
0.0
 40
0.0046887689241732
 50
162.2659365344071034
 51
319.4590792660764009
  0
ARC
  5
21DF7
  8
0
 10
4441.1319480756628764
 20
464.4738479352794229
 30
0.0
 40
0.0345584238206605
 50
143.4189921717421043
 51
158.9427309051687018
  0
ARC
  5
21DF8
  8
0
 10
4440.9476377694409166
 20
464.6250670139996259
 30
0.0
 40
0.2148418528776782
 50
318.1717364179152128
 51
320.6660637012407165
  0
ARC
  5
21DF9
  8
0
 10
4441.0899055217369096
 20
464.4922588196587867
 30
0.0
 40
0.0025449473454552
 50
147.1257995984940123
 51
338.1095889489877209
  0
ARC
  5
21DFA
  8
0
 10
4440.8770608820250345
 20
464.6567565495874987
 30
0.0
 40
0.2714520761347078
 50
322.4475657367904091
 51
324.291577998338596
  0
ARC
  5
21DFB
  8
0
 10
4441.1490052488061337
 20
464.462432590619585
 30
0.0
 40
0.0687306510475179
 50
145.5618537017207927
 51
152.9957387305668988
  0
ARC
  5
21DFC
  8
0
 10
4441.0831829091648615
 20
464.4968747434609213
 30
0.0
 40
0.0009825353333169
 50
146.5901635972768986
 51
332.9305989350144728
  0
ARC
  5
21DFD
  8
0
 10
4441.347958038503748
 20
464.3475767419176918
 30
0.0
 40
0.3049468710492518
 50
149.0003749621866973
 51
150.5699224535649137
  0
ARC
  5
21DFE
  8
0
 10
4440.5937353524086575
 20
464.8146103764577788
 30
0.0
 40
0.5845137991533795
 50
327.0194321184355886
 51
327.8393435717272837
  0
ARC
  5
21DFF
  8
0
 10
4441.9124382819509265
 20
464.2698593130269842
 30
0.0
 40
0.3518856821739514
 50
169.5042738835172997
 51
186.5631149614575008
  0
ARC
  5
21E00
  8
0
 10
4441.9939976403238688
 20
464.2823176967025915
 30
0.0
 40
0.408676568361181
 50
165.5752999859059003
 51
191.3439259396986074
  0
ARC
  5
21E01
  8
0
 10
4442.2181400297267828
 20
464.2741821329208847
 30
0.0
 40
0.6087596577130051
 50
163.7486129586141033
 51
186.983461500380713
  0
ARC
  5
21E02
  8
0
 10
4442.3612373579608175
 20
464.2921633056253086
 30
0.0
 40
0.7279613117818999
 50
163.9673291334898124
 51
188.5195165281589027
  0
ARC
  5
21E03
  8
0
 10
4442.4839165367748137
 20
464.2943612056888014
 30
0.0
 40
0.8265863207486034
 50
161.0316249634628889
 51
188.6809166725348916
  0
ARC
  5
21E04
  8
0
 10
4442.6651416912918648
 20
464.3006801741572076
 30
0.0
 40
0.9853086180355465
 50
161.5641241653028999
 51
188.4480407391862116
  0
ARC
  5
21E05
  8
0
 10
4442.9350941898910605
 20
464.2831530130533793
 30
0.0
 40
1.2296075725622559
 50
160.064453249963691
 51
186.5619317146623928
  0
ARC
  5
21E06
  8
0
 10
4443.129187518578874
 20
464.2667281661907168
 30
0.0
 40
1.3986878628884241
 50
161.8478480619870084
 51
185.6546355781088948
  0
ARC
  5
21E07
  8
0
 10
4443.3832230909665668
 20
464.2339983709316016
 30
0.0
 40
1.628837499268057
 50
163.7026013431257923
 51
184.1328994246777881
  0
ARC
  5
21E08
  8
0
 10
4443.425628368991056
 20
464.2012753796039988
 30
0.0
 40
1.6473401927630851
 50
163.2905897132208111
 51
183.3999111343771915
  0
ARC
  5
21E09
  8
0
 10
4443.685747721550797
 20
464.1532170236409911
 30
0.0
 40
1.885953272782082
 50
164.3413428271290968
 51
181.8519263819275125
  0
ARC
  5
21E0A
  8
0
 10
4443.8725038958345976
 20
464.1312954614849104
 30
0.0
 40
2.050419061918058
 50
165.3142132478047017
 51
181.4451022579551989
  0
ARC
  5
21E0B
  8
0
 10
4444.3162589331368508
 20
464.027495905331989
 30
0.0
 40
2.4774017274088962
 50
165.7754435645630906
 51
179.015364489686192
  0
ARC
  5
21E0C
  8
0
 10
4446.5681482857116862
 20
463.6809654068748046
 30
0.0
 40
4.7263078652463522
 50
168.4960006735560967
 51
175.4025316914292034
  0
ARC
  5
21E0D
  8
0
 10
4447.8203157242132875
 20
463.3791406658390883
 30
0.0
 40
5.9860276663477618
 50
168.143760748001597
 51
173.5547139473314076
  0
ARC
  5
21E0E
  8
0
 10
4451.1248629883602916
 20
462.7702790313949208
 30
0.0
 40
9.3254745246634645
 50
168.6946738704066036
 51
172.2175933568487096
  0
ARC
  5
21E0F
  8
0
 10
4459.9535610534167063
 20
460.8614833017538217
 30
0.0
 40
18.3322420185520301
 50
168.2807278410371055
 51
170.0280647074683031
  0
ARC
  5
21E10
  8
0
 10
4410.5243283835716284
 20
470.7625681066530774
 30
0.0
 40
32.0987452687664003
 50
347.8921690521261212
 51
348.8855700711321219
  0
ARC
  5
21E11
  8
0
 10
4435.2338058863997503
 20
465.8643472952658726
 30
0.0
 40
6.9340967169851631
 50
344.6081915859792844
 51
349.169777905833314
  0
ARC
  5
21E12
  8
0
 10
4437.8626235747860846
 20
465.3994287875635791
 30
0.0
 40
4.2921934959471564
 50
341.2455798905928077
 51
348.5454405224571133
  0
ARC
  5
21E13
  8
0
 10
4438.1588870163150204
 20
465.4312048169235823
 30
0.0
 40
4.0347797673951131
 50
339.434644235957478
 51
347.1463881310428974
  0
ARC
  5
21E14
  8
0
 10
4438.8160596913166955
 20
465.3270746799635731
 30
0.0
 40
3.3932320233096038
 50
337.1608267879034884
 51
346.277751728351177
  0
ARC
  5
21E15
  8
0
 10
4439.0260504087036679
 20
465.3390187139706882
 30
0.0
 40
3.2116067492339821
 50
335.4968883394873842
 51
345.0838335645699999
  0
ARC
  5
21E16
  8
0
 10
4439.3870427900792492
 20
465.285156555795993
 30
0.0
 40
2.8668950967310831
 50
333.475563070013493
 51
344.1720097759691157
  0
ARC
  5
21E17
  8
0
 10
4439.9293723280370614
 20
465.136090468307998
 30
0.0
 40
2.3199408821926322
 50
330.7837875008050901
 51
343.9643248014979804
  0
ARC
  5
21E18
  8
0
 10
4439.411346519320432
 20
465.4255724194252934
 30
0.0
 40
2.916340967160501
 50
332.3698893024616723
 51
341.234113636279119
  0
ARC
  5
21E19
  8
0
 10
4439.4343041551092028
 20
465.496489068580388
 30
0.0
 40
2.9331582592300789
 50
332.8953066116176274
 51
339.7209323291048122
  0
ARC
  5
21E1A
  8
0
 10
4439.6046981255867649
 20
465.5038285804535008
 30
0.0
 40
2.7871753136907338
 50
331.9607601093227913
 51
338.3283146479619177
  0
ARC
  5
21E1B
  8
0
 10
4440.0388026235750658
 20
465.3771285041144097
 30
0.0
 40
2.3464283891813591
 50
330.701439908886698
 51
337.2565298054444156
  0
ARC
  5
21E1C
  8
0
 10
4440.1708864278198234
 20
465.3924263732703821
 30
0.0
 40
2.2393832560948419
 50
331.5437579691715086
 51
335.5631436547477051
  0
ARC
  5
21E1D
  8
0
 10
4439.9933893844854538
 20
465.5621854766430943
 30
0.0
 40
2.478654583363046
 50
331.1804273802637226
 51
333.6738562528025795
  0
ARC
  5
21E1E
  8
0
 10
4439.6437185949553168
 20
465.6815466254303146
 30
0.0
 40
2.8406230983616929
 50
330.093916566595226
 51
331.4832423892640918
  0
ARC
  5
21E1F
  8
0
 10
4441.3246805891776603
 20
464.255584416117415
 30
0.0
 40
0.2093283741047868
 50
357.4887241361412862
 51
5.6120130729773567
  0
ARC
  5
21E20
  8
0
 10
4441.5605842239419871
 20
464.2424217793193861
 30
0.0
 40
0.0270720473090812
 50
171.5231075817580972
 51
227.7682743640139051
  0
ARC
  5
21E21
  8
0
 10
4441.550673562490374
 20
464.2315039973714192
 30
0.0
 40
0.0123269066491246
 50
227.7682743640160936
 51
351.3009167232277719
  0
ARC
  5
21E22
  8
0
 10
4441.7038469183116831
 20
464.1905267697807176
 30
0.0
 40
0.0628455459407994
 50
185.6692404353881898
 51
206.7585002124986033
  0
ARC
  5
21E23
  8
0
 10
4441.6569025310318466
 20
464.1668561161085904
 30
0.0
 40
0.0102710716924564
 50
206.7585002124928053
 51
15.5132449640484804
  0
ARC
  5
21E24
  8
0
 10
4441.7426025692402618
 20
464.1598738191464122
 30
0.0
 40
0.052227817160548
 50
184.3349566168886895
 51
210.6972793359448985
  0
ARC
  5
21E25
  8
0
 10
4441.7035851206328516
 20
464.1413415615842837
 30
0.0
 40
0.0100406836919109
 50
234.0686783161860092
 51
7.4129700892757588
  0
ARC
  5
21E26
  8
0
 10
4441.8023118459914258
 20
464.1328710785491012
 30
0.0
 40
0.065126427172054
 50
183.4844668529306091
 51
203.3606004937676914
  0
ARC
  5
21E27
  8
0
 10
4441.7487098745414187
 20
464.1149639835551852
 30
0.0
 40
0.0100467907019955
 50
231.9966839200995139
 51
9.4167418816579751
  0
ARC
  5
21E28
  8
0
 10
4441.8521343539650843
 20
464.1059972339031106
 30
0.0
 40
0.0709878886835403
 50
181.9512492461286115
 51
198.1899451954876099
  0
ARC
  5
21E29
  8
0
 10
4441.7914016830873152
 20
464.0905999986932784
 30
0.0
 40
0.0095252720011865
 50
225.2347731896504968
 51
10.0941320473256795
  0
ARC
  5
21E2A
  8
0
 10
4441.8884871036352706
 20
464.0824152654764134
 30
0.0
 40
0.065810985898977
 50
182.4642106294492976
 51
193.9795984518273997
  0
ARC
  5
21E2B
  8
0
 10
4441.8317201427871623
 20
464.0691312221021008
 30
0.0
 40
0.0075611680871393
 50
200.2280915796879128
 51
7.1190207787540087
  0
ARC
  5
21E2C
  8
0
 10
4441.8805846160557849
 20
464.0528210976077048
 30
0.0
 40
0.0245503690679972
 50
163.4798728565488091
 51
200.8149669911219064
  0
ARC
  5
21E2D
  8
0
 10
4441.8627537655747801
 20
464.0519963344170833
 30
0.0
 40
0.0094118845963965
 50
237.0645272939044901
 51
354.525310679763777
  0
ARC
  5
21E2E
  8
0
 10
4441.8779270313762026
 20
464.0390417553837779
 30
0.0
 40
0.0205689567715574
 50
323.754615950549919
 51
351.4965112424795279
  0
ARC
  5
21E2F
  8
0
 10
4441.8905975466641394
 20
464.0310130864398843
 30
0.0
 40
0.0056947983462428
 50
158.9982743868303032
 51
313.474321038798621
  0
ARC
  5
21E30
  8
0
 10
4441.9114079639839474
 20
464.018200240113913
 30
0.0
 40
0.0049439178110652
 50
153.7619363656264966
 51
323.2082865397218256
  0
ARC
  5
21E31
  8
0
 10
4442.0690623788059384
 20
463.9899578776311273
 30
0.0
 40
0.1649202561317413
 50
166.0250758422916988
 51
169.3679146477261099
  0
ARC
  5
21E32
  8
0
 10
4441.8835192661554174
 20
464.0344978905317248
 30
0.0
 40
0.0372180190398952
 50
328.8383954867665011
 51
343.4741222980845237
  0
ARC
  5
21E33
  8
0
 10
4441.9282359530961912
 20
464.0090526451197093
 30
0.0
 40
0.0046887689241732
 50
160.5403537937237957
 51
317.7334965254145231
  0
ARC
  5
21E34
  8
0
 10
4441.9048273072930897
 20
464.027620804418973
 30
0.0
 40
0.0345584238206605
 50
321.0567021546359001
 51
336.5804408880691767
  0
ARC
  5
21E35
  8
0
 10
4442.127941192848084
 20
463.9436107287008895
 30
0.0
 40
0.2148418528776782
 50
159.333369358572611
 51
161.8276966419078065
  0
ARC
  5
21E36
  8
0
 10
4441.9417926086471198
 20
464.0004159610962802
 30
0.0
 40
0.0025449473454552
 50
141.8898441108366058
 51
332.873633461316615
  0
ARC
  5
21E37
  8
0
 10
4442.1906731313947603
 20
463.8983334983394116
 30
0.0
 40
0.2714520761347078
 50
155.7078550614826042
 51
157.5518673230212983
  0
ARC
  5
21E38
  8
0
 10
4441.8864128319446536
 20
464.0366852595594196
 30
0.0
 40
0.0687306510475179
 50
327.0036943292528804
 51
334.4375793580849745
  0
ARC
  5
21E39
  8
0
 10
4441.9491513874363591
 20
463.9969018969155172
 30
0.0
 40
0.0009825353333169
 50
147.0688341247928861
 51
333.4092694625347235
  0
ARC
  5
21E3A
  8
0
 10
4441.6874694909956816
 20
464.1515574737844076
 30
0.0
 40
0.3049468710492518
 50
329.4295106062492096
 51
330.9990580976091792
  0
ARC
  5
21E3B
  8
0
 10
4442.4690396734213209
 20
463.7318905511493767
 30
0.0
 40
0.5845137991533795
 50
152.160089488110799
 51
152.9800009413897044
  0
ARC
  5
21E3C
  8
0
 10
4441.5947666939628107
 20
464.3830251712611812
 30
0.0
 40
0.0036083166358271
 50
17.6973696859429914
 51
102.3020633738396015
  0
ARC
  5
21E3D
  8
0
 10
4441.6310104542326371
 20
464.4458004882499154
 30
0.0
 40
0.0029723008518502
 50
335.0118339296058139
 51
144.9875991302102989
  0
ARC
  5
21E3E
  8
0
 10
4441.6586963722611472
 20
464.4937533570301866
 30
0.0
 40
0.0029437216753651
 50
349.4744942887330126
 51
130.5249387710533995
  0
ARC
  5
21E3F
  8
0
 10
4441.699294889185694
 20
464.5640712476214844
 30
0.0
 40
0.0030972435000176
 50
340.5509282459228757
 51
139.4485048138685102
  0
ARC
  5
21E40
  8
0
 10
4441.727574215072309
 20
464.6130519172165805
 30
0.0
 40
0.0029309195847874
 50
344.673941881604776
 51
135.3254911781866952
  0
ARC
  5
21E41
  8
0
 10
4441.4276699414440372
 20
464.2987440548055247
 30
0.0
 40
0.0094572183489302
 50
95.0252566055243761
 51
218.196039675509212
  0
ARC
  5
21E42
  8
0
 10
4441.4302154230026645
 20
464.3033267713574901
 30
0.0
 40
0.0144345615944136
 50
226.2707770399412084
 51
299.5393488835970857
  0
ARC
  5
21E43
  8
0
 10
4441.6050216377952893
 20
464.1971176364107805
 30
0.0
 40
0.0093843365780079
 50
248.4875477033789082
 51
18.9646705024060509
  0
ARC
  5
21E44
  8
0
 10
4441.6166152084551868
 20
464.2068732562590867
 30
0.0
 40
0.0238282784691298
 50
191.9685246792423072
 51
230.8785546470433019
  0
ARC
  5
21E45
  8
0
 10
4441.3782039987581811
 20
464.9689051671734887
 30
0.0
 40
0.019833207879181
 50
150.2725132430805957
 51
235.8696449339213075
  0
LINE
  5
21E46
  8
0
 10
4441.3609809654708442
 20
464.9787399655531885
 30
0.0
 11
4441.5943348035852978
 21
465.3873971404509007
 31
0.0
  0
ARC
  5
21E47
  8
0
 10
4442.1310301419280222
 20
465.0529236748466815
 30
0.0
 40
0.6323878441216249
 50
91.9531846107545903
 51
148.0684602839928914
  0
ARC
  5
21E48
  8
0
 10
4442.2133431472102529
 20
464.4868462999926919
 30
0.0
 40
0.0199124318690969
 50
243.573290960981609
 51
289.3744639444626046
  0
ARC
  5
21E49
  8
0
 10
4442.2134663184478995
 20
464.4864960381182755
 30
0.0
 40
0.0195411441984064
 50
289.3744639444626046
 51
330.1556029716962257
  0
LINE
  5
21E4A
  8
0
 10
4442.2304159180666829
 20
464.4767714615554723
 30
0.0
 11
4442.2799882395793247
 21
464.5631742983649133
 31
0.0
  0
ARC
  5
21E4B
  8
0
 10
4442.4867688162539707
 20
464.4408258669594147
 30
0.0
 40
0.2402651567701285
 50
91.5144274074770721
 51
149.3879431653049892
  0
LINE
  5
21E4C
  8
0
 10
4441.0759773928639333
 20
464.4877871493748103
 30
0.0
 11
4441.9448856028584487
 21
463.986122759368584
 31
0.0
  0
ARC
  5
21E4D
  8
0
 10
4441.8145217450255586
 20
463.9646581087985737
 30
0.0
 40
0.0174392927791014
 50
270.5824185428498936
 51
284.4172972656560887
  0
LINE
  5
21E4E
  8
0
 10
4442.1094765301431835
 20
465.684944107437218
 30
0.0
 11
4446.4405370234308066
 21
465.684944107437218
 31
0.0
  0
LINE
  5
21E4F
  8
0
 10
4442.4804189284450331
 20
464.6810070995372257
 30
0.0
 11
4446.4405315150870592
 21
464.6810070995372257
 31
0.0
  0
LINE
  5
21E50
  8
0
 10
4447.4809338865461541
 20
465.9633253594591906
 30
0.0
 11
4447.4809338865461541
 21
459.6121205169371819
 31
0.0
  0
LINE
  5
21E51
  8
0
 10
4446.4376267998459298
 20
464.6780056035372013
 30
0.0
 11
4446.4376267998459298
 21
459.6121205169371819
 31
0.0
  0
LINE
  5
21E52
  8
0
 10
4446.4376267998459298
 20
465.6879456035371732
 30
0.0
 11
4446.4376267998459298
 21
465.9633249743371834
 31
0.0
  0
ARC
  5
21E53
  8
0
 10
4438.1708181448902906
 20
457.6696107740763182
 30
0.0
 40
11.5166756824615106
 50
42.5152343560022103
 51
44.1258660417729374
  0
ARC
  5
21E54
  8
0
 10
4445.3186717670141661
 20
464.2229090811085825
 30
0.0
 40
1.8193806934307519
 50
37.4853965321527269
 51
42.5152343560022103
  0
ARC
  5
21E55
  8
0
 10
4446.3672116496163653
 20
465.0270575091083174
 30
0.0
 40
0.4979834860554189
 50
27.5212960819597185
 51
37.4853965321527269
  0
ARC
  5
21E56
  8
0
 10
4446.6665955893622595
 20
465.1830483829961054
 30
0.0
 40
0.1603980952077545
 50
333.7556359885364259
 51
27.5212960819597185
  0
ARC
  5
21E57
  8
0
 10
4445.6676965750621093
 20
465.8138547733626069
 30
0.0
 40
1.3410211912534049
 50
315.0425306041677231
 51
328.4472269187884876
  0
ARC
  5
21E58
  8
0
 10
4438.8185885115435667
 20
472.1071865162883228
 30
0.0
 40
10.6414251588161299
 50
315.9727808992777227
 51
317.1218066771575081
  0
ARC
  5
21E59
  8
0
 10
4431.0650109322623393
 20
479.5578504540504809
 30
0.0
 40
21.3945577516252712
 50
315.933186996682025
 51
316.0575061581332079
  0
ARC
  5
21E5A
  8
0
 10
4446.4573118392463584
 20
465.9633249743371834
 30
0.0
 40
0.019685039399981
 50
135.0000001961805935
 51
180.0000000000227942
  0
LINE
  5
21E5B
  8
0
 10
4446.443392414351365
 20
465.9772443991371915
 30
0.0
 11
4446.4712312639530865
 21
466.0050832489301911
 31
0.0
  0
ARC
  5
21E5C
  8
0
 10
4446.4851506519762552
 20
465.9911638790828761
 30
0.0
 40
0.0196849744695645
 50
89.9998923924206906
 51
135.0000374069273903
  0
LINE
  5
21E5D
  8
0
 10
4446.4851506889463053
 20
466.0108488535523747
 30
0.0
 11
4447.4334099974448691
 21
466.0108488535523747
 31
0.0
  0
ARC
  5
21E5E
  8
0
 10
4447.4334099322823022
 20
465.9911636332096805
 30
0.0
 40
0.0196852203428331
 50
45.0002584227934932
 51
89.9998103336946542
  0
LINE
  5
21E5F
  8
0
 10
4447.4473294222943878
 20
466.0050832487848993
 30
0.0
 11
4447.4751683654503722
 21
465.9772444925916943
 31
0.0
  0
ARC
  5
21E60
  8
0
 10
4447.4612493257973256
 20
465.9633253594591906
 30
0.0
 40
0.0196845607526409
 50
359.998879026755219
 51
45.0001923968578765
  0
ARC
  5
21E61
  8
0
 10
4446.4573118392463584
 20
459.6121205169371819
 30
0.0
 40
0.0196850394000059
 50
179.9999999999967031
 51
264.7927829260999033
  0
ARC
  5
21E62
  8
0
 10
4447.4612488471457254
 20
459.6121205169371819
 30
0.0
 40
0.019685039400013
 50
275.2072170735340251
 51
359.999999999970612
  0
LINE
  5
21E63
  8
0
 10
4446.5205171624920695
 20
466.1685972649372047
 30
0.0
 11
4447.3980435237317579
 21
466.1685972649372047
 31
0.0
  0
ARC
  5
21E64
  8
0
 10
4446.5205171624920695
 20
466.181908937019216
 30
0.0
 40
0.0133116720819911
 50
225.0000003090489997
 51
270.0
  0
LINE
  5
21E65
  8
0
 10
4446.5111043889446591
 20
466.1724961633702833
 30
0.0
 11
4446.4390321530081565
 21
466.2461687621546957
 31
0.0
  0
LINE
  5
21E66
  8
0
 10
4447.3980435238163409
 20
466.6221134066371974
 30
0.0
 11
4446.520517162575743
 21
466.6221134066371974
 31
0.0
  0
ARC
  5
21E67
  8
0
 10
4446.520517162575743
 20
466.6088017345551862
 30
0.0
 40
0.013311672081984
 50
90.0
 51
135.0000000000829061
  0
LINE
  5
21E68
  8
0
 10
4446.511104388977401
 20
466.6182145081533008
 30
0.0
 11
4446.4390321534847317
 21
466.5461422726606884
 31
0.0
  0
ARC
  5
21E69
  8
0
 10
4446.4484449270839832
 20
466.5367294990622895
 30
0.0
 40
0.0133116720823821
 50
135.0000000000852083
 51
179.9999999983911039
  0
LINE
  5
21E6A
  8
0
 10
4446.4351332550013467
 20
466.5367294990626874
 30
0.0
 11
4446.4351332549113067
 21
466.255581535990018
 31
0.0
  0
ARC
  5
21E6B
  8
0
 10
4446.4484449265437433
 20
466.2555815359896769
 30
0.0
 40
0.0133116716329089
 50
179.9999999983911039
 51
225.0000009120442996
  0
ARC
  5
21E6C
  8
0
 10
4447.3980435237317579
 20
466.181908937019216
 30
0.0
 40
0.0133116720819958
 50
270.0
 51
314.9999999999492957
  0
LINE
  5
21E6D
  8
0
 10
4447.4074562973310094
 20
466.1724961634209876
 30
0.0
 11
4447.479528532851873
 21
466.2461687625680042
 31
0.0
  0
ARC
  5
21E6E
  8
0
 10
4447.4701157591644005
 20
466.2555815362567841
 30
0.0
 40
0.0133116722102605
 50
314.9999999999470219
 51
359.9999994852195186
  0
LINE
  5
21E6F
  8
0
 10
4447.4834274313743663
 20
466.2555815361371856
 30
0.0
 11
4447.483427433651741
 21
466.5367294990626874
 31
0.0
  0
ARC
  5
21E70
  8
0
 10
4447.4701157671588589
 20
466.536729499182286
 30
0.0
 40
0.0133116664931556
 50
359.9999994852195186
 51
45.0000233273021735
  0
LINE
  5
21E71
  8
0
 10
4447.4795285329737453
 20
466.5461422726608021
 30
0.0
 11
4447.407456268137139
 21
466.6182144788098753
 31
0.0
  0
ARC
  5
21E72
  8
0
 10
4447.3980434182767567
 20
466.6088016212854086
 30
0.0
 40
0.0133117853522749
 50
45.0000233273021735
 51
89.9995457469800755
  0
LINE
  5
21E73
  8
0
 10
4446.4351332549176732
 20
466.2555815361371856
 30
0.0
 11
4447.4834274313743663
 21
466.2555815361371856
 31
0.0
  0
ARC
  5
21E74
  8
0
 10
4442.5035747355996136
 20
464.7883435277108219
 30
0.0
 40
4.7297032135457542
 50
19.3826131228216099
 51
21.3634347133269493
  0
ARC
  5
21E75
  8
0
 10
4443.9763117550392053
 20
467.5213771353567154
 30
0.0
 40
3.2073283562558408
 50
338.7326318004194263
 51
341.6440280498514994
  0
ARC
  5
21E76
  8
0
 10
4447.1189018456616395
 20
466.4741878398593258
 30
0.0
 40
0.1052275710047219
 50
153.5919384079093959
 51
159.3332858748784133
  0
ARC
  5
21E77
  8
0
 10
4447.0348415786329497
 20
466.515930461689095
 30
0.0
 40
0.0113735621916084
 50
0.3905438405655006
 51
153.5919384079122949
  0
ARC
  5
21E78
  8
0
 10
4447.034908302383883
 20
466.5172192167274829
 30
0.0
 40
0.0113712663991986
 50
328.7822733661005827
 51
353.8854401420554154
  0
ARC
  5
21E79
  8
0
 10
4448.1404537540556703
 20
466.0199575578529902
 30
0.0
 40
1.2009436055520559
 50
155.8484477062606004
 51
166.685852625134487
  0
ARC
  5
21E7A
  8
0
 10
4446.8890538092100542
 20
466.5159816653053895
 30
0.0
 40
0.0110261396589774
 50
142.7762665984000137
 51
205.0900580637907922
  0
ARC
  5
21E7B
  8
0
 10
4446.8910282841161461
 20
466.5123852265419941
 30
0.0
 40
0.0148679768914787
 50
84.8962210851260153
 51
136.3295932288590109
  0
ARC
  5
21E7C
  8
0
 10
4446.8929586531212408
 20
466.5150217064816047
 30
0.0
 40
0.0121877090051262
 50
36.6084751046059935
 51
92.8581161591572197
  0
ARC
  5
21E7D
  8
0
 10
4446.8332556337054484
 20
466.4803195894385226
 30
0.0
 40
0.0811779695161138
 50
22.4287420855321216
 51
31.1321958716706604
  0
ARC
  5
21E7E
  8
0
 10
4446.9336823313433342
 20
466.2816641255615764
 30
0.0
 40
0.0191974996992028
 50
192.9927786827443015
 51
224.4815882197555936
  0
ARC
  5
21E7F
  8
0
 10
4446.9275499788727757
 20
466.2756417519622119
 30
0.0
 40
0.0106024586526645
 50
224.4815882197578958
 51
325.1657216580138083
  0
ARC
  5
21E80
  8
0
 10
4446.9281407250873599
 20
466.2736823486958997
 30
0.0
 40
0.0090876489919055
 50
333.204559521094609
 51
22.6774616415603703
  0
ARC
  5
21E81
  8
0
 10
4445.5065269059450657
 20
465.9084618722890809
 30
0.0
 40
1.4767716001255979
 50
14.4587302566142792
 51
24.0926593135209686
  0
ARC
  5
21E82
  8
0
 10
4446.8290646416717209
 20
466.5047516380366233
 30
0.0
 40
0.0264117487146388
 50
14.3552355783846508
 51
47.5401220246588707
  0
ARC
  5
21E83
  8
0
 10
4446.8371775431187416
 20
466.5102850367786118
 30
0.0
 40
0.0170021900631361
 50
55.1441830202575503
 51
117.249234575918905
  0
ARC
  5
21E84
  8
0
 10
4446.8349569585489007
 20
466.5161843379643756
 30
0.0
 40
0.0107654225309216
 50
121.1209693346740011
 51
204.0322338705722132
  0
ARC
  5
21E85
  8
0
 10
4440.3892966957509998
 20
463.9108854274271039
 30
0.0
 40
6.9415156538525862
 50
19.9325932865167097
 51
22.0051380966185803
  0
ARC
  5
21E86
  8
0
 10
4442.6718821042632044
 20
464.7484008726672755
 30
0.0
 40
4.4847173738603319
 50
19.9331581078246387
 51
23.1469507974112787
  0
ARC
  5
21E87
  8
0
 10
4454.8778624772830881
 20
469.5106056723566894
 30
0.0
 40
8.6406545964340111
 50
200.310980674948695
 51
201.9743481776534964
  0
ARC
  5
21E88
  8
0
 10
4446.8857670363540819
 20
466.2836414147213873
 30
0.0
 40
0.0217587685730217
 50
196.8162997583521019
 51
222.8016423424845129
  0
ARC
  5
21E89
  8
0
 10
4446.8783411945960324
 20
466.2767646144667992
 30
0.0
 40
0.0116378245675952
 50
222.8016423424820971
 51
324.0917779443988138
  0
ARC
  5
21E8A
  8
0
 10
4446.8807245715197496
 20
466.2736886963293728
 30
0.0
 40
0.0079786938327445
 50
331.9693878892069279
 51
8.9885506954344816
  0
ARC
  5
21E8B
  8
0
 10
4446.9508909660380596
 20
466.2938189265373126
 30
0.0
 40
0.0650853203982482
 50
194.6598661358937932
 51
196.8661606402311861
  0
ARC
  5
21E8C
  8
0
 10
4446.7266055584823334
 20
466.4880084206970992
 30
0.0
 40
0.072799867587763
 50
18.6606948369523984
 51
27.3313485437521386
  0
ARC
  5
21E8D
  8
0
 10
4446.7815840090788697
 20
466.5164230199063127
 30
0.0
 40
0.0109127164310223
 50
27.3313485437521386
 51
74.8677989900278789
  0
ARC
  5
21E8E
  8
0
 10
4446.7820119324787811
 20
466.5180054379886201
 30
0.0
 40
0.0092734588480971
 50
74.8677989900270262
 51
137.6466797332400915
  0
ARC
  5
21E8F
  8
0
 10
4446.7821915209260624
 20
466.5178417193105247
 30
0.0
 40
0.0095164728729326
 50
137.6466797332400915
 51
191.5453092950550911
  0
ARC
  5
21E90
  8
0
 10
4446.7914054672910424
 20
466.5197240968888082
 30
0.0
 40
0.0189207353609285
 50
191.5458724852950922
 51
206.4331207084875928
  0
ARC
  5
21E91
  8
0
 10
4450.0554162478101716
 20
467.6585778166838736
 30
0.0
 40
3.524182813823348
 50
198.9998191837777028
 51
203.0748173098455993
  0
ARC
  5
21E92
  8
0
 10
4447.0311290965473745
 20
466.3878534752607834
 30
0.0
 40
0.2443601869166986
 50
206.8898672757271129
 51
208.799471997426906
  0
ARC
  5
21E93
  8
0
 10
4446.8266606488587058
 20
466.2763335192898921
 30
0.0
 40
0.0114841850129571
 50
212.6719540448173973
 51
315.7685916736160152
  0
ARC
  5
21E94
  8
0
 10
4446.8289065505477993
 20
466.2756549998716196
 30
0.0
 40
0.0094635081578063
 50
309.212718201032601
 51
10.32909258687455
  0
ARC
  5
21E95
  8
0
 10
4444.987494178381894
 20
465.4870457489781188
 30
0.0
 40
2.0124009348011311
 50
23.1237274985061987
 51
26.1063991715985111
  0
ARC
  5
21E96
  8
0
 10
4386.8885270036207658
 20
445.7479764025471809
 30
0.0
 40
63.3570070428592018
 50
18.9976866945334386
 51
19.1304154311845203
  0
ARC
  5
21E97
  8
0
 10
4446.6958860712747992
 20
466.4945546143662796
 30
0.0
 40
0.053453258364612
 50
18.2584259712817492
 51
32.0514893372750294
  0
ARC
  5
21E98
  8
0
 10
4446.7326393198936785
 20
466.5166406035716022
 30
0.0
 40
0.010610695624435
 50
36.2931398945597792
 51
64.3316028820959502
  0
ARC
  5
21E99
  8
0
 10
4446.7327514676517239
 20
466.5163330790471719
 30
0.0
 40
0.0108418260220232
 50
65.5698433982071833
 51
152.2067713874355945
  0
ARC
  5
21E9A
  8
0
 10
4446.7352459481426195
 20
466.5163928087746967
 30
0.0
 40
0.0130773376325324
 50
157.5420142408970037
 51
203.2689431755767941
  0
ARC
  5
21E9B
  8
0
 10
4450.980111865109393
 20
468.1529377210162011
 30
0.0
 40
4.5885278752181486
 50
200.9632843469115926
 51
204.1262898824016929
  0
ARC
  5
21E9C
  8
0
 10
4448.1430200455333761
 20
467.0051236691542726
 30
0.0
 40
1.5515887665967629
 50
198.558233298527
 51
207.9715997643268111
  0
ARC
  5
21E9D
  8
0
 10
4448.0664379670688504
 20
466.9875887353916823
 30
0.0
 40
1.510842616047281
 50
198.3941790697373051
 51
208.0395012961535883
  0
ARC
  5
21E9E
  8
0
 10
4448.3144723332670765
 20
467.0811444007396744
 30
0.0
 40
1.7580875356253971
 50
198.8905284051438116
 51
207.2491676200064035
  0
ARC
  5
21E9F
  8
0
 10
4448.0531151383938777
 20
466.9637673797570869
 30
0.0
 40
1.5259315436216689
 50
197.2845459993403097
 51
206.7328808050372118
  0
ARC
  5
21EA0
  8
0
 10
4448.1714573227964138
 20
467.008398442322175
 30
0.0
 40
1.6347735607877709
 50
197.6787481274093921
 51
206.5633183326006872
  0
ARC
  5
21EA1
  8
0
 10
4447.6692114687566573
 20
466.8120237896657727
 30
0.0
 40
1.136013660394231
 50
195.3501726924318973
 51
208.0762921748348901
  0
ARC
  5
21EA2
  8
0
 10
4447.4247666745213792
 20
466.7168082047912208
 30
0.0
 40
0.8908317152783627
 50
193.4463128780932095
 51
209.568210355099211
  0
ARC
  5
21EA3
  8
0
 10
4447.6890272089967766
 20
466.7837041967184746
 30
0.0
 40
1.178367160266818
 50
193.3660272584569952
 51
205.4452641608274917
  0
ARC
  5
21EA4
  8
0
 10
4447.3496897748118499
 20
466.6698673362243994
 30
0.0
 40
0.8380079369481778
 50
190.7866310552194022
 51
207.9271740273846092
  0
ARC
  5
21EA5
  8
0
 10
4447.6013551227479184
 20
466.7496609928588782
 30
0.0
 40
1.11500934448975
 50
192.3435694241906901
 51
204.9649843548264982
  0
ARC
  5
21EA6
  8
0
 10
4447.2802205003454219
 20
466.6354196083099737
 30
0.0
 40
0.790238270681174
 50
189.0375578055098913
 51
206.9450087668180061
  0
ARC
  5
21EA7
  8
0
 10
4447.4691619913255636
 20
466.6633773786156212
 30
0.0
 40
0.9915180465803189
 50
188.8226307981730088
 51
202.9203407291570045
  0
ARC
  5
21EA8
  8
0
 10
4447.3878895296347764
 20
466.6284321005683182
 30
0.0
 40
0.9158530288787256
 50
187.3478586017324119
 51
202.5525141627718142
  0
ARC
  5
21EA9
  8
0
 10
4447.4818592061792515
 20
466.6320016520983813
 30
0.0
 40
1.0197244354712161
 50
186.7977548958481862
 51
200.3543146632007961
  0
ARC
  5
21EAA
  8
0
 10
4447.3883758389629293
 20
466.59421208049298
 30
0.0
 40
0.9303697550887715
 50
185.1128216411655103
 51
199.9122584047063924
  0
ARC
  5
21EAB
  8
0
 10
4447.4494697741120035
 20
466.5821795816585791
 30
0.0
 40
0.9976257706524616
 50
184.0739599491398906
 51
197.8055540196752133
  0
ARC
  5
21EAC
  8
0
 10
4447.5347562406122961
 20
466.5797923767785846
 30
0.0
 40
1.0880383111733209
 50
183.6091540377861122
 51
196.1397500881020051
  0
ARC
  5
21EAD
  8
0
 10
4447.5121162983969043
 20
466.5485012644631979
 30
0.0
 40
1.0682118682424899
 50
181.9956465081230874
 51
194.6955621857210872
  0
ARC
  5
21EAE
  8
0
 10
4447.5507808652482709
 20
466.5308489476739737
 30
0.0
 40
1.110326572516962
 50
181.0184540003770906
 51
193.2334268848941861
  0
ARC
  5
21EAF
  8
0
 10
4447.6851896690332069
 20
466.5172649697178144
 30
0.0
 40
1.247300195784367
 50
180.2739310479884978
 51
191.0880631143830897
  0
ARC
  5
21EB0
  8
0
 10
4447.7128199466460501
 20
466.4944605907201094
 30
0.0
 40
1.276769174206694
 50
179.2442243923931926
 51
189.7893242881359868
  0
ARC
  5
21EB1
  8
0
 10
4448.0703009324579398
 20
466.4868765662179726
 30
0.0
 40
1.6357853243363081
 50
181.574656535736807
 51
187.3616144538040089
  0
ARC
  5
21EB2
  8
0
 10
4447.45555498019894
 20
466.4129019505579095
 30
0.0
 40
1.0215084529723819
 50
182.6431117378774047
 51
187.625331498924993
  0
ARC
  5
21EB3
  8
0
 10
4447.7415366717132201
 20
466.3923081052482189
 30
0.0
 40
1.3071478749622001
 50
181.9338199295146126
 51
185.0455542779322116
  0
ARC
  5
21EB4
  8
0
 10
4447.3847613082552925
 20
466.3366112134352761
 30
0.0
 40
0.9497366016289083
 50
180.8662667955755978
 51
183.6214687521872975
  0
ARC
  5
21EB5
  8
0
 10
4446.8003638046457127
 20
466.2908341335000273
 30
0.0
 40
0.0307748940150163
 50
205.9322598177963073
 51
229.9480443223114037
  0
ARC
  5
21EB6
  8
0
 10
4446.7861826268654113
 20
466.2739647537902101
 30
0.0
 40
0.0087367050005842
 50
229.9480443223135069
 51
315.1928426087690127
  0
ARC
  5
21EB7
  8
0
 10
4446.7883059356317972
 20
466.2718556901359079
 30
0.0
 40
0.0057439488099609
 50
315.1928426087714001
 51
3.3044638975780152
  0
ARC
  5
21EB8
  8
0
 10
4446.7829273692623246
 20
466.2715453305705751
 30
0.0
 40
0.0111314620815547
 50
3.3035026753187511
 51
31.6136380277807483
  0
ARC
  5
21EB9
  8
0
 10
4446.7720306080118462
 20
466.2969857244233935
 30
0.0
 40
0.0437422189834289
 50
206.6412904739453893
 51
214.8160151831314124
  0
ARC
  5
21EBA
  8
0
 10
4446.7631136170975878
 20
466.2907845571352254
 30
0.0
 40
0.0328809482157518
 50
214.8160151831287124
 51
226.1208192642305903
  0
ARC
  5
21EBB
  8
0
 10
4446.7448732751790885
 20
466.2718162472119161
 30
0.0
 40
0.0065654232414408
 50
226.1208192642305903
 51
290.5862365157236127
  0
ARC
  5
21EBC
  8
0
 10
4446.7441670035450443
 20
466.2736966238329046
 30
0.0
 40
0.0085740635423073
 50
290.5862365157236127
 51
336.8811282025849891
  0
ARC
  5
21EBD
  8
0
 10
4446.7455211886499455
 20
466.2726575897959833
 30
0.0
 40
0.0069336327507363
 50
340.3860628148989917
 51
30.5768486704615796
  0
ARC
  5
21EBE
  8
0
 10
4446.7204556897768271
 20
466.2906461730594856
 30
0.0
 40
0.0329682750511345
 50
203.7750164960077939
 51
217.4737495569252133
  0
ARC
  5
21EBF
  8
0
 10
4446.7092455285337564
 20
466.2820524709762253
 30
0.0
 40
0.0188431403407332
 50
217.4737495569252133
 51
238.2831798249075064
  0
ARC
  5
21EC0
  8
0
 10
4446.7030259270513852
 20
466.2738339457370103
 30
0.0
 40
0.0086368714571873
 50
244.7322397548450112
 51
313.1833138889684847
  0
ARC
  5
21EC1
  8
0
 10
4446.7029334437020225
 20
466.2726393190962995
 30
0.0
 40
0.0078789346060498
 50
319.6323738189199162
 51
36.7157313444365485
  0
ARC
  5
21EC2
  8
0
 10
4446.650135132406831
 20
466.26648804269729
 30
0.0
 40
0.0199689964452903
 50
20.5921565428219289
 51
32.9935497775652777
  0
ARC
  5
21EC3
  8
0
 10
4446.6618278385212761
 20
466.2723160532149222
 30
0.0
 40
0.0071017480300832
 50
325.7872584581957085
 51
9.6900643425207633
  0
ARC
  5
21EC4
  8
0
 10
4446.6616368976647209
 20
466.2724666202807953
 30
0.0
 40
0.0073443265963311
 50
275.5579596670634146
 51
325.6534456029659168
  0
ARC
  5
21EC5
  8
0
 10
4446.6627201290702942
 20
466.2724215780756936
 30
0.0
 40
0.0072742704564915
 50
223.4848881785677861
 51
267.069341969850484
  0
ARC
  5
21EC6
  8
0
 10
4446.6964906252478613
 20
466.3050282149247892
 30
0.0
 40
0.0542169557159503
 50
210.8588977186207956
 51
223.9269718653006862
  0
ARC
  5
21EC7
  8
0
 10
4446.6504477924127059
 20
466.2983765702326764
 30
0.0
 40
0.0462157709486286
 50
207.010877726024404
 51
221.8038196140996092
  0
ARC
  5
21EC8
  8
0
 10
4446.623478026185694
 20
466.2742595807503108
 30
0.0
 40
0.0100357008544094
 50
221.8038196140996092
 51
237.3567012301618036
  0
ARC
  5
21EC9
  8
0
 10
4446.6210252719283744
 20
466.2704306938294962
 30
0.0
 40
0.0054885722544614
 50
237.3567012301635089
 51
268.6730887582609739
  0
ARC
  5
21ECA
  8
0
 10
4446.6209880493379387
 20
466.2688237166681802
 30
0.0
 40
0.0038811640553963
 50
268.6730887582609739
 51
309.8474065540603988
  0
ARC
  5
21ECB
  8
0
 10
4446.6188548585978424
 20
466.2728565767503142
 30
0.0
 40
0.0083977227380762
 50
303.3774729465849873
 51
327.6102727766871112
  0
ARC
  5
21ECC
  8
0
 10
4446.6205795553141797
 20
466.2717218472240006
 30
0.0
 40
0.0063335937311935
 50
327.9207010626607826
 51
10.8843277945163397
  0
ARC
  5
21ECD
  8
0
 10
4446.5972416943041026
 20
466.2635091785888903
 30
0.0
 40
0.0310188474765994
 50
17.6570891713475291
 51
26.6458631579095595
  0
ARC
  5
21ECE
  8
0
 10
4446.6246758826546284
 20
466.3021821705463026
 30
0.0
 40
0.0548567820629207
 50
206.9329917238304972
 51
213.7290806710761899
  0
ARC
  5
21ECF
  8
0
 10
4446.6120417405918488
 20
466.2937469774234955
 30
0.0
 40
0.0396655336387883
 50
213.7290806710734898
 51
222.6511476355020989
  0
ARC
  5
21ED0
  8
0
 10
4446.5863958460131471
 20
466.2701220814179237
 30
0.0
 40
0.0047965270561847
 50
222.6511476354997114
 51
306.2156900682722949
  0
ARC
  5
21ED1
  8
0
 10
4446.5843749024361387
 20
466.2728817646685116
 30
0.0
 40
0.0082170627720822
 50
306.2156900682762171
 51
32.4288987538627325
  0
ARC
  5
21ED2
  8
0
 10
4446.525403753739738
 20
466.2490730832187751
 30
0.0
 40
0.0716924074528917
 50
23.1760549850145985
 51
24.72144014567683
  0
ARC
  5
21ED3
  8
0
 10
4446.5748116197219133
 20
466.2911650249125728
 30
0.0
 40
0.0356022931429642
 50
203.138462082833513
 51
214.0426352513040911
  0
ARC
  5
21ED4
  8
0
 10
4446.5815945108233791
 20
466.2957510783310795
 30
0.0
 40
0.043790057822906
 50
214.0465255786400007
 51
222.4190363349769086
  0
ARC
  5
21ED5
  8
0
 10
4446.5516040877328123
 20
466.268572794886893
 30
0.0
 40
0.0033212978600817
 50
225.2858398269644908
 51
305.2929845947447802
  0
ARC
  5
21ED6
  8
0
 10
4446.5498807954772928
 20
466.2720338779490135
 30
0.0
 40
0.0071664929120546
 50
300.5457329730077163
 51
351.5922720313204195
  0
ARC
  5
21ED7
  8
0
 10
4446.5475365862303079
 20
466.2725086324584822
 30
0.0
 40
0.0095557674943571
 50
350.8314242225595194
 51
15.6633849399387604
  0
ARC
  5
21ED8
  8
0
 10
4446.5445150661316802
 20
466.2716863623638801
 30
0.0
 40
0.0126871053640369
 50
15.5548594310120194
 51
25.9080965372675607
  0
ARC
  5
21ED9
  8
0
 10
4446.5719214724485937
 20
466.2998898596424056
 30
0.0
 40
0.0625008271847416
 50
201.1429249727889896
 51
209.921675155299198
  0
ARC
  5
21EDA
  8
0
 10
4446.5293852854647412
 20
466.2754090503304951
 30
0.0
 40
0.0134229581625158
 50
209.921675155299198
 51
223.7731070899353938
  0
ARC
  5
21EDB
  8
0
 10
4446.5218477389371401
 20
466.2681875914345255
 30
0.0
 40
0.002984372231155
 50
223.7731070899353938
 51
297.1692264902862917
  0
ARC
  5
21EDC
  8
0
 10
4446.5206644496638546
 20
466.2704930683012776
 30
0.0
 40
0.005575780552242
 50
297.1692264902862917
 51
335.6757315642649928
  0
ARC
  5
21EDD
  8
0
 10
4446.515719396363238
 20
466.2727283675212107
 30
0.0
 40
0.0110025765453151
 50
335.6757315642739172
 51
0.1808805646680498
  0
ARC
  5
21EDE
  8
0
 10
4446.5147490804483823
 20
466.2727253042610869
 30
0.0
 40
0.0119728972955398
 50
0.1808805646647929
 51
22.5481227595088782
  0
ARC
  5
21EDF
  8
0
 10
4446.5393832207992091
 20
466.2925112410638917
 30
0.0
 40
0.0520428685195448
 50
196.9506631972681134
 51
202.9502840076739005
  0
ARC
  5
21EE0
  8
0
 10
4446.5629528218041742
 20
466.3024918155409182
 30
0.0
 40
0.0776385314028088
 50
202.9502840076739005
 51
206.5840788591524131
  0
ARC
  5
21EE1
  8
0
 10
4446.49868659994263
 20
466.2703320220084038
 30
0.0
 40
0.0057747742477643
 50
206.5840788591465014
 51
235.2893625102977069
  0
ARC
  5
21EE2
  8
0
 10
4446.4965439134721237
 20
466.2675688744204194
 30
0.0
 40
0.0022909687346839
 50
239.9950532703032877
 51
315.3832905430123219
  0
ARC
  5
21EE3
  8
0
 10
4446.492573353588341
 20
466.2713690105003934
 30
0.0
 40
0.0077868141164679
 50
315.9995210655364986
 51
354.4138631620730848
  0
ARC
  5
21EE4
  8
0
 10
4446.4870075645667384
 20
466.2724821260986232
 30
0.0
 40
0.0134464435308599
 50
352.0012170958809179
 51
14.8265186291429494
  0
ARC
  5
21EE5
  8
0
 10
4446.4531692001273768
 20
466.2618510210655245
 30
0.0
 40
0.0489053661199349
 50
16.722614071142349
 51
18.1902795387861111
  0
ARC
  5
21EE6
  8
0
 10
4446.6116109246422639
 20
466.3273709279382047
 30
0.0
 40
0.150470066751949
 50
199.6894400560071006
 51
203.6505179512082009
  0
ARC
  5
21EE7
  8
0
 10
4446.4774826027742165
 20
466.2686308162724913
 30
0.0
 40
0.004043267819465
 50
203.6505179512232075
 51
228.7590988032532096
  0
ARC
  5
21EE8
  8
0
 10
4446.4759454555387492
 20
466.2670956183013118
 30
0.0
 40
0.0018810611104336
 50
233.1436161595023862
 51
325.5485763400868109
  0
ARC
  5
21EE9
  8
0
 10
4446.4646637280020514
 20
466.2734605385884947
 30
0.0
 40
0.0148281197779307
 50
329.9330936963449972
 51
0.7892840868215093
  0
ARC
  5
21EEA
  8
0
 10
4446.9228061585654359
 20
466.3495849627332177
 30
0.0
 40
0.4497696042540966
 50
189.2208055959746105
 51
189.7179337294612935
  0
ARC
  5
21EEB
  8
0
 10
4446.5318136702771881
 20
466.2916431681745166
 30
0.0
 40
0.078480209637929
 50
190.4736404813183981
 51
195.3653917464617109
  0
ARC
  5
21EEC
  8
0
 10
4446.5011401926731196
 20
466.2832142148355956
 30
0.0
 40
0.0466696849228029
 50
195.3653917464617109
 51
200.3169192449890943
  0
ARC
  5
21EED
  8
0
 10
4446.4605891419660111
 20
466.2682003110904247
 30
0.0
 40
0.0034284428132243
 50
200.31691924498611
 51
231.1977453064534984
  0
ARC
  5
21EEE
  8
0
 10
4446.4587561613043363
 20
466.2669988380051223
 30
0.0
 40
0.0015038050896623
 50
257.8932060111628743
 51
346.8338190940806953
  0
ARC
  5
21EEF
  8
0
 10
4446.4477602931056026
 20
466.2726767112657171
 30
0.0
 40
0.0138383685512867
 50
334.2114233957709075
 51
1.700694575677437
  0
ARC
  5
21EF0
  8
0
 10
4446.4421755731691519
 20
466.2733637773170017
 30
0.0
 40
0.019418959379397
 50
359.1845527497076773
 51
11.9580179031585896
  0
ARC
  5
21EF1
  8
0
 10
4447.9688649425652329
 20
466.4803656919106061
 30
0.0
 40
1.539232730325524
 50
187.578929701146194
 51
187.7604656109517123
  0
ARC
  5
21EF2
  8
0
 10
4446.528497953851911
 20
466.2840723717857827
 30
0.0
 40
0.0855518404121818
 50
187.7604656109517123
 51
190.9501994803314062
  0
ARC
  5
21EF3
  8
0
 10
4446.4518603686929055
 20
466.2692446515713982
 30
0.0
 40
0.0074930116622546
 50
190.9501994803250113
 51
206.0790633340234876
  0
ARC
  5
21EF4
  8
0
 10
4446.4461463909647136
 20
466.2664479913747755
 30
0.0
 40
0.0011313413048005
 50
206.0790633339971123
 51
294.2418337877596173
  0
ARC
  5
21EF5
  8
0
 10
4446.4441499154063422
 20
466.2678602068850182
 30
0.0
 40
0.0034682298338147
 50
315.200875438838807
 51
343.870819265043508
  0
ARC
  5
21EF6
  8
0
 10
4446.4214279189482113
 20
466.2734000152124167
 30
0.0
 40
0.026853093315864
 50
345.9847274529296897
 51
8.3108128426022123
  0
ARC
  5
21EF7
  8
0
 10
4446.3916503846567139
 20
466.2733701380632283
 30
0.0
 40
0.0479687023357293
 50
355.8611217672535076
 51
4.7475240839470763
  0
ARC
  5
21EF8
  8
0
 10
4446.4007666441129913
 20
466.2727104585060829
 30
0.0
 40
0.0388286058597288
 50
350.813478497496078
 51
355.8611217672535076
  0
ARC
  5
21EF9
  8
0
 10
4446.4342873697305549
 20
466.2672893777462946
 30
0.0
 40
0.0048723522000052
 50
335.5122417151287095
 51
350.8134784974993181
  0
ARC
  5
21EFA
  8
0
 10
4446.4379802132707482
 20
466.2656074047673087
 30
0.0
 40
0.0008145046779596
 50
308.5715939094584996
 51
335.512241715227276
  0
ARC
  5
21EFB
  8
0
 10
4446.438434616466111
 20
466.2651878739300173
 30
0.0
 40
0.0002237471595171
 50
206.7807630643600874
 51
283.8165650904510926
  0
ARC
  5
21EFC
  8
0
 10
4446.4618978036905901
 20
466.2718473508875263
 30
0.0
 40
0.0246096734912793
 50
182.022488377580288
 51
195.944173630888514
  0
ARC
  5
21EFD
  8
0
 10
4446.6982041108449266
 20
466.2914871883660908
 30
0.0
 40
0.261705448715192
 50
183.2563106986480079
 51
184.4945499979546923
  0
ARC
  5
21EFE
  8
0
 10
4446.6678744795626699
 20
466.5186420739642017
 30
0.0
 40
0.231828906301493
 50
178.8619622092359123
 51
181.8144525546447028
  0
ARC
  5
21EFF
  8
0
 10
4446.4671282701747259
 20
466.5226299212862955
 30
0.0
 40
0.0310430912899085
 50
173.4730452311318913
 51
178.8619622092359123
  0
ARC
  5
21F00
  8
0
 10
4446.439053846564093
 20
466.5258419775860261
 30
0.0
 40
0.0027855159028253
 50
151.2636673796345121
 51
173.4730452311189026
  0
ARC
  5
21F01
  8
0
 10
4446.0966887812055575
 20
466.4915246398047088
 30
0.0
 40
0.3417876102444993
 50
3.3171846065460371
 51
5.9882049405703253
  0
ARC
  5
21F02
  8
0
 10
4446.4794447923059124
 20
466.5152919896141839
 30
0.0
 40
0.0390393527346257
 50
162.6484063604277992
 51
186.1442728042972874
  0
ARC
  5
21F03
  8
0
 10
4446.3926201017184212
 20
466.5114129863313792
 30
0.0
 40
0.0519356566502544
 50
359.795535739538991
 51
17.3896011220690205
  0
ARC
  5
21F04
  8
0
 10
4446.4983178020702326
 20
466.5171846253660988
 30
0.0
 40
0.0497908669834895
 50
174.6036502697720891
 51
186.7870127097399973
  0
ARC
  5
21F05
  8
0
 10
4446.4611746104501435
 20
466.5206933032187067
 30
0.0
 40
0.0124823223330277
 50
156.6801170930621083
 51
174.6036502697753008
  0
ARC
  5
21F06
  8
0
 10
4446.4507210748788566
 20
466.5251996079728087
 30
0.0
 40
0.0010988611513564
 50
29.6584190545618718
 51
156.680117093100904
  0
ARC
  5
21F07
  8
0
 10
4446.241804355820932
 20
466.4847248326747717
 30
0.0
 40
0.2142158134607634
 50
7.1274711322025421
 51
10.2959248602175801
  0
ARC
  5
21F08
  8
0
 10
4446.442211202859653
 20
466.5211302049087863
 30
0.0
 40
0.0105291534474978
 50
10.29592486020797
 51
25.9847041695513283
  0
ARC
  5
21F09
  8
0
 10
4446.5043975231656077
 20
466.5185129573001745
 30
0.0
 40
0.0432946839470402
 50
177.6548230641593875
 51
189.5900861150645085
  0
ARC
  5
21F0A
  8
0
 10
4446.4763773032509562
 20
466.5196604954916779
 30
0.0
 40
0.0152509757749696
 50
160.7732299101049875
 51
177.6548230641593875
  0
ARC
  5
21F0B
  8
0
 10
4446.4708773190186548
 20
466.521578674477496
 30
0.0
 40
0.0094260949036239
 50
149.4635722736175012
 51
160.7732299101018896
  0
ARC
  5
21F0C
  8
0
 10
4446.4642644765954174
 20
466.5254796016085947
 30
0.0
 40
0.0017484053150479
 50
38.9975592269060627
 51
149.4635722735685874
  0
ARC
  5
21F0D
  8
0
 10
4446.3897752065422537
 20
466.5023323692316808
 30
0.0
 40
0.0800322915288036
 50
6.4348867567556702
 51
11.6414153774163598
  0
ARC
  5
21F0E
  8
0
 10
4446.3613685656127927
 20
466.4964799215924813
 30
0.0
 40
0.109035539489346
 50
11.6414153774163598
 51
14.4371358375744503
  0
ARC
  5
21F0F
  8
0
 10
4446.4581981083128994
 20
466.5214084303884192
 30
0.0
 40
0.0090485858880511
 50
14.4371358375618293
 51
34.8560770591524971
  0
ARC
  5
21F10
  8
0
 10
4446.3938109374776104
 20
466.4972768970405923
 30
0.0
 40
0.0965885636088599
 50
8.347722810569234
 51
12.8913851958037107
  0
ARC
  5
21F11
  8
0
 10
4446.4413474249604405
 20
466.5081566839750735
 30
0.0
 40
0.0478229260570366
 50
12.8913851958068797
 51
19.5297379873795514
  0
ARC
  5
21F12
  8
0
 10
4446.4815928662610531
 20
466.522431854352476
 30
0.0
 40
0.0051207477190287
 50
19.5297379873734016
 51
47.1439496760971579
  0
ARC
  5
21F13
  8
0
 10
4446.4829903449171979
 20
466.523938035747392
 30
0.0
 40
0.0030661117444511
 50
47.1439496760905072
 51
130.4321337273198935
  0
ARC
  5
21F14
  8
0
 10
4446.4900982925137214
 20
466.5196818902534233
 30
0.0
 40
0.0112327053660229
 50
144.0783087043849093
 51
179.2632911659036097
  0
ARC
  5
21F15
  8
0
 10
4446.5106842674158543
 20
466.5181144577442751
 30
0.0
 40
0.0318637691676058
 50
176.9203418452138123
 51
192.3472551559368071
  0
ARC
  5
21F16
  8
0
 10
4446.5258723854130949
 20
466.5172299975898795
 30
0.0
 40
0.0267482651602445
 50
179.6262992876434907
 51
192.8361487865415995
  0
ARC
  5
21F17
  8
0
 10
4446.5141826440531077
 20
466.5173062427629134
 30
0.0
 40
0.0150582751521252
 50
152.1223281386226063
 51
179.6262992876434907
  0
ARC
  5
21F18
  8
0
 10
4446.5045949614686833
 20
466.522377876608175
 30
0.0
 40
0.0042118413047426
 50
47.1223254838858097
 51
152.1223281386139945
  0
ARC
  5
21F19
  8
0
 10
4446.4587792925603935
 20
466.5023182941936284
 30
0.0
 40
0.0540930041289257
 50
9.5596640634353047
 51
17.6732879602244317
  0
ARC
  5
21F1A
  8
0
 10
4446.4726320908439448
 20
466.5066888163879071
 30
0.0
 40
0.0395671942814436
 50
17.7331051111576201
 51
28.3282771841413208
  0
ARC
  5
21F1B
  8
0
 10
4446.5409369201561276
 20
466.5170455691173856
 30
0.0
 40
0.0149952764024457
 50
153.7209109376989886
 51
195.5232903436539971
  0
ARC
  5
21F1C
  8
0
 10
4446.5331431675085696
 20
466.5208939429920747
 30
0.0
 40
0.0063031787377693
 50
114.6242059094702057
 51
153.7209109376960043
  0
ARC
  5
21F1D
  8
0
 10
4446.5330880707779215
 20
466.5210141504903731
 30
0.0
 40
0.0061709460170327
 50
26.1247639919598988
 51
114.6242059094687988
  0
ARC
  5
21F1E
  8
0
 10
4446.4990060162808732
 20
466.5042992543653213
 30
0.0
 40
0.0441311118650563
 50
9.1274226121178899
 51
26.1247639919598988
  0
ARC
  5
21F1F
  8
0
 10
4446.5721052544204213
 20
466.5162641586614996
 30
0.0
 40
0.0152549419874215
 50
164.9482476194596074
 51
205.6553727279238046
  0
ARC
  5
21F20
  8
0
 10
4446.5707332022639093
 20
466.5166331275336802
 30
0.0
 40
0.0138341446254107
 50
141.0446646211254063
 51
164.9482476194658886
  0
ARC
  5
21F21
  8
0
 10
4446.5638097508999635
 20
466.5222306972237902
 30
0.0
 40
0.0049309449065552
 50
87.5531813481232462
 51
141.0446646211279926
  0
ARC
  5
21F22
  8
0
 10
4446.5637372951377984
 20
466.520535072821076
 30
0.0
 40
0.0066281166576999
 50
57.3986325628404686
 51
87.5531813481232462
  0
ARC
  5
21F23
  8
0
 10
4446.5587445406226834
 20
466.5164469283848803
 30
0.0
 40
0.0129184771550194
 50
12.1350861076322705
 51
48.4770107347463224
  0
ARC
  5
21F24
  8
0
 10
4446.028854361541562
 20
466.3527358533665961
 30
0.0
 40
0.5674731760153131
 50
16.2257789286277792
 51
17.0542402467045697
  0
ARC
  5
21F25
  8
0
 10
4446.6464877745393096
 20
466.5172666016900962
 30
0.0
 40
0.0508620592534397
 50
175.5776037258322049
 51
187.7740461568346007
  0
ARC
  5
21F26
  8
0
 10
4446.6021486681929673
 20
466.5206957447833815
 30
0.0
 40
0.0063905473178342
 50
105.3512540316044976
 51
175.5776037258322049
  0
ARC
  5
21F27
  8
0
 10
4446.6025470207150647
 20
466.5192447143278969
 30
0.0
 40
0.0078952646046285
 50
33.5484483701147269
 51
105.3512540316044976
  0
ARC
  5
21F28
  8
0
 10
4446.5604104220856243
 20
466.4969139227553114
 30
0.0
 40
0.0555507435044762
 50
15.7052993068148492
 51
28.7203132398382017
  0
ARC
  5
21F29
  8
0
 10
4446.6467486036599439
 20
466.5177042551816839
 30
0.0
 40
0.0155583086080558
 50
155.6181710838220908
 51
206.1868824158283076
  0
ARC
  5
21F2A
  8
0
 10
4446.6391033015452194
 20
466.5186821147333944
 30
0.0
 40
0.0084986879822808
 50
25.9958950108666116
 51
140.1582164651694882
  0
ARC
  5
21F2B
  8
0
 10
4446.5921154230973116
 20
466.4936436210709871
 30
0.0
 40
0.0617366866142108
 50
17.2432742417926796
 51
27.7689074749039904
  0
ARC
  5
21F2C
  8
0
 10
4446.6868136674665948
 20
466.5167444162220249
 30
0.0
 40
0.0156758619408526
 50
174.5146871606233105
 51
200.314818582187911
  0
ARC
  5
21F2D
  8
0
 10
4446.6811410846203216
 20
466.517289238102876
 30
0.0
 40
0.0099771755112059
 50
125.9886703412139042
 51
174.515154929250798
  0
ARC
  5
21F2E
  8
0
 10
4446.6810842901431897
 20
466.5173674415080995
 30
0.0
 40
0.0098805246699602
 50
54.5539492423339922
 51
125.9886703412119999
  0
ARC
  5
21F2F
  8
0
 10
4446.6699277652051023
 20
466.5056580835641853
 30
0.0
 40
0.0259915614375146
 50
12.54091061188673
 51
49.4813588239620472
  0
ARC
  5
21F30
  8
0
 10
4446.9848783548823121
 20
466.2816641255615764
 30
0.0
 40
0.0191974996992028
 50
315.518411780244378
 51
347.0072213172555848
  0
ARC
  5
21F31
  8
0
 10
4446.9910107073519612
 20
466.2756417519622119
 30
0.0
 40
0.0106024586526645
 50
214.8342783419861064
 51
315.5184117802421042
  0
ARC
  5
21F32
  8
0
 10
4446.9904199611382865
 20
466.2736823486958997
 30
0.0
 40
0.0090876489919055
 50
157.3225383584396013
 51
206.795440478905391
  0
ARC
  5
21F33
  8
0
 10
4448.4120337806716634
 20
465.9084618711927988
 30
0.0
 40
1.476771600779212
 50
155.9073406512301005
 51
165.5412697060029075
  0
ARC
  5
21F34
  8
0
 10
4447.089496044720363
 20
466.5047516380366233
 30
0.0
 40
0.0264117487146388
 50
132.4598779753411009
 51
165.6447644216152923
  0
ARC
  5
21F35
  8
0
 10
4447.0813831432733423
 20
466.5102850367786118
 30
0.0
 40
0.0170021900631361
 50
62.7507654240810808
 51
124.8558169797424
  0
ARC
  5
21F36
  8
0
 10
4447.0836037278422737
 20
466.5161843379643756
 30
0.0
 40
0.0107654225309216
 50
335.9677661294277868
 51
58.8790306653260274
  0
ARC
  5
21F37
  8
0
 10
4453.5292639920962756
 20
463.9108854222333775
 30
0.0
 40
6.9415156571478729
 50
157.9948618681260939
 51
160.0674066777586972
  0
ARC
  5
21F38
  8
0
 10
4451.2466785830602021
 20
464.7484008692982798
 30
0.0
 40
4.4847173760405976
 50
156.8530491676945076
 51
160.0668418565028048
  0
ARC
  5
21F39
  8
0
 10
4439.040698207096284
 20
469.5106056788400224
 30
0.0
 40
8.6406546005728426
 50
338.025651787052027
 51
339.6890192893656035
  0
ARC
  5
21F3A
  8
0
 10
4447.0327936498715644
 20
466.2836414147213873
 30
0.0
 40
0.0217587685730217
 50
317.1983576575156007
 51
343.1837002416478981
  0
ARC
  5
21F3B
  8
0
 10
4447.0402194916287044
 20
466.2767646144667992
 30
0.0
 40
0.0116378245675952
 50
215.9082220556011862
 51
317.1983576575179882
  0
ARC
  5
21F3C
  8
0
 10
4447.0378361147049873
 20
466.2736886963293728
 30
0.0
 40
0.0079786938327445
 50
171.0114493045655024
 51
208.0306121107931006
  0
ARC
  5
21F3D
  8
0
 10
4446.9676697201866773
 20
466.2938189265373126
 30
0.0
 40
0.0650853203982482
 50
343.1338393597687855
 51
345.3401338641061784
  0
ARC
  5
21F3E
  8
0
 10
4447.1919551279097504
 20
466.4880084206970992
 30
0.0
 40
0.072799867587763
 50
152.6686514562478862
 51
161.3393051630476123
  0
ARC
  5
21F3F
  8
0
 10
4447.1369766773123047
 20
466.5164230199063127
 30
0.0
 40
0.0109127164310223
 50
105.1322010099721069
 51
152.6686514562478862
  0
ARC
  5
21F40
  8
0
 10
4447.1365487539123933
 20
466.5180054379886201
 30
0.0
 40
0.0092734588480971
 50
42.3533202667622888
 51
105.1322010099730022
  0
ARC
  5
21F41
  8
0
 10
4447.136369165465112
 20
466.5178417193105247
 30
0.0
 40
0.0095164728729326
 50
348.4546907049448237
 51
42.3533202667598871
  0
ARC
  5
21F42
  8
0
 10
4447.1271552191001319
 20
466.5197240968888082
 30
0.0
 40
0.0189207353609285
 50
333.5668792915125209
 51
348.4541275147047941
  0
ARC
  5
21F43
  8
0
 10
4443.8631444377142543
 20
467.6585778193266947
 30
0.0
 40
3.5241828155045112
 50
336.9251826550901114
 51
341.000180780194114
  0
ARC
  5
21F44
  8
0
 10
4446.8874315896782718
 20
466.3878534752607834
 30
0.0
 40
0.2443601869166986
 50
331.200528002573094
 51
333.1101327242728871
  0
ARC
  5
21F45
  8
0
 10
4447.091900037366031
 20
466.2763335192898921
 30
0.0
 40
0.0114841850129571
 50
224.2314083263840985
 51
327.3280459551825743
  0
ARC
  5
21F46
  8
0
 10
4447.0896541356769376
 20
466.2756549998716196
 30
0.0
 40
0.0094635081578063
 50
169.6709074131254056
 51
230.787281798967399
  0
ARC
  5
21F47
  8
0
 10
4448.9310665078419333
 20
465.4870457489781188
 30
0.0
 40
2.0124009348011311
 50
153.8936008284015031
 51
156.8762725014937871
  0
ARC
  5
21F48
  8
0
 10
4507.0300337048665824
 20
445.747976322983277
 30
0.0
 40
63.3570070898100397
 50
160.869584507390897
 51
161.0023132439866913
  0
ARC
  5
21F49
  8
0
 10
4447.2226746151163752
 20
466.4945546143662796
 30
0.0
 40
0.053453258364612
 50
147.9485106627249138
 51
161.7415740287181904
  0
ARC
  5
21F4A
  8
0
 10
4447.1859213664965864
 20
466.5166406035716022
 30
0.0
 40
0.010610695624435
 50
115.6683971179039929
 51
143.7068601054427859
  0
ARC
  5
21F4B
  8
0
 10
4447.1858092187403599
 20
466.5163330790471719
 30
0.0
 40
0.0108418260220232
 50
27.793228612564441
 51
114.4301566017928025
  0
ARC
  5
21F4C
  8
0
 10
4447.1833147382485549
 20
466.5163928087746967
 30
0.0
 40
0.0130773376325324
 50
336.7310568244232059
 51
22.4579857591029786
  0
ARC
  5
21F4D
  8
0
 10
4442.9384488201321801
 20
468.1529377244760894
 30
0.0
 40
4.5885278775315541
 50
335.8737100832178157
 51
339.0367156178837718
  0
ARC
  5
21F4E
  8
0
 10
4445.7755406404066889
 20
467.0051236703239965
 30
0.0
 40
1.551588767397152
 50
332.0284002024544066
 51
341.4417666658242183
  0
ARC
  5
21F4F
  8
0
 10
4445.852122718881219
 20
466.987588736532814
 30
0.0
 40
1.510842616826888
 50
331.9604986705714964
 51
341.6058208944854186
  0
ARC
  5
21F50
  8
0
 10
4445.6040883526293328
 20
467.0811444020549175
 30
0.0
 40
1.758087536519775
 50
332.7508323468118761
 51
341.1094715595194202
  0
ARC
  5
21F51
  8
0
 10
4445.8654455475625582
 20
466.9637673809068019
 30
0.0
 40
1.5259315443782511
 50
333.2671191609264838
 51
342.7154539642947952
  0
ARC
  5
21F52
  8
0
 10
4445.7471033631372848
 20
467.0083984435465823
 30
0.0
 40
1.634773561596317
 50
333.4366816335904105
 51
342.3212518365795063
  0
ARC
  5
21F53
  8
0
 10
4446.2493492172925471
 20
466.812023790515525
 30
0.0
 40
1.136013660948517
 50
331.9237077915076952
 51
344.6498272707988235
  0
ARC
  5
21F54
  8
0
 10
4446.4937940115860329
 20
466.7168082054590172
 30
0.0
 40
0.8908317157116742
 50
330.431789611322472
 51
346.5536870843969837
  0
ARC
  5
21F55
  8
0
 10
4446.2295334770642512
 20
466.7837041975930106
 30
0.0
 40
1.17836716079132
 50
334.5547358041981738
 51
346.6339727038964043
  0
ARC
  5
21F56
  8
0
 10
4446.5688709113219375
 20
466.669867336838422
 30
0.0
 40
0.8380079373165688
 50
332.0728259384561056
 51
349.2133689068376157
  0
ARC
  5
21F57
  8
0
 10
4446.3172055633312993
 20
466.7496609936894743
 30
0.0
 40
1.115009344972949
 50
335.0350156096690739
 51
347.6564305375546837
  0
ARC
  5
21F58
  8
0
 10
4446.6383401858056459
 20
466.635419608889606
 30
0.0
 40
0.7902382710097015
 50
333.0549911981370883
 51
350.962442155722897
  0
ARC
  5
21F59
  8
0
 10
4446.4493986948027668
 20
466.66337737933992
 30
0.0
 40
0.9915180469500926
 50
337.0796592344404985
 51
351.1773691627897165
  0
ARC
  5
21F5A
  8
0
 10
4446.5306711565172009
 20
466.628432101234182
 30
0.0
 40
0.9158530292020882
 50
337.4474858005295914
 51
352.652141358879021
  0
ARC
  5
21F5B
  8
0
 10
4446.4367014799690878
 20
466.6320016528380279
 30
0.0
 40
1.019724435801304
 50
339.6456852993781013
 51
353.2022450645138179
  0
ARC
  5
21F5C
  8
0
 10
4446.5301848472090569
 20
466.594212081164585
 30
0.0
 40
0.930369755367794
 50
340.0877415575259874
 51
354.8871783188487257
  0
ARC
  5
21F5D
  8
0
 10
4446.4690909120672586
 20
466.5821795823753178
 30
0.0
 40
0.997625770915924
 50
342.1944459419536884
 51
355.9260400106687143
  0
ARC
  5
21F5E
  8
0
 10
4446.383804445566966
 20
466.5797923775594995
 30
0.0
 40
1.088038311434268
 50
343.8602498730621164
 51
356.390845921868106
  0
ARC
  5
21F5F
  8
0
 10
4446.4064443878041857
 20
466.5485012652274008
 30
0.0
 40
1.068211868460393
 50
345.3044377749736213
 51
358.0043534512716974
  0
ARC
  5
21F60
  8
0
 10
4446.3677798209628236
 20
466.5308489484643246
 30
0.0
 40
1.1103265727106
 50
346.7665730755559821
 51
358.981545959012692
  0
ARC
  5
21F61
  8
0
 10
4446.233371017187892
 20
466.5172649706063908
 30
0.0
 40
1.247300195958944
 50
348.9119368455952213
 51
359.7260689112346768
  0
ARC
  5
21F62
  8
0
 10
4446.2057407395923292
 20
466.494460591628183
 30
0.0
 40
1.2767691743491261
 50
350.2106756716128189
 51
0.7557755667678815
  0
ARC
  5
21F63
  8
0
 10
4445.8482597537231413
 20
466.4868765678756972
 30
0.0
 40
1.635785324593203
 50
352.6383854888126734
 51
358.4253434064276007
  0
ARC
  5
21F64
  8
0
 10
4446.4630057060267063
 20
466.4129019505579095
 30
0.0
 40
1.0215084529723819
 50
352.3746685010748934
 51
357.3568882621224816
  0
ARC
  5
21F65
  8
0
 10
4446.1770240145106072
 20
466.3923081052482189
 30
0.0
 40
1.3071478749622001
 50
354.9544457220645768
 51
358.0661800704854159
  0
ARC
  5
21F66
  8
0
 10
4446.5337993779712633
 20
466.3366112134352761
 30
0.0
 40
0.9497366016289083
 50
356.3785312478127025
 51
359.1337332044242885
  0
ARC
  5
21F67
  8
0
 10
4447.1181968815799337
 20
466.2908341335000273
 30
0.0
 40
0.0307748940150163
 50
310.0519556776886247
 51
334.067740182203579
  0
ARC
  5
21F68
  8
0
 10
4447.1323780593602351
 20
466.2739647537902101
 30
0.0
 40
0.0087367050005842
 50
224.807157391230902
 51
310.0519556776865215
  0
ARC
  5
21F69
  8
0
 10
4447.1302547505920302
 20
466.2718556901359079
 30
0.0
 40
0.0057439488099609
 50
176.695536102422011
 51
224.8071573912285999
  0
ARC
  5
21F6A
  8
0
 10
4447.1356333169642312
 20
466.2715453305705751
 30
0.0
 40
0.0111314620815547
 50
148.3863619722191913
 51
176.6964973246811894
  0
ARC
  5
21F6B
  8
0
 10
4447.1465300782128907
 20
466.2969857244233935
 30
0.0
 40
0.0437422189834289
 50
325.1839848168685876
 51
333.3587095260546107
  0
ARC
  5
21F6C
  8
0
 10
4447.155447069127149
 20
466.2907845571352254
 30
0.0
 40
0.0328809482157518
 50
313.8791807357694097
 51
325.1839848168712024
  0
ARC
  5
21F6D
  8
0
 10
4447.1736874110465578
 20
466.2718162472119161
 30
0.0
 40
0.0065654232414408
 50
249.4137634842763873
 51
313.8791807357694097
  0
ARC
  5
21F6E
  8
0
 10
4447.1743936826796926
 20
466.2736966238329046
 30
0.0
 40
0.0085740635423073
 50
203.1188717974150109
 51
249.4137634842763873
  0
ARC
  5
21F6F
  8
0
 10
4447.1730394975757008
 20
466.2726575897959833
 30
0.0
 40
0.0069336327507363
 50
149.4231513295383991
 51
199.6139371851008946
  0
ARC
  5
21F70
  8
0
 10
4447.1981049964479098
 20
466.2906461730594856
 30
0.0
 40
0.0329682750511345
 50
322.5262504430747867
 51
336.2249835039921777
  0
ARC
  5
21F71
  8
0
 10
4447.2093151576900709
 20
466.2820524709762253
 30
0.0
 40
0.0188431403407332
 50
301.7168201750926073
 51
322.5262504430747867
  0
ARC
  5
21F72
  8
0
 10
4447.2155347591742611
 20
466.2738339457370103
 30
0.0
 40
0.0086368714571873
 50
226.8166861110314869
 51
295.2677602451549888
  0
ARC
  5
21F73
  8
0
 10
4447.2156272425227144
 20
466.2726393190962995
 30
0.0
 40
0.0078789346060498
 50
143.2842686555607941
 51
220.3676261810801122
  0
ARC
  5
21F74
  8
0
 10
4447.2684255538188154
 20
466.26648804269729
 30
0.0
 40
0.0199689964452903
 50
147.0064502224346938
 51
159.4078434571781031
  0
ARC
  5
21F75
  8
0
 10
4447.2567328477052797
 20
466.2723160532149222
 30
0.0
 40
0.0071017480300832
 50
170.3099356574792012
 51
214.2127415418042915
  0
ARC
  5
21F76
  8
0
 10
4447.256923788560016
 20
466.2724666202807953
 30
0.0
 40
0.0073443265963311
 50
214.3465543970341116
 51
264.4420403329365854
  0
ARC
  5
21F77
  8
0
 10
4447.2558405571553521
 20
466.2724215780756936
 30
0.0
 40
0.0072742704564915
 50
272.930658030149516
 51
316.5151118214322992
  0
ARC
  5
21F78
  8
0
 10
4447.222070060977785
 20
466.3050282149247892
 30
0.0
 40
0.0542169557159503
 50
316.0730281346993138
 51
329.141102281379176
  0
ARC
  5
21F79
  8
0
 10
4447.2681128938111215
 20
466.2983765702326764
 30
0.0
 40
0.0462157709486286
 50
318.1961803859003908
 51
332.9891222739756245
  0
ARC
  5
21F7A
  8
0
 10
4447.2950826600381333
 20
466.2742595807503108
 30
0.0
 40
0.0100357008544094
 50
302.6432987698382249
 51
318.1961803859003908
  0
ARC
  5
21F7B
  8
0
 10
4447.2975354142972719
 20
466.2704306938294962
 30
0.0
 40
0.0054885722544614
 50
271.3269112417389124
 51
302.6432987698364059
  0
ARC
  5
21F7C
  8
0
 10
4447.2975726368867981
 20
466.2688237166681802
 30
0.0
 40
0.0038811640553963
 50
230.1525934459394875
 51
271.3269112417389124
  0
ARC
  5
21F7D
  8
0
 10
4447.2997058276268945
 20
466.2728565767503142
 30
0.0
 40
0.0083977227380762
 50
212.3897272233128888
 51
236.622527053415098
  0
ARC
  5
21F7E
  8
0
 10
4447.2979811309105571
 20
466.2717218472240006
 30
0.0
 40
0.0063335937311935
 50
169.1156722054836052
 51
212.0792989373391038
  0
ARC
  5
21F7F
  8
0
 10
4447.3213189919197248
 20
466.2635091785888903
 30
0.0
 40
0.0310188474765994
 50
153.3541368420904121
 51
162.342910828652407
  0
ARC
  5
21F80
  8
0
 10
4447.2938848035701085
 20
466.3021821705463026
 30
0.0
 40
0.0548567820629207
 50
326.2709193289238101
 51
333.0670082761665753
  0
ARC
  5
21F81
  8
0
 10
4447.3065189456328881
 20
466.2937469774234955
 30
0.0
 40
0.0396655336387883
 50
317.3488523644978727
 51
326.2709193289265954
  0
ARC
  5
21F82
  8
0
 10
4447.3321648402115898
 20
466.2701220814179237
 30
0.0
 40
0.0047965270561847
 50
233.7843099317277051
 51
317.348852364500317
  0
ARC
  5
21F83
  8
0
 10
4447.3341857837885982
 20
466.2728817646685116
 30
0.0
 40
0.0082170627720822
 50
147.5711012461372036
 51
233.7843099317238114
  0
ARC
  5
21F84
  8
0
 10
4447.3931569324859083
 20
466.2490730832187751
 30
0.0
 40
0.0716924074528917
 50
155.2785598543231913
 51
156.8239450149854122
  0
ARC
  5
21F85
  8
0
 10
4447.3437490665028236
 20
466.2911650249125728
 30
0.0
 40
0.0356022931429642
 50
325.9573647486959089
 51
336.8615379171665154
  0
ARC
  5
21F86
  8
0
 10
4447.3369661754013578
 20
466.2957510783310795
 30
0.0
 40
0.043790057822906
 50
317.5809636650230914
 51
325.9534744213599993
  0
ARC
  5
21F87
  8
0
 10
4447.3669565984919245
 20
466.268572794886893
 30
0.0
 40
0.0033212978600817
 50
234.7070154052551914
 51
314.7141601730355092
  0
ARC
  5
21F88
  8
0
 10
4447.368679890749263
 20
466.2720338779490135
 30
0.0
 40
0.0071664929120546
 50
188.4077279686796089
 51
239.4542670269923121
  0
ARC
  5
21F89
  8
0
 10
4447.371024099996248
 20
466.2725086324584822
 30
0.0
 40
0.0095557674943571
 50
164.3366150600643039
 51
189.168575777440509
  0
ARC
  5
21F8A
  8
0
 10
4447.3740456200930566
 20
466.2716863623638801
 30
0.0
 40
0.0126871053640369
 50
154.0919034627353028
 51
164.4451405689879948
  0
ARC
  5
21F8B
  8
0
 10
4447.3466392137752337
 20
466.2998898596424056
 30
0.0
 40
0.0625008271847416
 50
330.0783248447007736
 51
338.8570750272111241
  0
ARC
  5
21F8C
  8
0
 10
4447.3891754007599957
 20
466.2754090503304951
 30
0.0
 40
0.0134229581625158
 50
316.2268929100645778
 51
330.0783248447007736
  0
ARC
  5
21F8D
  8
0
 10
4447.3967129472894158
 20
466.2681875914345255
 30
0.0
 40
0.002984372231155
 50
242.8307735097137083
 51
316.2268929100645778
  0
ARC
  5
21F8E
  8
0
 10
4447.3978962365608822
 20
466.2704930683012776
 30
0.0
 40
0.005575780552242
 50
204.3242684357350925
 51
242.8307735097137083
  0
ARC
  5
21F8F
  8
0
 10
4447.4028412898624083
 20
466.2727283675212107
 30
0.0
 40
0.0110025765453151
 50
179.8191194353319133
 51
204.3242684357261112
  0
ARC
  5
21F90
  8
0
 10
4447.403811605777264
 20
466.2727253042610869
 30
0.0
 40
0.0119728972955398
 50
157.4518772404910862
 51
179.8191194353319133
  0
ARC
  5
21F91
  8
0
 10
4447.3791774654264373
 20
466.2925112410638917
 30
0.0
 40
0.0520428685195448
 50
337.0497159923261279
 51
343.0493368027317729
  0
ARC
  5
21F92
  8
0
 10
4447.3556078644205627
 20
466.3024918155409182
 30
0.0
 40
0.0776385314028088
 50
333.4159211408476153
 51
337.0497159923261279
  0
ARC
  5
21F93
  8
0
 10
4447.4198740862830164
 20
466.2703320220084038
 30
0.0
 40
0.0057747742477643
 50
304.7106374897023215
 51
333.4159211408505143
  0
ARC
  5
21F94
  8
0
 10
4447.4220167727544322
 20
466.2675688744204194
 30
0.0
 40
0.0022909687346839
 50
224.6167094569854044
 51
300.0049467296967123
  0
ARC
  5
21F95
  8
0
 10
4447.4259873326373054
 20
466.2713690105003934
 30
0.0
 40
0.0077868141164679
 50
185.5861368379268015
 51
224.0004789344610003
  0
ARC
  5
21F96
  8
0
 10
4447.4315531216589079
 20
466.2724821260986232
 30
0.0
 40
0.0134464435308599
 50
165.1734813708569902
 51
187.9987829041158136
  0
ARC
  5
21F97
  8
0
 10
4447.4653914860982695
 20
466.2618510210655245
 30
0.0
 40
0.0489053661199349
 50
161.8097204612139137
 51
163.2773859288575977
  0
ARC
  5
21F98
  8
0
 10
4447.3069497615833825
 20
466.3273709279382047
 30
0.0
 40
0.150470066751949
 50
336.3494820487916854
 51
340.3105599439929279
  0
ARC
  5
21F99
  8
0
 10
4447.4410780834523393
 20
466.2686308162724913
 30
0.0
 40
0.004043267819465
 50
311.2409011967467904
 51
336.3494820487767925
  0
ARC
  5
21F9A
  8
0
 10
4447.4426152306859876
 20
466.2670956183013118
 30
0.0
 40
0.0018810611104336
 50
214.4514236599104891
 51
306.8563838404975854
  0
ARC
  5
21F9B
  8
0
 10
4447.4538969582226855
 20
466.2734605385884947
 30
0.0
 40
0.0148281197779307
 50
179.2107159131784897
 51
210.0669063036550028
  0
ARC
  5
21F9C
  8
0
 10
4446.9957545276602104
 20
466.3495849627332177
 30
0.0
 40
0.4497696042540966
 50
350.2820662705386212
 51
350.779194404025418
  0
ARC
  5
21F9D
  8
0
 10
4447.3867470159475488
 20
466.2916431681745166
 30
0.0
 40
0.078480209637929
 50
344.6346082535383175
 51
349.5263595186784187
  0
ARC
  5
21F9E
  8
0
 10
4447.4174204935507078
 20
466.2832142148355956
 30
0.0
 40
0.0466696849228029
 50
339.6830807550109057
 51
344.6346082535383175
  0
ARC
  5
21F9F
  8
0
 10
4447.4579715442587258
 20
466.2682003110904247
 30
0.0
 40
0.0034284428132243
 50
308.8022546935463879
 51
339.6830807550139184
  0
ARC
  5
21FA0
  8
0
 10
4447.4598045249213101
 20
466.2669988380051223
 30
0.0
 40
0.0015038050896623
 50
193.1661809059193047
 51
282.1067939888371257
  0
ARC
  5
21FA1
  8
0
 10
4447.4708003931182247
 20
466.2726767112657171
 30
0.0
 40
0.0138383685512867
 50
178.299305424322597
 51
205.7885766042292062
  0
ARC
  5
21FA2
  8
0
 10
4447.476385113055585
 20
466.2733637773170017
 30
0.0
 40
0.019418959379397
 50
168.0419820968413944
 51
180.8154472502922943
  0
ARC
  5
21FA3
  8
0
 10
4445.9496957436604134
 20
466.4803656919106061
 30
0.0
 40
1.539232730325524
 50
352.2395343890482877
 51
352.4210702988539197
  0
ARC
  5
21FA4
  8
0
 10
4447.3900627323728258
 20
466.2840723717857827
 30
0.0
 40
0.0855518404121818
 50
349.0498005196686222
 51
352.2395343890482877
  0
ARC
  5
21FA5
  8
0
 10
4447.4667003175327409
 20
466.2692446515713982
 30
0.0
 40
0.0074930116622546
 50
333.920936665976626
 51
349.0498005196718054
  0
ARC
  5
21FA6
  8
0
 10
4447.4724142952609327
 20
466.2664479913747755
 30
0.0
 40
0.0011313413048005
 50
245.7581662122404111
 51
333.9209366660028877
  0
ARC
  5
21FA7
  8
0
 10
4447.4744107708193042
 20
466.2678602068850182
 30
0.0
 40
0.0034682298338147
 50
196.129180734956492
 51
224.799124561161193
  0
ARC
  5
21FA8
  8
0
 10
4447.4971327672783445
 20
466.2734000152124167
 30
0.0
 40
0.026853093315864
 50
171.6891871573978108
 51
194.0152725470701967
  0
ARC
  5
21FA9
  8
0
 10
4447.5269103015689325
 20
466.2733701380632283
 30
0.0
 40
0.0479687023357293
 50
175.2524759160529015
 51
184.1388782327464924
  0
ARC
  5
21FAA
  8
0
 10
4447.5177940421117455
 20
466.2727104585060829
 30
0.0
 40
0.0388286058597288
 50
184.1388782327431954
 51
189.1865215025038935
  0
ARC
  5
21FAB
  8
0
 10
4447.4842733164941819
 20
466.2672893777462946
 30
0.0
 40
0.0048723522000052
 50
189.1865215025005966
 51
204.4877582848712905
  0
ARC
  5
21FAC
  8
0
 10
4447.4805804729539886
 20
466.2656074047673087
 30
0.0
 40
0.0008145046779596
 50
204.4877582847726956
 51
231.4284060905415004
  0
ARC
  5
21FAD
  8
0
 10
4447.4801260697586258
 20
466.2651878739300173
 30
0.0
 40
0.0002237471595171
 50
256.1834349095489074
 51
333.2192369356399126
  0
ARC
  5
21FAE
  8
0
 10
4447.4566628825350563
 20
466.2718473508875263
 30
0.0
 40
0.0246096734912793
 50
344.0558263691115144
 51
357.9775116224196267
  0
ARC
  5
21FAF
  8
0
 10
4447.2203565753807197
 20
466.2914871883660908
 30
0.0
 40
0.261705448715192
 50
355.5054500020452224
 51
356.7436893013518784
  0
ARC
  5
21FB0
  8
0
 10
4447.250686206829414
 20
466.5186420739642017
 30
0.0
 40
0.231828906301493
 50
358.1855474453553256
 51
1.1380377907640791
  0
ARC
  5
21FB1
  8
0
 10
4447.451432416217358
 20
466.5226299212862955
 30
0.0
 40
0.0310430912899085
 50
1.1380377907640791
 51
6.5269547688680989
  0
ARC
  5
21FB2
  8
0
 10
4447.4795068398279909
 20
466.5258419775860261
 30
0.0
 40
0.0027855159028253
 50
6.5269547688810441
 51
28.7363326203654488
  0
ARC
  5
21FB3
  8
0
 10
4447.8218719051856169
 20
466.4915246398047088
 30
0.0
 40
0.3417876102444993
 50
174.0117950594296019
 51
176.6828153934540069
  0
ARC
  5
21FB4
  8
0
 10
4447.4391158940861715
 20
466.5152919896141839
 30
0.0
 40
0.0390393527346257
 50
353.855727195699501
 51
17.3515936395721191
  0
ARC
  5
21FB5
  8
0
 10
4447.5259405846727532
 20
466.5114129863313792
 30
0.0
 40
0.0519356566502544
 50
162.6103988779310043
 51
180.204464260461009
  0
ARC
  5
21FB6
  8
0
 10
4447.4202428843218513
 20
466.5171846253660988
 30
0.0
 40
0.0497908669834895
 50
353.2129872902598891
 51
5.3963497302278833
  0
ARC
  5
21FB7
  8
0
 10
4447.4573860759410309
 20
466.5206933032187067
 30
0.0
 40
0.0124823223330277
 50
5.3963497302246406
 51
23.3198829069379201
  0
ARC
  5
21FB8
  8
0
 10
4447.4678396115132273
 20
466.5251996079728087
 30
0.0
 40
0.0010988611513564
 50
23.3198829068990392
 51
150.3415809454380963
  0
ARC
  5
21FB9
  8
0
 10
4447.6767563305711519
 20
466.4847248326747717
 30
0.0
 40
0.2142158134607634
 50
169.7040751397823897
 51
172.8725288677973992
  0
ARC
  5
21FBA
  8
0
 10
4447.4763494835306119
 20
466.5211302049087863
 30
0.0
 40
0.0105291534474978
 50
154.0152958304487072
 51
169.7040751397919962
  0
ARC
  5
21FBB
  8
0
 10
4447.4141631632255667
 20
466.5185129573001745
 30
0.0
 40
0.0432946839470402
 50
350.4099138849355199
 51
2.345176935840628
  0
ARC
  5
21FBC
  8
0
 10
4447.4421833831411277
 20
466.5196604954916779
 30
0.0
 40
0.0152509757749696
 50
2.345176935840628
 51
19.2267700898949911
  0
ARC
  5
21FBD
  8
0
 10
4447.4476833673716101
 20
466.521578674477496
 30
0.0
 40
0.0094260949036239
 50
19.2267700898980713
 51
30.536427726382481
  0
ARC
  5
21FBE
  8
0
 10
4447.4542962097966665
 20
466.5254796016085947
 30
0.0
 40
0.0017484053150479
 50
30.5364277264313984
 51
141.0024407730938947
  0
ARC
  5
21FBF
  8
0
 10
4447.5287854798498302
 20
466.5023323692316808
 30
0.0
 40
0.0800322915288036
 50
168.3585846225836065
 51
173.5651132432442978
  0
ARC
  5
21FC0
  8
0
 10
4447.5571921207792911
 20
466.4964799215924813
 30
0.0
 40
0.109035539489346
 50
165.5628641624255977
 51
168.3585846225836065
  0
ARC
  5
21FC1
  8
0
 10
4447.460362578078275
 20
466.5214084303884192
 30
0.0
 40
0.0090485858880511
 50
145.1439229408474887
 51
165.5628641624350053
  0
ARC
  5
21FC2
  8
0
 10
4447.524749748913564
 20
466.4972768970405923
 30
0.0
 40
0.0965885636088599
 50
167.1086148041962929
 51
171.652277189430805
  0
ARC
  5
21FC3
  8
0
 10
4447.4772132614307338
 20
466.5081566839750735
 30
0.0
 40
0.0478229260570366
 50
160.4702620126203954
 51
167.1086148041931096
  0
ARC
  5
21FC4
  8
0
 10
4447.4369678201310307
 20
466.522431854352476
 30
0.0
 40
0.0051207477190287
 50
132.8560503239027923
 51
160.4702620126265913
  0
ARC
  5
21FC5
  8
0
 10
4447.4355703414739764
 20
466.523938035747392
 30
0.0
 40
0.0030661117444511
 50
49.5678662726800923
 51
132.8560503239094999
  0
ARC
  5
21FC6
  8
0
 10
4447.4284623938783625
 20
466.5196818902534233
 30
0.0
 40
0.0112327053660229
 50
0.7367088340963398
 51
35.9216912956150622
  0
ARC
  5
21FC7
  8
0
 10
4447.4078764189762296
 20
466.5181144577442751
 30
0.0
 40
0.0318637691676058
 50
347.6527448440631929
 51
3.0796581547861872
  0
ARC
  5
21FC8
  8
0
 10
4447.3926883009780795
 20
466.5172299975898795
 30
0.0
 40
0.0267482651602445
 50
347.1638512134583152
 51
0.3737007123564463
  0
ARC
  5
21FC9
  8
0
 10
4447.4043780423389762
 20
466.5173062427629134
 30
0.0
 40
0.0150582751521252
 50
0.3737007123564463
 51
27.8776718613773689
  0
ARC
  5
21FCA
  8
0
 10
4447.4139657249234006
 20
466.522377876608175
 30
0.0
 40
0.0042118413047426
 50
27.8776718613831207
 51
132.8776745161164001
  0
ARC
  5
21FCB
  8
0
 10
4447.4597813938307809
 20
466.5023182941936284
 30
0.0
 40
0.0540930041289257
 50
162.3267120397723886
 51
170.4403359365647077
  0
ARC
  5
21FCC
  8
0
 10
4447.4459285955481391
 20
466.5066888163879071
 30
0.0
 40
0.0395671942814436
 50
151.6717228158586863
 51
162.266894888842387
  0
ARC
  5
21FCD
  8
0
 10
4447.3776237662359563
 20
466.5170455691173856
 30
0.0
 40
0.0149952764024457
 50
344.4767096563459177
 51
26.2790890623010185
  0
ARC
  5
21FCE
  8
0
 10
4447.3854175188826048
 20
466.5208939429920747
 30
0.0
 40
0.0063031787377693
 50
26.2790890623039317
 51
65.3757940905298227
  0
ARC
  5
21FCF
  8
0
 10
4447.3854726156132529
 20
466.5210141504903731
 30
0.0
 40
0.0061709460170327
 50
65.375794090531187
 51
153.8752360080401047
  0
ARC
  5
21FD0
  8
0
 10
4447.4195546701112107
 20
466.5042992543653213
 30
0.0
 40
0.0441311118650563
 50
153.8752360080401047
 51
170.872577387882103
  0
ARC
  5
21FD1
  8
0
 10
4447.3464554319716626
 20
466.5162641586614996
 30
0.0
 40
0.0152549419874215
 50
334.3446272720761954
 51
15.0517523805403393
  0
ARC
  5
21FD2
  8
0
 10
4447.3478274841281745
 20
466.5166331275336802
 30
0.0
 40
0.0138341446254107
 50
15.0517523805340492
 51
38.9553353788745511
  0
ARC
  5
21FD3
  8
0
 10
4447.3547509354921203
 20
466.5222306972237902
 30
0.0
 40
0.0049309449065552
 50
38.9553353788745511
 51
92.4468186518767681
  0
ARC
  5
21FD4
  8
0
 10
4447.3548233912542855
 20
466.520535072821076
 30
0.0
 40
0.0066281166576999
 50
92.4468186518767681
 51
122.6013674371594959
  0
ARC
  5
21FD5
  8
0
 10
4447.3598161457694005
 20
466.5164469283848803
 30
0.0
 40
0.0129184771550194
 50
131.5229892652536137
 51
167.8649138923676958
  0
ARC
  5
21FD6
  8
0
 10
4447.8897063248496124
 20
466.3527358533665961
 30
0.0
 40
0.5674731760153131
 50
162.9457597532984892
 51
163.7742210713722102
  0
ARC
  5
21FD7
  8
0
 10
4447.2720729118527743
 20
466.5172666016900962
 30
0.0
 40
0.0508620592534397
 50
352.2259538431654278
 51
4.4223962741710521
  0
ARC
  5
21FD8
  8
0
 10
4447.3164120181982071
 20
466.5206957447833815
 30
0.0
 40
0.0063905473178342
 50
4.4223962741678049
 51
74.6487459683954881
  0
ARC
  5
21FD9
  8
0
 10
4447.3160136656770192
 20
466.5192447143278969
 30
0.0
 40
0.0078952646046285
 50
74.6487459683954881
 51
146.4515516298853015
  0
ARC
  5
21FDA
  8
0
 10
4447.3581502643055501
 20
466.4969139227553114
 30
0.0
 40
0.0555507435044762
 50
151.2796867601618089
 51
164.2947006931850922
  0
ARC
  5
21FDB
  8
0
 10
4447.27181208273214
 20
466.5177042551816839
 30
0.0
 40
0.0155583086080558
 50
333.8131175841717209
 51
24.3818289161778914
  0
ARC
  5
21FDC
  8
0
 10
4447.2794573848468644
 20
466.5186821147333944
 30
0.0
 40
0.0084986879822808
 50
39.8417835348304692
 51
154.0041049891333955
  0
ARC
  5
21FDD
  8
0
 10
4447.3264452632947723
 20
466.4936436210709871
 30
0.0
 40
0.0617366866142108
 50
152.2310925250959883
 51
162.7567257582072955
  0
ARC
  5
21FDE
  8
0
 10
4447.2317470189245796
 20
466.5167444162220249
 30
0.0
 40
0.0156758619408526
 50
339.685181417812089
 51
5.4853128393766983
  0
ARC
  5
21FDF
  8
0
 10
4447.2374196017717622
 20
466.517289238102876
 30
0.0
 40
0.0099771755112059
 50
5.4848450707491994
 51
54.0113296587860603
  0
ARC
  5
21FE0
  8
0
 10
4447.2374763962488942
 20
466.5173674415080995
 30
0.0
 40
0.0098805246699602
 50
54.0113296587879574
 51
125.4460507576660007
  0
ARC
  5
21FE1
  8
0
 10
4447.2486329211860721
 20
466.5056580835641853
 30
0.0
 40
0.0259915614375146
 50
130.5186411760379031
 51
167.459089388113199
  0
LINE
  5
21FE2
  8
0
 10
4446.9693589131920817
 20
466.4502720534846958
 30
0.0
 11
4446.9364119557267259
 21
466.5113014989308908
 31
0.0
  0
ARC
  5
21FE3
  8
0
 10
4446.951113623227684
 20
466.5192382450431978
 30
0.0
 40
0.0167072129991285
 50
172.8530543615671036
 51
208.3625454659861873
  0
ARC
  5
21FE4
  8
0
 10
4446.9427234087434044
 20
466.5181582645136018
 30
0.0
 40
0.008775352933181
 50
101.0773333982859015
 51
158.9034909432272116
  0
ARC
  5
21FE5
  8
0
 10
4446.9449610945612221
 20
466.5031967945836868
 30
0.0
 40
0.0238976439143275
 50
58.609710106844247
 51
99.4501177566507835
  0
ARC
  5
21FE6
  8
0
 10
4446.9114586991408942
 20
466.4950323453505234
 30
0.0
 40
0.0541046534446271
 50
17.4832649426066418
 51
31.8668747075863017
  0
ARC
  5
21FE7
  8
0
 10
4446.9726646994013208
 20
466.5149450140245904
 30
0.0
 40
0.0102740471788515
 50
200.8583077529671925
 51
236.701425526235397
  0
ARC
  5
21FE8
  8
0
 10
4446.9611467910062856
 20
466.515029679879774
 30
0.0
 40
0.01047600250038
 50
304.1276142511317175
 51
339.2319447153432748
  0
ARC
  5
21FE9
  8
0
 10
4447.0033885274087879
 20
466.5022793983787892
 30
0.0
 40
0.0336810551268616
 50
142.9152798355463858
 51
164.4386097366783872
  0
ARC
  5
21FEA
  8
0
 10
4446.9883845208851199
 20
466.5106487584503725
 30
0.0
 40
0.0168327862405468
 50
81.1861623069724203
 51
134.8188163984445964
  0
ARC
  5
21FEB
  8
0
 10
4446.9908331548303977
 20
466.5179059294558783
 30
0.0
 40
0.0093777525825953
 50
315.2651314108778138
 51
89.2022762736112043
  0
ARC
  5
21FEC
  8
0
 10
4446.5732961086014257
 20
466.6698554680912139
 30
0.0
 40
0.4528604875136845
 50
330.9953284001995257
 51
339.5061092513622043
  0
ARC
  5
21FED
  8
0
 10
4446.3415055014820609
 20
466.202590268450308
 30
0.0
 40
0.6199024029742326
 50
8.715491645268381
 51
29.8682434219587698
  0
ARC
  5
21FEE
  8
0
 10
4446.9630194626288358
 20
466.3007234722138037
 30
0.0
 40
0.009723721979713
 50
205.5941115104608059
 51
334.4058884894931793
  0
ARC
  5
21FEF
  8
0
 10
4446.6693443195472355
 20
466.1585972649373275
 30
0.0
 40
0.010000000000006
 50
0.0000000000358258
 51
90.0
  0
LINE
  5
21FF0
  8
0
 10
4446.6793443195447253
 20
466.1585972649373275
 30
0.0
 11
4446.6793443195447253
 21
466.1063876192371822
 31
0.0
  0
ARC
  5
21FF1
  8
0
 10
4446.6893443195458531
 20
466.1063876192371822
 30
0.0
 40
0.0100000000000122
 50
180.0000000000422915
 51
260.7322244543408942
  0
LINE
  5
21FF2
  8
0
 10
4446.6303081692458363
 20
466.0965181547372254
 30
0.0
 11
4447.2882487680462873
 21
466.0965181547372254
 31
0.0
  0
ARC
  5
21FF3
  8
0
 10
4447.2882487680462873
 20
466.0768240629902266
 30
0.0
 40
0.0196940917469393
 50
45.0109095220413877
 51
90.0
  0
LINE
  5
21FF4
  8
0
 10
4447.302171942041241
 20
466.0907525401372027
 30
0.0
 11
4447.3300160918497568
 21
466.0629189917559074
 31
0.0
  0
ARC
  5
21FF5
  8
0
 10
4447.3161184710315865
 20
466.0490160775190134
 30
0.0
 40
0.0196579472143129
 50
359.9364262700468089
 51
45.0109095220413877
  0
LINE
  5
21FF6
  8
0
 10
4447.3357764061447597
 20
466.0489942656371909
 30
0.0
 11
4447.3357559230689731
 21
466.0305339141008858
 31
0.0
  0
ARC
  5
21FF7
  8
0
 10
4447.3554194209218622
 20
466.0305121861882185
 30
0.0
 40
0.0196635098584445
 50
179.9366889249201051
 51
269.7567420523540136
  0
ARC
  5
21FF8
  8
0
 10
4446.6303081692458363
 20
466.0768331153371946
 30
0.0
 40
0.0196850394000059
 50
90.0
 51
134.9999999988991988
  0
LINE
  5
21FF9
  8
0
 10
4446.6163887443990461
 20
466.0907525401851217
 30
0.0
 11
4446.5885498947500309
 21
466.0629136905376981
 31
0.0
  0
ARC
  5
21FFA
  8
0
 10
4446.6024693194804058
 20
466.0489942658069253
 30
0.0
 40
0.0196850392345032
 50
134.9999999988991988
 51
180.0000004937213873
  0
LINE
  5
21FFB
  8
0
 10
4446.5827842802464147
 20
466.0489942656371909
 30
0.0
 11
4446.5827842804037573
 21
466.0305339027372042
 31
0.0
  0
ARC
  5
21FFC
  8
0
 10
4446.5634442708978895
 20
466.0301888632287728
 30
0.0
 40
0.0193430871376961
 50
271.0220609603172193
 51
1.022088977235547
  0
ARC
  5
21FFD
  8
0
 10
4447.2492126177448881
 20
466.1585972649373275
 30
0.0
 40
0.010000000000006
 50
90.0
 51
179.9999999999641034
  0
LINE
  5
21FFE
  8
0
 10
4447.2392126177473983
 20
466.1585972649373275
 30
0.0
 11
4447.2392126177446698
 21
466.1063876192371822
 31
0.0
  0
ARC
  5
21FFF
  8
0
 10
4447.2292126177462706
 20
466.1063876192371822
 30
0.0
 40
0.0100000000000122
 50
279.2677755456591058
 51
359.9999999999575948
  0
LINE
  5
22000
  8
0
 10
4446.4376267998459298
 20
465.9633249743371834
 30
0.0
 11
4447.4809338865461541
 21
465.9633249743371834
 31
0.0
  0
LINE
  5
22002
  8
0
 10
4448.0939982848976797
 20
459.3028574614372133
 30
0.0
 11
4445.8245624014944042
 21
459.3028574614372133
 31
0.0
  0
LINE
  5
22003
  8
0
 10
4446.0903413472597094
 20
459.5195419582371983
 30
0.0
 11
4447.8282193391323744
 21
459.5195419582371983
 31
0.0
  0
CIRCLE
  5
22004
  8
0
 10
4446.9592803431460197
 20
460.9605165011371923
 30
0.0
 40
0.3266711264000008
  0
LINE
  5
22006
  8
0
 10
4447.7469218318838102
 20
459.5925167181969755
 30
0.0
 11
4446.1716388545082737
 21
459.5925167181969755
 31
0.0
  0
LINE
  5
22007
  8
0
 10
4446.4351332550013467
 20
466.5367294990626874
 30
0.0
 11
4447.483427433651741
 21
466.5367294990626874
 31
0.0
  0
LINE
  5
22008
  8
0
 10
4446.5827842802464147
 20
466.0489942656371909
 30
0.0
 11
4447.3357764061447597
 21
466.0489942656371909
 31
0.0
  0
CIRCLE
  5
22009
  8
0
 10
4446.9592803431460197
 20
460.9605165011371923
 30
0.0
 40
0.4035433070999957
  0
LINE
  5
2200A
  8
0
 10
4446.5557370360447749
 20
460.9605165011371923
 30
0.0
 11
4446.5557370360447749
 21
459.6325165011372178
 31
0.0
  0
LINE
  5
2200B
  8
0
 10
4447.3628236502463551
 20
460.9605165011371923
 30
0.0
 11
4447.3628236502463551
 21
459.6325165011372178
 31
0.0
  0
ENDSEC
  0
EOF
