  0
SECTION
  2
HEADER
  9
$ACADVER
  1
AC1009
  9
$INSBASE
 10
4561.4004872091591096
 20
472.0473155525378957
 30
0.0
  9
$EXTMIN
 10
4553.9774118634068145
 20
472.0077034774138269
 30
-0.0000000000112498
  9
$EXTMAX
 10
4568.9077969595000468
 20
481.1860179919034977
 30
0.0000000000002956
  9
$LIMMIN
 10
0.0
 20
0.0
  9
$LIMMAX
 10
11.6929133858000007
 20
8.2677165353999982
  9
$ORTHOMODE
 70
     0
  9
$REGENMODE
 70
     1
  9
$FILLMODE
 70
     1
  9
$QTEXTMODE
 70
     0
  9
$MIRRTEXT
 70
     0
  9
$DRAGMODE
 70
     2
  9
$LTSCALE
 40
0.6431102362
  9
$OSMODE
 70
     7
  9
$ATTMODE
 70
     1
  9
$TEXTSIZE
 40
0.2
  9
$TRACEWID
 40
0.05
  9
$TEXTSTYLE
  7
STANDARD
  9
$CLAYER
  8
0
  9
$CELTYPE
  6
BYLAYER
  9
$CECOLOR
 62
   256
  9
$DIMSCALE
 40
1.0
  9
$DIMASZ
 40
0.1875
  9
$DIMEXO
 40
0.0625
  9
$DIMDLI
 40
0.4443307087
  9
$DIMRND
 40
0.0
  9
$DIMDLE
 40
0.0
  9
$DIMEXE
 40
0.125
  9
$DIMTP
 40
0.01
  9
$DIMTM
 40
0.01
  9
$DIMTXT
 40
2.0
  9
$DIMCEN
 40
0.1052362205
  9
$DIMTSZ
 40
0.0
  9
$DIMTOL
 70
     1
  9
$DIMLIM
 70
     0
  9
$DIMTIH
 70
     1
  9
$DIMTOH
 70
     1
  9
$DIMSE1
 70
     0
  9
$DIMSE2
 70
     0
  9
$DIMTAD
 70
     0
  9
$DIMZIN
 70
     0
  9
$DIMBLK
  1

  9
$DIMASO
 70
     1
  9
$DIMSHO
 70
     1
  9
$DIMPOST
  1
\X
  9
$DIMAPOST
  1

  9
$DIMALT
 70
     1
  9
$DIMALTD
 70
     2
  9
$DIMALTF
 40
25.3999999999999986
  9
$DIMLFAC
 40
1.0
  9
$DIMTOFL
 70
     0
  9
$DIMTVP
 40
0.0
  9
$DIMTIX
 70
     0
  9
$DIMSOXD
 70
     0
  9
$DIMSAH
 70
     0
  9
$DIMBLK1
  1

  9
$DIMBLK2
  1

  9
$DIMSTYLE
  2
STANDARD
  9
$DIMCLRD
 70
     0
  9
$DIMCLRE
 70
     0
  9
$DIMCLRT
 70
     0
  9
$DIMTFAC
 40
1.0
  9
$DIMGAP
 40
0.09
  9
$LUNITS
 70
     2
  9
$LUPREC
 70
     4
  9
$SKETCHINC
 40
0.1
  9
$FILLETRAD
 40
0.0
  9
$AUNITS
 70
     0
  9
$AUPREC
 70
     0
  9
$MENU
  1
.
  9
$ELEVATION
 40
0.0
  9
$PELEVATION
 40
0.0
  9
$THICKNESS
 40
0.0
  9
$LIMCHECK
 70
     0
  9
$BLIPMODE
 70
     0
  9
$CHAMFERA
 40
0.0
  9
$CHAMFERB
 40
0.0
  9
$SKPOLY
 70
     0
  9
$TDCREATE
 40
2458060.468368056230247
  9
$TDUPDATE
 40
2459330.4874421302229166
  9
$TDINDWG
 40
1.48820625
  9
$TDUSRTIMER
 40
1.48820625
  9
$USRTIMER
 70
     1
  9
$ANGBASE
 50
0.0
  9
$ANGDIR
 70
     0
  9
$PDMODE
 70
     0
  9
$PDSIZE
 40
0.3125
  9
$PLINEWID
 40
0.0
  9
$COORDS
 70
     1
  9
$SPLFRAME
 70
     0
  9
$SPLINETYPE
 70
     6
  9
$SPLINESEGS
 70
     8
  9
$ATTDIA
 70
     1
  9
$ATTREQ
 70
     1
  9
$HANDLING
 70
     1
  9
$HANDSEED
  5
1E58C
  9
$SURFTAB1
 70
     6
  9
$SURFTAB2
 70
     6
  9
$SURFTYPE
 70
     6
  9
$SURFU
 70
     6
  9
$SURFV
 70
     6
  9
$UCSNAME
  2

  9
$UCSORG
 10
0.0
 20
0.0
 30
0.0
  9
$UCSXDIR
 10
1.0
 20
0.0
 30
0.0
  9
$UCSYDIR
 10
0.0
 20
1.0
 30
0.0
  9
$PUCSNAME
  2

  9
$PUCSORG
 10
0.0
 20
0.0
 30
0.0
  9
$PUCSXDIR
 10
1.0
 20
0.0
 30
0.0
  9
$PUCSYDIR
 10
0.0
 20
1.0
 30
0.0
  9
$USERI1
 70
     0
  9
$USERI2
 70
     0
  9
$USERI3
 70
     0
  9
$USERI4
 70
     0
  9
$USERI5
 70
     0
  9
$USERR1
 40
0.0
  9
$USERR2
 40
0.0
  9
$USERR3
 40
0.0
  9
$USERR4
 40
0.0
  9
$USERR5
 40
0.0
  9
$WORLDVIEW
 70
     1
  9
$SHADEDGE
 70
     3
  9
$SHADEDIF
 70
    70
  9
$TILEMODE
 70
     1
  9
$MAXACTVP
 70
    64
  9
$PLIMCHECK
 70
     0
  9
$PEXTMIN
 10
1.0000000000000000E+20
 20
1.0000000000000000E+20
 30
1.0000000000000000E+20
  9
$PEXTMAX
 10
-1.0000000000000000E+20
 20
-1.0000000000000000E+20
 30
-1.0000000000000000E+20
  9
$PLIMMIN
 10
0.0
 20
0.0
  9
$PLIMMAX
 10
12.0
 20
9.0
  9
$UNITMODE
 70
     0
  9
$VISRETAIN
 70
     1
  9
$PLINEGEN
 70
     0
  9
$PSLTSCALE
 70
     1
  0
ENDSEC
  0
SECTION
  2
TABLES
  0
TABLE
  2
VPORT
 70
     1
  0
VPORT
  2
*ACTIVE
 70
     0
 10
0.0
 20
0.0
 11
1.0
 21
1.0
 12
650.0772479661409307
 22
344.0172556321195998
 13
0.0
 23
0.0
 14
1.0
 24
1.0
 15
0.0
 25
0.0
 16
0.0
 26
0.0
 36
60.4960186965801583
 17
3911.3653564453120453
 27
132.5796051025390057
 37
0.0
 40
9.2514484946849507
 41
2.433510638297872
 42
50.0
 43
0.0
 44
0.0
 50
0.0
 51
0.0
 71
     0
 72
   100
 73
     1
 74
     1
 75
     0
 76
     0
 77
     0
 78
     0
  0
ENDTAB
  0
TABLE
  2
LTYPE
 70
     2
  0
LTYPE
  2
CONTINUOUS
 70
     0
  3
Solid line
 72
    65
 73
     0
 40
0.0
  0
LTYPE
  2
PHANTOM2
 70
     0
  3
___ _ _ ___ _ _ ___ _ _ ___ _ _
 72
    65
 73
     6
 40
1.25
 49
0.625
 49
-0.125
 49
0.125
 49
-0.125
 49
0.125
 49
-0.125
  0
ENDTAB
  0
TABLE
  2
LAYER
 70
     2
  0
LAYER
  2
0
 70
     0
 62
   255
  6
CONTINUOUS
  0
LAYER
  2
DEFPOINTS
 70
     0
 62
     7
  6
CONTINUOUS
  0
ENDTAB
  0
TABLE
  2
STYLE
 70
     1
  0
STYLE
  2
STANDARD
 70
     0
 40
0.0
 41
0.8
 50
0.0
 71
     0
 42
0.2
  3
txt
  4

  0
ENDTAB
  0
TABLE
  2
VIEW
 70
     0
  0
ENDTAB
  0
TABLE
  2
UCS
 70
     0
  0
ENDTAB
  0
TABLE
  2
APPID
 70
    11
  0
APPID
  2
ACAD
 70
     0
  0
APPID
  2
ACAD_MLEADERVER
 70
     0
  0
APPID
  2
ACAD_EXEMPT_FROM_CAD_STANDARDS
 70
     0
  0
APPID
  2
ACAD_NAV_VCDISPLAY
 70
     0
  0
APPID
  2
ACAECLAYERSTANDARD
 70
     0
  0
APPID
  2
ACCMTRANSPARENCY
 70
     0
  0
APPID
  2
ACAD_DSTYLE_DIMJAG
 70
     0
  0
APPID
  2
ACAD_DSTYLE_DIMTALN
 70
     0
  0
APPID
  2
ACDBATTR
 70
     0
  0
APPID
  2
ACADANNOTATIVE
 70
     0
  0
APPID
  2
DCO15
 70
     0
  0
ENDTAB
  0
TABLE
  2
DIMSTYLE
 70
     1
  0
DIMSTYLE
  2
STANDARD
 70
     0
  3

  4

  5

  6

  7

 40
1.0
 41
0.1875
 42
0.0625
 43
0.38
 44
0.125
 45
0.0
 46
0.0
 47
0.01
 48
0.01
140
0.15625
141
0.09
142
0.0
143
25.3999999999999986
144
1.0
145
0.0
146
1.0
147
0.09
 71
     1
 72
     0
 73
     1
 74
     1
 75
     0
 76
     0
 77
     0
 78
     4
170
     0
171
     2
172
     0
173
     0
174
     0
175
     0
176
     0
177
     0
178
     0
  0
ENDTAB
  0
ENDSEC
  0
SECTION
  2
BLOCKS
  0
BLOCK
  8
0
  2
$MODEL_SPACE
 70
     0
 10
0.0
 20
0.0
 30
0.0
  3
$MODEL_SPACE
  1

  0
ENDBLK
  5
21
  8
0
  0
BLOCK
 67
     1
  8
0
  2
$PAPER_SPACE
 70
     0
 10
0.0
 20
0.0
 30
0.0
  3
$PAPER_SPACE
  1

  0
ENDBLK
  5
1D
 67
     1
  8
0
  0
ENDSEC
  0
SECTION
  2
ENTITIES
  0
ATTDEF
  5
159BF
  8
DEFPOINTS
 10
4561.400487224455901
 20
472.0506489282549865
 30
0.0
 40
0.001
  1
P24903-SNW
  3

  2
MODELNUMBER
 70
     0
1001
ACDBATTR
1070
     0
1070
     1
  0
ATTDEF
  5
159C0
  8
DEFPOINTS
 10
4561.400487224455901
 20
472.0489820878757996
 30
0.0
 40
0.001
  1
PINNA PALETTA
  3

  2
TRADENAME
 70
     0
1001
ACDBATTR
1070
     0
1070
     1
  0
ATTDEF
  5
159C1
  8
DEFPOINTS
 10
4561.400487224455901
 20
472.047315594921713
 30
0.0
 40
0.001
  1
BATHROOM SINK FAUCET
  3

  2
PRODUCT
 70
     0
1001
ACDBATTR
1070
     0
1070
     1
  0
LINE
  5
1DD58
  8
0
 10
4556.2654872091588913
 20
472.0170714580380036
 30
0.0
 11
4558.5354872091584184
 21
472.0170714580380036
 31
0.0
  0
LINE
  5
1DD59
  8
0
 10
4560.2654872091588913
 20
472.0170714580380036
 30
0.0
 11
4562.5354872091584184
 21
472.0170714580380036
 31
0.0
  0
LINE
  5
1DD5A
  8
0
 10
4556.1111289412883707
 20
472.0473155525378957
 30
0.0
 11
4558.6898454770289391
 21
472.0473155525378957
 31
0.0
  0
LINE
  5
1DD5B
  8
0
 10
4556.4014562485590432
 20
472.6351507336379996
 30
0.0
 11
4558.3995181697600856
 21
472.6351507336379996
 31
0.0
  0
LINE
  5
1DD5C
  8
0
 10
4556.4947538548185548
 20
472.7190714580378881
 30
0.0
 11
4558.3062205634978454
 21
472.7190714580378881
 31
0.0
  0
LINE
  5
1DD5D
  8
0
 10
4554.074623180558774
 20
474.6961933381127778
 30
0.0
 11
4554.074623180558774
 21
473.9474630189379809
 31
0.0
  0
LINE
  5
1DD5E
  8
0
 10
4554.1597653161588823
 20
473.8540399081045962
 30
0.0
 11
4554.1597653161588823
 21
474.7893241794711798
 31
0.0
  0
LINE
  5
1DD5F
  8
0
 10
4557.734615158887209
 20
474.7951922767379074
 30
0.0
 11
4556.3671974453591247
 21
474.7951922767379074
 31
0.0
  0
LINE
  5
1DD60
  8
0
 10
4556.3435974453577728
 20
474.7951922767379074
 30
0.0
 11
4554.173904628458331
 21
474.7951922767379074
 31
0.0
  0
LINE
  5
1DD61
  8
0
 10
4554.1731909114059818
 20
473.8481922767380183
 30
0.0
 11
4556.3435974453577728
 21
473.8481922767380183
 31
0.0
  0
LINE
  5
1DD62
  8
0
 10
4556.3671974453591247
 20
473.8481922767380183
 30
0.0
 11
4556.7876151588870925
 21
473.8481922767380183
 31
0.0
  0
LINE
  5
1DD63
  8
0
 10
4556.9269872091581419
 20
472.7626714580558769
 30
0.0
 11
4556.9269872091581419
 21
473.7088202264666847
 31
0.0
  0
LINE
  5
1DD64
  8
0
 10
4557.8739872091591678
 20
474.6558202264665738
 30
0.0
 11
4557.8739872091591678
 21
472.7626714580558769
 31
0.0
  0
ARC
  5
1DD65
  8
0
 10
4556.4947538548185548
 20
472.6964336624383236
 30
0.0
 40
0.0226377955996418
 50
90.0000001508590373
 51
134.9999995704251035
  0
LINE
  5
1DD66
  8
0
 10
4556.4787465161589353
 20
472.7124410013379929
 30
0.0
 11
4556.4014562485590432
 21
472.6351507336379996
 31
0.0
  0
ARC
  5
1DD67
  8
0
 10
4556.4174635864292213
 20
472.6191433952632224
 30
0.0
 40
0.0226377946707132
 50
134.9999990978193125
 51
180.0000003168105138
  0
LINE
  5
1DD68
  8
0
 10
4556.3948257917591036
 20
472.6191433951378826
 30
0.0
 11
4556.3948257917591036
 21
472.5153033875379265
 31
0.0
  0
ARC
  5
1DD69
  8
0
 10
4556.3721879961121886
 20
472.5153033875811275
 30
0.0
 40
0.0226377956461389
 50
269.9287512949914003
 51
359.9999998908454018
  0
LINE
  5
1DD6A
  8
0
 10
4556.3721598454667401
 20
472.4926656094378927
 30
0.0
 11
4558.4288145728505697
 21
472.4926656094378927
 31
0.0
  0
ARC
  5
1DD6B
  8
0
 10
4556.2217611728729025
 20
472.469842167818399
 30
0.0
 40
0.0226377947491361
 50
90.0706900425575157
 51
132.2706912372468935
  0
LINE
  5
1DD6C
  8
0
 10
4556.2065342206587957
 20
472.4865935760378761
 30
0.0
 11
4556.095901988958758
 21
472.3860293925379779
 31
0.0
  0
ARC
  5
1DD6D
  8
0
 10
4556.1111289404570925
 20
472.3692779842754135
 30
0.0
 40
0.0226377942994633
 50
132.2706898234052062
 51
180.0000011072409052
  0
LINE
  5
1DD6E
  8
0
 10
4556.095901988958758
 20
472.3860293925379779
 30
0.0
 11
4558.7050724293576422
 21
472.3860293925379779
 31
0.0
  0
LINE
  5
1DD6F
  8
0
 10
4556.0884911461589581
 20
472.3692779838380034
 30
0.0
 11
4556.0884911461589581
 21
472.069953347838009
 31
0.0
  0
ARC
  5
1DD70
  8
0
 10
4556.1111289412883707
 20
472.0699533476671945
 30
0.0
 40
0.0226377951292892
 50
179.999999567934708
 51
270.0000001789463795
  0
LINE
  5
1DD71
  8
0
 10
4556.2654872091588913
 20
472.0473155525378957
 30
0.0
 11
4556.2654872091588913
 21
472.0170714580380036
 31
0.0
  0
ARC
  5
1DD72
  8
0
 10
4554.1739530785043826
 20
474.7751069911864761
 30
0.0
 40
0.0200853439873064
 50
90.138209522674174
 51
134.940644799838509
  0
LINE
  5
1DD73
  8
0
 10
4554.1597653161588823
 20
474.7893241794711798
 30
0.0
 11
4554.0804787292590845
 21
474.7100366470378958
 31
0.0
  0
ARC
  5
1DD74
  8
0
 10
4554.0946209495068615
 20
474.695894595687605
 30
0.0
 40
0.020000000248699
 50
135.0003421386751938
 51
179.1441341758952035
  0
LINE
  5
1DD75
  8
0
 10
4556.3435974453577728
 20
474.7951922767379074
 30
0.0
 11
4556.3435974453577728
 21
473.8481922767380183
 31
0.0
  0
ARC
  5
1DD76
  8
0
 10
4556.7876151589207439
 20
473.7088202265002792
 30
0.0
 40
0.139372050237621
 50
359.9999999861581728
 51
90.0000000138613245
  0
ARC
  5
1DD77
  8
0
 10
4557.7346151589208603
 20
474.6558202265002819
 30
0.0
 40
0.1393720502376206
 50
359.9999999861615265
 51
90.0000000138613245
  0
LINE
  5
1DD78
  8
0
 10
4560.8977714803149865
 20
481.1626047138378794
 30
0.0
 11
4561.9032029380023232
 21
481.1626047138378794
 31
0.0
  0
LINE
  5
1DD79
  8
0
 10
4560.8977714804068455
 20
480.6118890171379121
 30
0.0
 11
4561.9032029379095547
 21
480.6118890171379121
 31
0.0
  0
LINE
  5
1DD7A
  8
0
 10
4561.8013843171620465
 20
480.5238890171380035
 30
0.0
 11
4560.9995901011552633
 21
480.5238890171380035
 31
0.0
  0
LINE
  5
1DD7B
  8
0
 10
4561.8691991383584536
 20
480.4656924422379802
 30
0.0
 11
4560.9317752799588561
 21
480.4656924422379802
 31
0.0
  0
LINE
  5
1DD7C
  8
0
 10
4560.8283040129390429
 20
480.3327992533378961
 30
0.0
 11
4561.9726704053746289
 21
480.3327992533378961
 31
0.0
  0
LINE
  5
1DD7D
  8
0
 10
4560.7604894531586979
 20
480.2746026784379865
 30
0.0
 11
4562.0404849651577024
 21
480.2746026784379865
 31
0.0
  0
ARC
  5
1DD7E
  8
0
 10
4560.8977714803149865
 20
481.1426047140582796
 30
0.0
 40
0.0199999997795661
 50
89.9999998744143852
 51
135.0000003577222003
  0
LINE
  5
1DD7F
  8
0
 10
4560.8836293447584467
 20
481.1567468494379796
 30
0.0
 11
4560.7723450734583821
 21
481.045462578137915
 31
0.0
  0
ARC
  5
1DD80
  8
0
 10
4560.7864872094023667
 20
481.0313204424894025
 30
0.0
 40
0.020000000244022
 50
135.0000005985619964
 51
179.9999998609503962
  0
ARC
  5
1DD81
  8
0
 10
4560.7864872094023667
 20
480.7431732883864015
 30
0.0
 40
0.0200000002440133
 50
180.00000013904301
 51
224.9999994014449101
  0
LINE
  5
1DD82
  8
0
 10
4560.7723450734583821
 20
480.729031152737889
 30
0.0
 11
4560.8836293447584467
 21
480.6177468814379949
 31
0.0
  0
ARC
  5
1DD83
  8
0
 10
4560.8977714804068455
 20
480.6318890173819796
 30
0.0
 40
0.0200000002439994
 50
225.0000005985365874
 51
269.9999998609699787
  0
LINE
  5
1DD84
  8
0
 10
4561.0604872091589641
 20
480.6118890171379121
 30
0.0
 11
4561.0604872091589641
 21
480.5238890171380035
 31
0.0
  0
ARC
  5
1DD85
  8
0
 10
4560.99959335175663
 20
480.5006606696119889
 30
0.0
 40
0.0232283477533954
 50
90.0080180370080427
 51
134.9999996031571925
  0
LINE
  5
1DD86
  8
0
 10
4560.9831684296577805
 20
480.5170855919379846
 30
0.0
 11
4560.9317752799588561
 21
480.4656924422379802
 31
0.0
  0
ARC
  5
1DD87
  8
0
 10
4560.9482002010181532
 20
480.4492675209858135
 30
0.0
 40
0.0232283462593882
 50
134.9999996638127868
 51
180.0000001180588924
  0
LINE
  5
1DD88
  8
0
 10
4560.9249718547589509
 20
480.4492675209378945
 30
0.0
 11
4560.9249718547589509
 21
480.3560275997378994
 31
0.0
  0
ARC
  5
1DD89
  8
0
 10
4560.9017435084297176
 20
480.3560275995671986
 30
0.0
 40
0.0232283463292893
 50
269.9999998255871105
 51
0.0000004210863056
  0
ARC
  5
1DD8A
  8
0
 10
4560.8283075250992624
 20
480.309570905600026
 30
0.0
 40
0.0232283480034754
 50
90.0086632049528248
 51
134.9999994804643109
  0
LINE
  5
1DD8B
  8
0
 10
4560.8118826028576223
 20
480.3259958281379909
 30
0.0
 11
4560.7604894531586979
 21
480.2746026784379865
 31
0.0
  0
ARC
  5
1DD8C
  8
0
 10
4560.7769143736595652
 20
480.2581777575579167
 30
0.0
 40
0.0232283456025576
 50
134.9999993415447079
 51
180.0000010358108966
  0
LINE
  5
1DD8D
  8
0
 10
4562.0286293448589277
 20
480.729031152737889
 30
0.0
 11
4560.7723450734583821
 21
480.729031152737889
 31
0.0
  0
LINE
  5
1DD8E
  8
0
 10
4560.7723450734583821
 20
481.045462578137915
 30
0.0
 11
4562.0286293448589277
 21
481.045462578137915
 31
0.0
  0
LINE
  5
1DD8F
  8
0
 10
4560.776914374459011
 20
479.3159218517379827
 30
0.0
 11
4560.776914374459011
 21
472.7190714580378881
 31
0.0
  0
LINE
  5
1DD90
  8
0
 10
4562.0240600438582987
 20
479.3159218517379827
 30
0.0
 11
4562.0240600438582987
 21
472.7190714580378881
 31
0.0
  0
LINE
  5
1DD91
  8
0
 10
4560.776914374459011
 20
479.3159218517379827
 30
0.0
 11
4560.776914374459011
 21
478.1646532405064818
 31
0.0
  0
ARC
  5
1DD92
  8
0
 10
4561.4004872091591096
 20
479.3159218517379827
 30
0.0
 40
0.6235728347000001
 50
0.0
 51
180.0
  0
ARC
  5
1DD93
  8
0
 10
4561.4004844005958148
 20
477.826593608698488
 30
0.0
 40
1.2459539284393899
 50
90.0000000155288404
 51
91.8620784433132229
  0
ARC
  5
1DD94
  8
0
 10
4561.3995073873793444
 20
477.8486843217791034
 30
0.0
 40
1.2238402039627689
 50
93.1150889046157602
 51
94.5217614535494448
  0
ARC
  5
1DD95
  8
0
 10
4561.3941868524589154
 20
477.9042204464385009
 30
0.0
 40
1.1680440978993989
 50
96.285208358117913
 51
97.9830748453923235
  0
ARC
  5
1DD96
  8
0
 10
4561.376486923549237
 20
478.013150650629882
 30
0.0
 40
1.057665603754363
 50
100.2914901870620952
 51
101.9297284051260988
  0
ARC
  5
1DD97
  8
0
 10
4561.3501837054591306
 20
478.1245721066342753
 30
0.0
 40
0.9431693291038028
 50
104.2660528193930958
 51
106.3492153444811947
  0
ARC
  5
1DD98
  8
0
 10
4561.3100441501583191
 20
478.2533741145380759
 30
0.0
 40
0.8082338467998496
 50
108.5316804102753991
 51
110.9128338975926056
  0
ARC
  5
1DD99
  8
0
 10
4561.2557197025580535
 20
478.3876459419386151
 30
0.0
 40
0.6633537169993265
 50
113.4604686252024948
 51
116.3840915110823033
  0
ARC
  5
1DD9A
  8
0
 10
4561.1831480098580869
 20
478.5246394592386991
 30
0.0
 40
0.5082573936990642
 50
119.9038144908108023
 51
123.7300789674012975
  0
ARC
  5
1DD9B
  8
0
 10
4561.1129474404233406
 20
478.6246453832629868
 30
0.0
 40
0.3860079267695467
 50
127.5755941142564041
 51
130.3359978843070053
  0
ARC
  5
1DD9C
  8
0
 10
4561.0584495265520673
 20
478.6845672028499052
 30
0.0
 40
0.3049675547109329
 50
134.6374025108985961
 51
138.1276703965160948
  0
ARC
  5
1DD9D
  8
0
 10
4561.0073721048820516
 20
478.7271394102680802
 30
0.0
 40
0.238422747881048
 50
143.0881163633534072
 51
147.6983643271371136
  0
ARC
  5
1DD9E
  8
0
 10
4560.9673451178177856
 20
478.7504694840292245
 30
0.0
 40
0.1920441875260188
 50
153.5352731845142955
 51
158.0689145547100907
  0
ARC
  5
1DD9F
  8
0
 10
4560.9429698820340491
 20
478.759235313806812
 30
0.0
 40
0.1661127426943485
 50
163.5167036892667909
 51
178.4958888727950921
  0
ARC
  5
1DDA0
  8
0
 10
4561.4762795867072782
 20
479.1159298737027825
 30
0.0
 40
0.1243413575793529
 50
200.7437150835206126
 51
232.442967965662092
  0
ARC
  5
1DDA1
  8
0
 10
4561.9212704662440956
 20
479.3572904437681927
 30
0.0
 40
0.6543583971815065
 50
205.9729623926544946
 51
217.2626321749569058
  0
ARC
  5
1DDA2
  8
0
 10
4563.8716400042540045
 20
480.3932662921135943
 30
0.0
 40
2.8900226176224488
 50
207.2786606043850099
 51
211.233251573871712
  0
ARC
  5
1DDA3
  8
0
 10
4556.4197962374910276
 20
476.2777068724003016
 30
0.0
 40
5.590981791257259
 50
27.0205404759386383
 51
29.9059223981283999
  0
ARC
  5
1DDA4
  8
0
 10
4534.3762590008509505
 20
463.7352577817335941
 30
0.0
 40
30.9209607273415017
 50
29.0757906652200901
 51
29.712009378117969
  0
ARC
  5
1DDA5
  8
0
 10
4563.2218663213361651
 20
480.0160080083442722
 30
0.0
 40
2.2504164784757661
 50
205.3133700200542933
 51
215.9673302064589109
  0
ARC
  5
1DDA6
  8
0
 10
4563.8155012625011295
 20
480.2949262136376092
 30
0.0
 40
2.9356391839472971
 50
205.1357203472414028
 51
214.6486847425364033
  0
ARC
  5
1DDA7
  8
0
 10
4564.9366520006096835
 20
480.9160414009452893
 30
0.0
 40
4.2554067754187566
 50
206.1789712202167948
 51
213.8002940545401884
  0
ARC
  5
1DDA8
  8
0
 10
4556.6601630299292083
 20
476.3221335388432749
 30
0.0
 40
5.1871795099690878
 50
24.8698526438607992
 51
31.4634221308918391
  0
ARC
  5
1DDA9
  8
0
 10
4577.7169265991788052
 20
487.6530436915330142
 30
0.0
 40
18.767408332868591
 50
207.3882641113875138
 51
209.1824389948617977
  0
ARC
  5
1DDAA
  8
0
 10
4565.5917822184355828
 20
481.1259814382548825
 30
0.0
 40
5.0369976926021511
 50
204.8606262782815861
 51
211.4286928149412006
  0
ARC
  5
1DDAB
  8
0
 10
4565.4067541155482104
 20
481.0067772559593777
 30
0.0
 40
4.8513820644148691
 50
204.4841459726374069
 51
211.1727855544756096
  0
ARC
  5
1DDAC
  8
0
 10
4563.8050809509586543
 20
480.1811263818688076
 30
0.0
 40
3.086634161749763
 50
202.8625563740712892
 51
213.1408512629249969
  0
ARC
  5
1DDAD
  8
0
 10
4563.6417625001840861
 20
480.0749996467864094
 30
0.0
 40
2.9302824865649
 50
202.2547103761982044
 51
213.0334076317681991
  0
ARC
  5
1DDAE
  8
0
 10
4562.5735409856915794
 20
479.5452360719098124
 30
0.0
 40
1.776270026911088
 50
199.67004721249819
 51
216.9069769743639995
  0
ARC
  5
1DDAF
  8
0
 10
4562.1109553455053174
 20
479.2918919128277935
 30
0.0
 40
1.285231953596526
 50
196.3276067596430039
 51
219.8174383978958133
  0
ARC
  5
1DDB0
  8
0
 10
4561.9374480923434021
 20
479.1790279887641759
 30
0.0
 40
1.1053985214454161
 50
193.6116129386550142
 51
220.3056898302315858
  0
ARC
  5
1DDB1
  8
0
 10
4561.7779258603040944
 20
479.0886166902616878
 30
0.0
 40
0.9523015911715789
 50
191.3272829422255938
 51
222.6043052758980139
  0
ARC
  5
1DDB2
  8
0
 10
4561.7261121462734081
 20
479.030161519546084
 30
0.0
 40
0.9059554359805074
 50
189.0201096210035132
 51
220.2490388936668921
  0
ARC
  5
1DDB3
  8
0
 10
4561.6677236944005926
 20
478.9821650818141734
 30
0.0
 40
0.858301680218293
 50
187.4866309496204053
 51
220.2020032891782932
  0
ARC
  5
1DDB4
  8
0
 10
4561.5248666758998297
 20
478.8877521211824728
 30
0.0
 40
0.719786901801403
 50
182.6441067479667879
 51
220.8013943970134108
  0
ARC
  5
1DDB5
  8
0
 10
4562.2307290055287012
 20
478.9769214900799739
 30
0.0
 40
1.4421997483460269
 50
185.6053530761813875
 51
194.8239458291457993
  0
ARC
  5
1DDB6
  8
0
 10
4561.2453439856080877
 20
478.7154237034815196
 30
0.0
 40
0.4227081421181662
 50
194.7312776532546081
 51
228.2677261700573865
  0
ARC
  5
1DDB7
  8
0
 10
4562.1554254990278423
 20
478.902607855964618
 30
0.0
 40
1.36859138486438
 50
183.3683528728849979
 51
192.9667706270003009
  0
ARC
  5
1DDB8
  8
0
 10
4561.2372623604769615
 20
478.6802333196255859
 30
0.0
 40
0.4240778915505956
 50
191.5235176990130981
 51
222.4937441436636902
  0
ARC
  5
1DDB9
  8
0
 10
4562.7096540102147628
 20
478.9062533375005728
 30
0.0
 40
1.928558485114614
 50
182.9688504787083048
 51
189.6928432155582129
  0
ARC
  5
1DDBA
  8
0
 10
4561.1624700759248299
 20
478.6228892847739189
 30
0.0
 40
0.3562501606138548
 50
186.6637515106596084
 51
224.1415315595434947
  0
ARC
  5
1DDBB
  8
0
 10
4562.3828112656092344
 20
478.8097487582633107
 30
0.0
 40
1.6038819381128191
 50
180.8329424648576094
 51
189.8181062360094131
  0
ARC
  5
1DDBC
  8
0
 10
4561.1814446037878952
 20
478.6018457070661043
 30
0.0
 40
0.3846586054816294
 50
189.8181062360094131
 51
218.2717552320625032
  0
ARC
  5
1DDBD
  8
0
 10
4564.1886854976055474
 20
478.8117270172566009
 30
0.0
 40
3.4115030963628068
 50
180.6625494424511942
 51
182.8364544363168989
  0
ARC
  5
1DDBE
  8
0
 10
4562.1009076922473469
 20
478.7082860799765172
 30
0.0
 40
1.321164321892494
 50
182.8364544363168989
 51
189.5817595740431045
  0
ARC
  5
1DDBF
  8
0
 10
4561.1049386987224352
 20
478.5401566592072982
 30
0.0
 40
0.3111040572587076
 50
189.5817595740431045
 51
219.2586864117859022
  0
ARC
  5
1DDC0
  8
0
 10
4561.0798136563444132
 20
478.5003227752210933
 30
0.0
 40
0.2917536870534522
 50
184.2290082420553006
 51
215.4503750658720946
  0
ARC
  5
1DDC1
  8
0
 10
4562.7453358812799706
 20
478.7021308394001267
 30
0.0
 40
1.9691859106942551
 50
181.5965030757627119
 51
186.5118520418668879
  0
ARC
  5
1DDC2
  8
0
 10
4561.0887739859599606
 20
478.4748345027936125
 30
0.0
 40
0.306023343912053
 50
182.8117740744503976
 51
212.4852342579249012
  0
ARC
  5
1DDC3
  8
0
 10
4530.3270660372108978
 20
476.9639993825365991
 30
0.0
 40
30.4927639485252904
 50
2.8117740744505051
 51
3.0401697578135569
  0
ARC
  5
1DDC4
  8
0
 10
4561.0716349424510554
 20
478.4325404966618862
 30
0.0
 40
0.2907704043381126
 50
180.1314336021557949
 51
207.5666016781223959
  0
ARC
  5
1DDC5
  8
0
 10
4560.0175769873540048
 20
478.4301225371174837
 30
0.0
 40
0.7632903240975749
 50
0.1314336021558367
 51
5.8336491148129692
  0
ARC
  5
1DDC6
  8
0
 10
4560.9969245827287523
 20
478.3714236026257254
 30
0.0
 40
0.2154649770158245
 50
182.5819622309165879
 51
206.4565382699308032
  0
ARC
  5
1DDC7
  8
0
 10
4557.958674142275413
 20
478.2344159134387951
 30
0.0
 40
2.8258730255441158
 50
2.581962230916619
 51
4.2121212391455822
  0
ARC
  5
1DDC8
  8
0
 10
4561.1290102019193
 20
478.3545891122274156
 30
0.0
 40
0.350543413970597
 50
180.3049183392105022
 51
195.7417877607180117
  0
ARC
  5
1DDC9
  8
0
 10
4559.8500312402684358
 20
478.347782540680214
 30
0.0
 40
0.9284536594283707
 50
0.3049183392105899
 51
3.333045268672012
  0
ARC
  5
1DDCA
  8
0
 10
4560.94738954667082
 20
478.2935785038660015
 30
0.0
 40
0.1690540982765306
 50
180.529777809049591
 51
199.9910163789151909
  0
ARC
  5
1DDCB
  8
0
 10
4560.1320249964583127
 20
478.2860391290757889
 30
0.0
 40
0.6463453080976707
 50
0.5297778090496005
 51
3.846423934827548
  0
ARC
  5
1DDCC
  8
0
 10
4560.7559920299072473
 20
478.2520808090704918
 30
0.0
 40
0.0363837140257145
 50
333.3891423032341095
 51
11.7431739509564199
  0
ARC
  5
1DDCD
  8
0
 10
4560.8067589341690109
 20
478.2806155159468062
 30
0.0
 40
0.0058623097442647
 50
242.1985449779953967
 51
340.2583941427378136
  0
ARC
  5
1DDCE
  8
0
 10
4560.7873599491185814
 20
478.2904311688621988
 30
0.0
 40
0.0275678301351229
 50
334.6666894895187738
 51
15.8877245527976303
  0
ARC
  5
1DDCF
  8
0
 10
4560.8337432073176387
 20
478.3186374073367233
 30
0.0
 40
0.0087346665222481
 50
249.1486500875197976
 51
321.2426160559040227
  0
ARC
  5
1DDD0
  8
0
 10
4560.8243782082508915
 20
478.3236434664215153
 30
0.0
 40
0.0192712670091478
 50
327.07694533531361
 51
22.7837111479840111
  0
ARC
  5
1DDD1
  8
0
 10
4560.869905199090681
 20
478.3508547684937753
 30
0.0
 40
0.0095704885858062
 50
232.2944253809214104
 51
326.4043085033104035
  0
ARC
  5
1DDD2
  8
0
 10
4560.8619938141946477
 20
478.3560352132909088
 30
0.0
 40
0.0190269707909317
 50
326.592454232064199
 51
23.3982771836100696
  0
ARC
  5
1DDD3
  8
0
 10
4560.9141246854005658
 20
478.3797484657085874
 30
0.0
 40
0.0088338049725141
 50
214.1864333414112025
 51
318.6388136862947817
  0
ARC
  5
1DDD4
  8
0
 10
4560.9108532834707148
 20
478.3861057216681161
 30
0.0
 40
0.0157083860968279
 50
309.075534226132504
 51
29.1806939479975007
  0
ARC
  5
1DDD5
  8
0
 10
4560.9667370225060949
 20
478.4112490298409739
 30
0.0
 40
0.0116119170423016
 50
256.2039268459935784
 51
315.6691211342053975
  0
ARC
  5
1DDD6
  8
0
 10
4560.966113801487154
 20
478.4142374788057168
 30
0.0
 40
0.0142480905833914
 50
308.8077704157095127
 51
12.8872197625896607
  0
ARC
  5
1DDD7
  8
0
 10
4561.0214603514841656
 20
478.4331990061414785
 30
0.0
 40
0.0105712466923522
 50
208.5623095320667062
 51
295.9265634517358876
  0
ARC
  5
1DDD8
  8
0
 10
4561.0186357805996522
 20
478.4390091233387921
 30
0.0
 40
0.0170315611217966
 50
295.9265634517358876
 51
19.9260060785335007
  0
ARC
  5
1DDD9
  8
0
 10
4561.0823257941192423
 20
478.4561279364708071
 30
0.0
 40
0.0132745120086842
 50
246.2893310140350991
 51
321.8593876245104184
  0
ARC
  5
1DDDA
  8
0
 10
4561.084646446919578
 20
478.4569068633055053
 30
0.0
 40
0.0121045262533008
 50
312.1288451724747119
 51
35.778450924229162
  0
ARC
  5
1DDDB
  8
0
 10
4561.150155333029943
 20
478.49797012458572
 30
0.0
 40
0.0392484870448955
 50
227.7841008160395972
 51
263.1232963228857784
  0
ARC
  5
1DDDC
  8
0
 10
4561.1447517524893556
 20
478.4705984476261733
 30
0.0
 40
0.0116158281955248
 50
273.4758111953751722
 51
43.2313385175210314
  0
ARC
  5
1DDDD
  8
0
 10
4561.198712178616006
 20
478.4857471456572853
 30
0.0
 40
0.0158089240603478
 50
210.9331423218565078
 51
277.3856213741477745
  0
ARC
  5
1DDDE
  8
0
 10
4561.2001539554803458
 20
478.4906770523995192
 30
0.0
 40
0.0206161271720737
 50
271.6410718890198268
 51
8.3368661424667732
  0
ARC
  5
1DDDF
  8
0
 10
4561.2768724286697761
 20
478.5092542199107015
 30
0.0
 40
0.0250565176799273
 50
213.0159084626666868
 51
272.855155350345683
  0
ARC
  5
1DDE0
  8
0
 10
4561.2772981341868217
 20
478.5007184544020902
 30
0.0
 40
0.0165101431267276
 50
272.855155350345683
 51
355.7830709944004752
  0
ARC
  5
1DDE1
  8
0
 10
4561.349935469545926
 20
478.5091286246816935
 30
0.0
 40
0.0195658046799282
 50
200.7273225195667123
 51
309.0992138015814135
  0
ARC
  5
1DDE2
  8
0
 10
4561.3552878698747008
 20
478.5025423129026763
 30
0.0
 40
0.0110788916883838
 50
309.0992138015793103
 51
5.7170588026460543
  0
ARC
  5
1DDE3
  8
0
 10
4561.4004872091591096
 20
477.339139727644806
 30
0.0
 40
1.139919817263336
 50
69.4397034784819311
 51
110.5602965215179978
  0
ARC
  5
1DDE4
  8
0
 10
4560.9609530763036673
 20
478.1646532405064818
 30
0.0
 40
0.1840387018460164
 50
132.9616296545650016
 51
227.0383703454349984
  0
ARC
  5
1DDE5
  8
0
 10
4561.1736129308910677
 20
477.9597976104740837
 30
0.0
 40
0.4791513802369786
 50
111.2236749071028044
 51
134.8771207399564958
  0
ARC
  5
1DDE6
  8
0
 10
4561.4004872091591096
 20
478.7794850944807763
 30
0.0
 40
0.9719525347111527
 50
255.3302821755285947
 51
284.6697178244713768
  0
ARC
  5
1DDE7
  8
0
 10
4561.4010024966582932
 20
478.6073524927710992
 30
0.0
 40
0.8081636815476866
 50
225.5969391507856017
 51
238.7154547695508882
  0
ARC
  5
1DDE8
  8
0
 10
4561.2866497117720428
 20
478.3665577400220741
 30
0.0
 40
0.5436852970152583
 50
235.835548836110803
 51
255.9156070376895968
  0
ARC
  5
1DDE9
  8
0
 10
4561.4004872091591096
 20
477.3859718767403137
 30
0.0
 40
0.9356032662931294
 50
69.2404521810254323
 51
110.7595478189745961
  0
ARC
  5
1DDEA
  8
0
 10
4561.02589112192436
 20
478.0648932962645858
 30
0.0
 40
0.1387633405088143
 50
143.1142402306743975
 51
216.8857597693256025
  0
ARC
  5
1DDEB
  8
0
 10
4561.1823374466812311
 20
477.944209876292291
 30
0.0
 40
0.33634142414497
 50
109.716789018326395
 51
142.6671953679511091
  0
ARC
  5
1DDEC
  8
0
 10
4561.1303448919179573
 20
478.1356475079497272
 30
0.0
 40
0.2648475429126007
 50
215.5651820603195006
 51
235.7617526984539893
  0
ARC
  5
1DDED
  8
0
 10
4561.4004872091591096
 20
477.3907803435292863
 30
0.0
 40
0.9111060382184442
 50
72.734611240477264
 51
107.2653887595226934
  0
ARC
  5
1DDEE
  8
0
 10
4561.0524069523089565
 20
478.0698187144216149
 30
0.0
 40
0.1294181966833982
 50
139.8592479081117972
 51
220.1407520918882028
  0
ARC
  5
1DDEF
  8
0
 10
4561.0511680892795994
 20
478.0598236681282174
 30
0.0
 40
0.1351783194206311
 50
136.279810542485194
 51
223.7201894575123902
  0
ARC
  5
1DDF0
  8
0
 10
4561.2031274372093321
 20
477.9271110414247801
 30
0.0
 40
0.3368487740240861
 50
116.2694208028238023
 51
137.82958375388489
  0
ARC
  5
1DDF1
  8
0
 10
4561.3055441027736379
 20
477.7323267350284937
 30
0.0
 40
0.5568736153334505
 50
108.3669081746047027
 51
116.8486147210130071
  0
ARC
  5
1DDF2
  8
0
 10
4561.257904363092166
 20
478.2655904382700101
 30
0.0
 40
0.4268443755555987
 50
224.5027002144979917
 51
254.8268690747999017
  0
ARC
  5
1DDF3
  8
0
 10
4561.4004872091591096
 20
478.7324722734919078
 30
0.0
 40
0.9148993781943593
 50
253.8616278269726934
 51
286.1383721730273919
  0
ARC
  5
1DDF4
  8
0
 10
4561.3454598924590755
 20
478.4592933046259873
 30
0.0
 40
0.6238541059884123
 50
236.9345622918937124
 51
265.3280118127892138
  0
ARC
  5
1DDF5
  8
0
 10
4561.1427855685151371
 20
478.1305130795656169
 30
0.0
 40
0.2379330448910223
 50
217.2822651496072979
 51
234.6389339055556889
  0
LINE
  5
1DDF6
  8
0
 10
4562.0240600438582987
 20
479.3159218517379827
 30
0.0
 11
4562.0240600438582987
 21
478.1646532405064818
 31
0.0
  0
ARC
  5
1DDF7
  8
0
 10
4561.400490017719676
 20
477.826593608698488
 30
0.0
 40
1.2459539284393899
 50
88.1379215566867771
 51
89.9999999844711454
  0
ARC
  5
1DDF8
  8
0
 10
4561.4014670309379653
 20
477.8486843217791034
 30
0.0
 40
1.2238402039627689
 50
85.4782385464505836
 51
86.8849110953842541
  0
ARC
  5
1DDF9
  8
0
 10
4561.4067875658583944
 20
477.9042204464385009
 30
0.0
 40
1.1680440978993989
 50
82.0169251546076765
 51
83.714791641882087
  0
ARC
  5
1DDFA
  8
0
 10
4561.4244874947671633
 20
478.013150650629882
 30
0.0
 40
1.057665603754363
 50
78.0702715948738728
 51
79.7085098129379048
  0
ARC
  5
1DDFB
  8
0
 10
4561.4507907128572697
 20
478.1245721066342753
 30
0.0
 40
0.9431693291038028
 50
73.6507846555188053
 51
75.7339471806068758
  0
ARC
  5
1DDFC
  8
0
 10
4561.4909302681589907
 20
478.2533741145380759
 30
0.0
 40
0.8082338467998496
 50
69.087166102407366
 51
71.468319589724544
  0
ARC
  5
1DDFD
  8
0
 10
4561.5452547157592562
 20
478.3876459419386151
 30
0.0
 40
0.6633537169993265
 50
63.6159084889176967
 51
66.5395313747974626
  0
ARC
  5
1DDFE
  8
0
 10
4561.6178264084592229
 20
478.5246394592386991
 30
0.0
 40
0.5082573936990642
 50
56.2699210325986883
 51
60.096185509189219
  0
ARC
  5
1DDFF
  8
0
 10
4561.6880269778948787
 20
478.6246453832629868
 30
0.0
 40
0.3860079267695467
 50
49.6640021156930018
 51
52.4244058857435675
  0
ARC
  5
1DE00
  8
0
 10
4561.7425248917652425
 20
478.6845672028499052
 30
0.0
 40
0.3049675547109329
 50
41.8723296034838484
 51
45.362597489101347
  0
ARC
  5
1DE01
  8
0
 10
4561.7936023134343486
 20
478.7271394102680802
 30
0.0
 40
0.238422747881048
 50
32.3016356728629006
 51
36.911883636646543
  0
ARC
  5
1DE02
  8
0
 10
4561.8336293004986146
 20
478.7504694840292245
 30
0.0
 40
0.1920441875260188
 50
21.9310854452898099
 51
26.4647268154857116
  0
ARC
  5
1DE03
  8
0
 10
4561.8580045362841702
 20
478.759235313806812
 30
0.0
 40
0.1661127426943485
 50
1.504111127204883
 51
16.4832963107331985
  0
ARC
  5
1DE04
  8
0
 10
4561.3246948316100315
 20
479.1159298737027825
 30
0.0
 40
0.1243413575793529
 50
307.5570320343377944
 51
339.2562849164793874
  0
ARC
  5
1DE05
  8
0
 10
4560.8797039520732142
 20
479.3572904437681927
 30
0.0
 40
0.6543583971815065
 50
322.7373678250431226
 51
334.0270376073456191
  0
ARC
  5
1DE06
  8
0
 10
4558.9293344140623958
 20
480.3932662921135943
 30
0.0
 40
2.8900226176224488
 50
328.7667484261255026
 51
332.7213393956150185
  0
ARC
  5
1DE07
  8
0
 10
4566.3811781808253727
 20
476.2777068724003016
 30
0.0
 40
5.590981791257259
 50
150.0940776018715894
 51
152.9794595240612978
  0
ARC
  5
1DE08
  8
0
 10
4588.4247154174654497
 20
463.7352577817335941
 30
0.0
 40
30.9209607273415017
 50
150.2879906218819883
 51
150.9242093347799027
  0
ARC
  5
1DE09
  8
0
 10
4559.5791080969811446
 20
480.0160080083442722
 30
0.0
 40
2.2504164784757661
 50
324.0326697935411175
 51
334.6866299799456783
  0
ARC
  5
1DE0A
  8
0
 10
4558.9854731558170897
 20
480.2949262136376092
 30
0.0
 40
2.9356391839472971
 50
325.3513152574636251
 51
334.8642796527586256
  0
ARC
  5
1DE0B
  8
0
 10
4557.8643224177076263
 20
480.9160414009452893
 30
0.0
 40
4.2554067754187566
 50
326.1997059454598116
 51
333.8210287797833189
  0
ARC
  5
1DE0C
  8
0
 10
4566.1408113883881015
 20
476.3221335388432749
 30
0.0
 40
5.1871795099690878
 50
148.5365778691081005
 51
155.1301473561391902
  0
ARC
  5
1DE0D
  8
0
 10
4545.0840478191375951
 20
487.6530436915330142
 30
0.0
 40
18.767408332868591
 50
330.817561005138316
 51
332.6117358886124862
  0
ARC
  5
1DE0E
  8
0
 10
4557.209192199881727
 20
481.1259814382548825
 30
0.0
 40
5.0369976926021511
 50
328.5713071850587994
 51
335.1393737217184139
  0
ARC
  5
1DE0F
  8
0
 10
4557.3942203027681899
 20
481.0067772559593777
 30
0.0
 40
4.8513820644148691
 50
328.8272144455244188
 51
335.5158540273625931
  0
ARC
  5
1DE10
  8
0
 10
4558.9958934673586555
 20
480.1811263818688076
 30
0.0
 40
3.086634161749763
 50
326.8591487370749746
 51
337.1374436259287108
  0
ARC
  5
1DE11
  8
0
 10
4559.1592119181332237
 20
480.0749996467864094
 30
0.0
 40
2.9302824865649
 50
326.9665923682317725
 51
337.745289623801682
  0
ARC
  5
1DE12
  8
0
 10
4560.2274334326248209
 20
479.5452360719098124
 30
0.0
 40
1.776270026911088
 50
323.0930230256360005
 51
340.3299527875017816
  0
ARC
  5
1DE13
  8
0
 10
4560.6900190728129019
 20
479.2918919128277935
 30
0.0
 40
1.285231953596526
 50
320.1825616021042151
 51
343.6723932403569961
  0
ARC
  5
1DE14
  8
0
 10
4560.8635263259748172
 20
479.1790279887641759
 30
0.0
 40
1.1053985214454161
 50
319.6943101697684142
 51
346.3883870613448721
  0
ARC
  5
1DE15
  8
0
 10
4561.0230485580132154
 20
479.0886166902616878
 30
0.0
 40
0.9523015911715789
 50
317.3956947241019861
 51
348.6727170577743777
  0
ARC
  5
1DE16
  8
0
 10
4561.0748622720439016
 20
479.030161519546084
 30
0.0
 40
0.9059554359805074
 50
319.7509611063331931
 51
350.9798903789965152
  0
ARC
  5
1DE17
  8
0
 10
4561.1332507239167171
 20
478.9821650818141734
 30
0.0
 40
0.858301680218293
 50
319.7979967108216783
 51
352.513369050379481
  0
ARC
  5
1DE18
  8
0
 10
4561.2761077424165705
 20
478.8877521211824728
 30
0.0
 40
0.719786901801403
 50
319.1986056029866177
 51
357.3558932520331268
  0
ARC
  5
1DE19
  8
0
 10
4560.570245412787699
 20
478.9769214900799739
 30
0.0
 40
1.4421997483460269
 50
345.1760541708541723
 51
354.3946469238152872
  0
ARC
  5
1DE1A
  8
0
 10
4561.5556304327092221
 20
478.7154237034815196
 30
0.0
 40
0.4227081421181662
 50
311.7322738299426987
 51
345.2687223467453919
  0
ARC
  5
1DE1B
  8
0
 10
4560.6455489192876485
 20
478.902607855964618
 30
0.0
 40
1.36859138486438
 50
347.0332293729995854
 51
356.6316471271150021
  0
ARC
  5
1DE1C
  8
0
 10
4561.5637120578403483
 20
478.6802333196255859
 30
0.0
 40
0.4240778915505956
 50
317.506255856336395
 51
348.4764823009869019
  0
ARC
  5
1DE1D
  8
0
 10
4560.0913204081016374
 20
478.9062533375005728
 30
0.0
 40
1.928558485114614
 50
350.3071567844418155
 51
357.0311495212916952
  0
ARC
  5
1DE1E
  8
0
 10
4561.6385043423933894
 20
478.6228892847739189
 30
0.0
 40
0.3562501606138548
 50
315.85846844045642
 51
353.336248489340278
  0
ARC
  5
1DE1F
  8
0
 10
4560.4181631527062564
 20
478.8097487582633107
 30
0.0
 40
1.6038819381128191
 50
350.1818937639906153
 51
359.1670575351423054
  0
ARC
  5
1DE20
  8
0
 10
4561.6195298145275956
 20
478.6018457070661043
 30
0.0
 40
0.3846586054816294
 50
321.7282447679373831
 51
350.1818937639906153
  0
ARC
  5
1DE21
  8
0
 10
4558.6122889207117623
 20
478.8117270172566009
 30
0.0
 40
3.4115030963628068
 50
357.1635455636831011
 51
359.3374505575455942
  0
ARC
  5
1DE22
  8
0
 10
4560.7000667260690534
 20
478.7082860799765172
 30
0.0
 40
1.321164321892494
 50
350.4182404259568102
 51
357.1635455636831011
  0
ARC
  5
1DE23
  8
0
 10
4561.6960357195948745
 20
478.5401566592072982
 30
0.0
 40
0.3111040572587076
 50
320.7413135882140978
 51
350.4182404259568102
  0
ARC
  5
1DE24
  8
0
 10
4561.7211607619728966
 20
478.5003227752210933
 30
0.0
 40
0.2917536870534522
 50
324.5496249341279054
 51
355.7709917579413741
  0
ARC
  5
1DE25
  8
0
 10
4560.0556385370373391
 20
478.7021308394001267
 30
0.0
 40
1.9691859106942551
 50
353.4881479581330836
 51
358.4034969242339912
  0
ARC
  5
1DE26
  8
0
 10
4561.7122004323564397
 20
478.4748345027936125
 30
0.0
 40
0.306023343912053
 50
327.5147657420750988
 51
357.1882259255494887
  0
ARC
  5
1DE27
  8
0
 10
4592.473908381106412
 20
476.9639993825365991
 30
0.0
 40
30.4927639485252904
 50
176.9598302421863991
 51
177.1882259255494887
  0
ARC
  5
1DE28
  8
0
 10
4561.7293394758662544
 20
478.4325404966618862
 30
0.0
 40
0.2907704043381126
 50
332.4333983218775757
 51
359.8685663978441767
  0
ARC
  5
1DE29
  8
0
 10
4562.7833974309633049
 20
478.4301225371174837
 30
0.0
 40
0.7632903240975749
 50
174.1663508851870006
 51
179.8685663978442051
  0
ARC
  5
1DE2A
  8
0
 10
4561.8040498355867385
 20
478.3714236026257254
 30
0.0
 40
0.2154649770158245
 50
333.5434617300692253
 51
357.4180377690832984
  0
ARC
  5
1DE2B
  8
0
 10
4564.8423002760409872
 20
478.2344159134387951
 30
0.0
 40
2.8258730255441158
 50
175.7878787608543973
 51
177.4180377690834121
  0
ARC
  5
1DE2C
  8
0
 10
4561.6719642163971002
 20
478.3545891122274156
 30
0.0
 40
0.350543413970597
 50
344.2582122392818746
 51
359.6950816607894126
  0
ARC
  5
1DE2D
  8
0
 10
4562.950943178048874
 20
478.347782540680214
 30
0.0
 40
0.9284536594283707
 50
176.6669547313279907
 51
179.6950816607894126
  0
ARC
  5
1DE2E
  8
0
 10
4561.8535848716473993
 20
478.2935785038660015
 30
0.0
 40
0.1690540982765306
 50
340.0089836210847238
 51
359.4702221909503805
  0
ARC
  5
1DE2F
  8
0
 10
4562.6689494218580876
 20
478.2860391290757889
 30
0.0
 40
0.6463453080976707
 50
176.1535760651725013
 51
179.470222190950409
  0
ARC
  5
1DE30
  8
0
 10
4562.0449823884091529
 20
478.2520808090704918
 30
0.0
 40
0.0363837140257145
 50
168.2568260490436103
 51
206.6108576967658053
  0
ARC
  5
1DE31
  8
0
 10
4561.9942154841482989
 20
478.2806155159468062
 30
0.0
 40
0.0058623097442647
 50
199.7416058572621864
 51
297.8014550220045749
  0
ARC
  5
1DE32
  8
0
 10
4562.0136144691969093
 20
478.2904311688621988
 30
0.0
 40
0.0275678301351229
 50
164.1122754472023928
 51
205.3333105104811125
  0
ARC
  5
1DE33
  8
0
 10
4561.967231210997852
 20
478.3186374073367233
 30
0.0
 40
0.0087346665222481
 50
218.7573839440960057
 51
290.8513499124802024
  0
ARC
  5
1DE34
  8
0
 10
4561.9765962100645993
 20
478.3236434664215153
 30
0.0
 40
0.0192712670091478
 50
157.2162888520159925
 51
212.9230546646863047
  0
ARC
  5
1DE35
  8
0
 10
4561.9310692192257193
 20
478.3508547684937753
 30
0.0
 40
0.0095704885858062
 50
213.5956914966895965
 51
307.7055746190786181
  0
ARC
  5
1DE36
  8
0
 10
4561.9389806041217525
 20
478.3560352132909088
 30
0.0
 40
0.0190269707909317
 50
156.6017228163898949
 51
213.407545767935801
  0
ARC
  5
1DE37
  8
0
 10
4561.886849732916744
 20
478.3797484657085874
 30
0.0
 40
0.0088338049725141
 50
221.3611863137051898
 51
325.8135666585887975
  0
ARC
  5
1DE38
  8
0
 10
4561.8901211348465949
 20
478.3861057216681161
 30
0.0
 40
0.0157083860968279
 50
150.8193060520025028
 51
230.924465773867496
  0
ARC
  5
1DE39
  8
0
 10
4561.8342373958103053
 20
478.4112490298409739
 30
0.0
 40
0.0116119170423016
 50
224.3308788657946025
 51
283.7960731540064216
  0
ARC
  5
1DE3A
  8
0
 10
4561.8348606168292463
 20
478.4142374788057168
 30
0.0
 40
0.0142480905833914
 50
167.1127802374103055
 51
231.1922295842904873
  0
ARC
  5
1DE3B
  8
0
 10
4561.7795140668340537
 20
478.4331990061414785
 30
0.0
 40
0.0105712466923522
 50
244.0734365482639987
 51
331.4376904679332938
  0
ARC
  5
1DE3C
  8
0
 10
4561.7823386377167481
 20
478.4390091233387921
 30
0.0
 40
0.0170315611217966
 50
160.0739939214664957
 51
244.0734365482639987
  0
ARC
  5
1DE3D
  8
0
 10
4561.7186486241980674
 20
478.4561279364708071
 30
0.0
 40
0.0132745120086842
 50
218.14061237548961
 51
293.7106689859649009
  0
ARC
  5
1DE3E
  8
0
 10
4561.7163279713977317
 20
478.4569068633055053
 30
0.0
 40
0.0121045262533008
 50
144.2215490757708096
 51
227.8711548275252881
  0
ARC
  5
1DE3F
  8
0
 10
4561.6508190852855478
 20
478.49797012458572
 30
0.0
 40
0.0392484870448955
 50
276.8767036771142216
 51
312.2158991839602891
  0
ARC
  5
1DE40
  8
0
 10
4561.6562226658288637
 20
478.4705984476261733
 30
0.0
 40
0.0116158281955248
 50
136.7686614824789046
 51
266.5241888046248278
  0
ARC
  5
1DE41
  8
0
 10
4561.6022622397013038
 20
478.4857471456572853
 30
0.0
 40
0.0158089240603478
 50
262.6143786258522255
 51
329.0668576781436059
  0
ARC
  5
1DE42
  8
0
 10
4561.600820462836964
 20
478.4906770523995192
 30
0.0
 40
0.0206161271720737
 50
171.6631338575332109
 51
268.3589281109801732
  0
ARC
  5
1DE43
  8
0
 10
4561.5241019896457146
 20
478.5092542199107015
 30
0.0
 40
0.0250565176799273
 50
267.144844649654317
 51
326.9840915373331995
  0
ARC
  5
1DE44
  8
0
 10
4561.5236762841313976
 20
478.5007184544020902
 30
0.0
 40
0.0165101431267276
 50
184.2169290055994963
 51
267.144844649654317
  0
ARC
  5
1DE45
  8
0
 10
4561.4510389487713837
 20
478.5091286246816935
 30
0.0
 40
0.0195658046799282
 50
230.9007861984187002
 51
339.272677480433174
  0
ARC
  5
1DE46
  8
0
 10
4561.4456865484426089
 20
478.5025423129026763
 30
0.0
 40
0.0110788916883838
 50
174.2829411973538924
 51
230.9007861984206897
  0
ARC
  5
1DE47
  8
0
 10
4561.8400213420127329
 20
478.1646532405064818
 30
0.0
 40
0.1840387018460164
 50
312.9616296545648879
 51
47.0383703454350268
  0
ARC
  5
1DE48
  8
0
 10
4561.6273614874271516
 20
477.9597976104740837
 30
0.0
 40
0.4791513802369786
 50
45.1228792600434403
 51
68.7763250928971956
  0
ARC
  5
1DE49
  8
0
 10
4561.3999719216608355
 20
478.6073524927710992
 30
0.0
 40
0.8081636815476866
 50
301.2845452304491118
 51
314.4030608492143983
  0
ARC
  5
1DE4A
  8
0
 10
4561.514324706545267
 20
478.3665577400220741
 30
0.0
 40
0.5436852970152583
 50
284.0843929623102895
 51
304.1644511638892254
  0
ARC
  5
1DE4B
  8
0
 10
4561.7750832963920402
 20
478.0648932962645858
 30
0.0
 40
0.1387633405088143
 50
323.1142402306743975
 51
36.8857597693255812
  0
ARC
  5
1DE4C
  8
0
 10
4561.6186369716369882
 20
477.944209876292291
 30
0.0
 40
0.33634142414497
 50
37.3328046320488696
 51
70.2832109816735766
  0
ARC
  5
1DE4D
  8
0
 10
4561.6706295263993525
 20
478.1356475079497272
 30
0.0
 40
0.2648475429126007
 50
304.2382473015459823
 51
324.4348179396804994
  0
ARC
  5
1DE4E
  8
0
 10
4561.7485674660083532
 20
478.0698187144216149
 30
0.0
 40
0.1294181966833982
 50
319.8592479081117972
 51
40.1407520918882028
  0
ARC
  5
1DE4F
  8
0
 10
4561.7498063290377104
 20
478.0598236681282174
 30
0.0
 40
0.1351783194206311
 50
316.2798105424852793
 51
43.7201894575147492
  0
ARC
  5
1DE50
  8
0
 10
4561.5978469811088871
 20
477.9271110414247801
 30
0.0
 40
0.3368487740240861
 50
42.1704162461151029
 51
63.7305791971762119
  0
ARC
  5
1DE51
  8
0
 10
4561.4954303155427624
 20
477.7323267350284937
 30
0.0
 40
0.5568736153334505
 50
63.151385278987
 51
71.6330918253952262
  0
ARC
  5
1DE52
  8
0
 10
4561.5430700552251437
 20
478.2655904382700101
 30
0.0
 40
0.4268443755555987
 50
285.173130925200212
 51
315.4972997855019798
  0
ARC
  5
1DE53
  8
0
 10
4561.6581888498021726
 20
478.1305130795656169
 30
0.0
 40
0.2379330448910223
 50
305.3610660944443111
 51
322.7177348503927874
  0
ARC
  5
1DE54
  8
0
 10
4556.3671974453591247
 20
474.7715922767379766
 30
0.0
 40
0.0235999999999978
 50
90.0
 51
180.0
  0
ARC
  5
1DE55
  8
0
 10
4556.3671974453591247
 20
473.871792276738006
 30
0.0
 40
0.0236000000000003
 50
180.0
 51
270.0
  0
LINE
  5
1DE56
  8
0
 10
4556.95058720920224
 20
472.7390714580379267
 30
0.0
 11
4557.8503872091150697
 21
472.7390714580379267
 31
0.0
  0
ARC
  5
1DE57
  8
0
 10
4556.9505872091585843
 20
472.7626714580379144
 30
0.0
 40
0.0235999999999972
 50
179.9999999999934914
 51
270.0000001055752819
  0
ARC
  5
1DE58
  8
0
 10
4556.9944872091582511
 20
472.7550714580380031
 30
0.0
 40
0.0359999999999982
 50
270.0
 51
333.6122000387711068
  0
ARC
  5
1DE59
  8
0
 10
4558.3062205634978454
 20
472.6964336624383236
 30
0.0
 40
0.0226377955996418
 50
45.0000004295748397
 51
89.9999998491409485
  0
LINE
  5
1DE5A
  8
0
 10
4558.3222279021583745
 20
472.7124410013379929
 30
0.0
 11
4558.3995181697600856
 21
472.6351507336379996
 31
0.0
  0
ARC
  5
1DE5B
  8
0
 10
4558.3835108318871789
 20
472.6191433952632224
 30
0.0
 40
0.0226377946707132
 50
359.9999996831895146
 51
45.000000902180652
  0
LINE
  5
1DE5C
  8
0
 10
4558.4061486265582062
 20
472.6191433951378826
 30
0.0
 11
4558.4061486265582062
 21
472.5153033875379265
 31
0.0
  0
ARC
  5
1DE5D
  8
0
 10
4558.4287864222051212
 20
472.5153033875811275
 30
0.0
 40
0.0226377956461388
 50
180.0000001091545982
 51
270.0712487051649191
  0
ARC
  5
1DE5E
  8
0
 10
4558.5792143719054366
 20
472.4698450753641055
 30
0.0
 40
0.022634885568848
 50
47.7264682321875711
 51
89.9327423372302945
  0
LINE
  5
1DE5F
  8
0
 10
4558.5944401976576046
 20
472.4865935760378761
 30
0.0
 11
4558.7050724293576422
 21
472.3860293925379779
 31
0.0
  0
ARC
  5
1DE60
  8
0
 10
4558.6898454778593077
 20
472.3692779842754135
 30
0.0
 40
0.0226377942994633
 50
359.9999988927589811
 51
47.7293101765947583
  0
LINE
  5
1DE61
  8
0
 10
4558.7124832721592611
 20
472.3692779838380034
 30
0.0
 11
4558.7124832721592611
 21
472.069953347838009
 31
0.0
  0
ARC
  5
1DE62
  8
0
 10
4558.6898454770289391
 20
472.0699533476671945
 30
0.0
 40
0.0226377951292892
 50
269.9999998210536205
 51
0.000000432065275
  0
LINE
  5
1DE63
  8
0
 10
4558.5354872091584184
 20
472.0473155525378957
 30
0.0
 11
4558.5354872091584184
 21
472.0170714580380036
 31
0.0
  0
ARC
  5
1DE64
  8
0
 10
4557.8503872091587255
 20
472.7626714580379144
 30
0.0
 40
0.0235999999999974
 50
269.9999998944247181
 51
0.0000000000065138
  0
ARC
  5
1DE65
  8
0
 10
4557.8064872091590587
 20
472.7550714580380031
 30
0.0
 40
0.0359999999999982
 50
206.3877999612288932
 51
270.0
  0
ARC
  5
1DE66
  8
0
 10
4554.0946378455491867
 20
473.9474714461555891
 30
0.0
 40
0.0200146667641687
 50
180.0241245094910028
 51
224.9919899861660895
  0
LINE
  5
1DE67
  8
0
 10
4554.080483360558901
 20
473.933320918237996
 30
0.0
 11
4554.1597653161588823
 21
473.8540399081045962
 31
0.0
  0
ARC
  5
1DE68
  8
0
 10
4554.1739101565390229
 20
473.8681793427643925
 30
0.0
 40
0.0200000030476513
 50
224.9890495680301115
 51
267.9390703937676221
  0
LINE
  5
1DE69
  8
0
 10
4558.4288145728505697
 20
472.4926656094378927
 30
0.0
 11
4558.579240942258366
 21
472.4924799453380047
 31
0.0
  0
LINE
  5
1DE6A
  8
0
 10
4556.3721598454667401
 20
472.4926656094378927
 30
0.0
 11
4556.2217332429590897
 21
472.4924799453380047
 31
0.0
  0
ARC
  5
1DE6B
  8
0
 10
4556.3225748307768299
 20
473.2175852101327109
 30
0.0
 40
1.128398177514208
 50
88.9324896082450493
 51
99.5368869332670698
  0
ARC
  5
1DE6C
  8
0
 10
4557.2387725121670883
 20
467.4938814416073001
 30
0.0
 40
6.9502623790442559
 50
97.4000987353378633
 51
100.6151665181926944
  0
ARC
  5
1DE6D
  8
0
 10
4556.4223880128001838
 20
472.687371953717502
 30
0.0
 40
1.728738232222198
 50
92.612270194658791
 51
107.5242581046635024
  0
ARC
  5
1DE6E
  8
0
 10
4556.6799644065858956
 20
471.6606737313722988
 30
0.0
 40
2.8134367884468729
 50
96.8665549320343047
 51
107.9111343196317989
  0
ARC
  5
1DE6F
  8
0
 10
4556.6251068422079697
 20
471.5150786792199824
 30
0.0
 40
2.9792829947979969
 50
95.4219079390598921
 51
108.2449430632168941
  0
ARC
  5
1DE70
  8
0
 10
4556.7333670528851144
 20
471.210399602968721
 30
0.0
 40
3.3347087799457529
 50
96.7122255027876605
 51
109.5288209800230987
  0
ARC
  5
1DE71
  8
0
 10
4556.631619282675274
 20
471.395729220095177
 30
0.0
 40
3.1686274960005041
 50
95.2152692893695871
 51
111.2833476839523996
  0
ARC
  5
1DE72
  8
0
 10
4557.4772238933683184
 20
467.2291054769661969
 30
0.0
 40
7.4436672741585781
 50
98.7598952433722133
 51
106.7116803842931034
  0
ARC
  5
1DE73
  8
0
 10
4557.046479986463055
 20
468.8171777133920841
 30
0.0
 40
5.8311134094717021
 50
96.9232698214316457
 51
105.5075116080410993
  0
ARC
  5
1DE74
  8
0
 10
4544.6204478583476885
 20
513.6012017807067878
 30
0.0
 40
40.6448490454441114
 50
285.031312151184693
 51
285.5075116080412272
  0
ARC
  5
1DE75
  8
0
 10
4557.334419350358985
 20
467.2653764326936994
 30
0.0
 40
7.4381810211726762
 50
97.6549842105735593
 51
105.0125363366528006
  0
ARC
  5
1DE76
  8
0
 10
4479.3720091855775536
 20
757.9706116973152348
 30
0.0
 40
293.5396773155500227
 50
284.9363398134465797
 51
285.0125363366527722
  0
ARC
  5
1DE77
  8
0
 10
4556.6934288372649462
 20
470.3074550920583761
 30
0.0
 40
4.3587233594928962
 50
94.603514059006514
 51
105.9220023504754948
  0
ARC
  5
1DE78
  8
0
 10
4556.3607774006295585
 20
470.2990697767975234
 30
0.0
 40
4.2876536051475389
 50
101.6125262461882954
 51
109.569808028120093
  0
ARC
  5
1DE79
  8
0
 10
4556.8951428043828855
 20
469.7392762105018278
 30
0.0
 40
4.9714402682560861
 50
96.3696650249932247
 51
101.1750789097598044
  0
ARC
  5
1DE7A
  8
0
 10
4558.3015130202757064
 20
462.6203378384309985
 30
0.0
 40
12.2279656578273901
 50
101.1750789097598044
 51
106.490544186468
  0
ARC
  5
1DE7B
  8
0
 10
4556.755481389718625
 20
469.7029130230703231
 30
0.0
 40
5.0086720142126921
 50
94.7169970348273722
 51
104.0315301525827039
  0
ARC
  5
1DE7C
  8
0
 10
4559.2715287227583758
 20
459.6352039189886227
 30
0.0
 40
15.3860156428349502
 50
104.0315301525827039
 51
107.1729608705162065
  0
ARC
  5
1DE7D
  8
0
 10
4557.1492357902252479
 20
467.2849481790711934
 30
0.0
 40
7.4768497292209277
 50
96.1856891275189554
 51
109.468911883205493
  0
ARC
  5
1DE7E
  8
0
 10
4556.8936368374743324
 20
468.033101715795226
 30
0.0
 40
6.7205037894942157
 50
94.6946222368267172
 51
109.9326815469677001
  0
ARC
  5
1DE7F
  8
0
 10
4556.7468602816688872
 20
468.6266337052286985
 30
0.0
 40
6.1366013577901146
 50
93.7678707061262742
 51
111.3707607030473952
  0
ARC
  5
1DE80
  8
0
 10
4556.7117308766446513
 20
467.7352757878152261
 30
0.0
 40
7.0356972645956608
 50
92.9992945085295162
 51
102.5287069751849032
  0
ARC
  5
1DE81
  8
0
 10
4555.9410897976140404
 20
471.2031894351906089
 30
0.0
 40
3.483189314098881
 50
102.5287069751849032
 51
115.8245263380645014
  0
ARC
  5
1DE82
  8
0
 10
4556.5949083435825742
 20
467.9754034233350808
 30
0.0
 40
6.8045309475145244
 50
92.1165792925828129
 51
102.3891901997720026
  0
ARC
  5
1DE83
  8
0
 10
4555.7455104315085919
 20
471.6877872264440157
 30
0.0
 40
2.9965421033323931
 50
101.7558652726431063
 51
117.8557642246792057
  0
ARC
  5
1DE84
  8
0
 10
4556.5726191148405633
 20
467.1881180887153278
 30
0.0
 40
7.601499118244603
 50
91.7264964289225588
 51
99.7829673172223579
  0
ARC
  5
1DE85
  8
0
 10
4555.7682569225380576
 20
471.3644531690193844
 30
0.0
 40
3.3502491635026201
 50
98.3627265649868008
 51
117.2767528974238047
  0
ARC
  5
1DE86
  8
0
 10
4556.3908339285480906
 20
468.1370661225819845
 30
0.0
 40
6.6554542359582056
 50
90.4066550159192843
 51
99.9865663849060411
  0
ARC
  5
1DE87
  8
0
 10
4555.6865183744248498
 20
471.5014561795753139
 30
0.0
 40
3.2217847066993661
 50
98.0263894343621445
 51
117.6039721716115025
  0
ARC
  5
1DE88
  8
0
 10
4556.4284540640983323
 20
463.6921163780226038
 30
0.0
 40
11.1028179932958704
 50
90.4379044540068548
 51
91.7675043531010033
  0
ARC
  5
1DE89
  8
0
 10
4556.3260730698184489
 20
467.009866606030414
 30
0.0
 40
7.7834884761440577
 50
91.7675043531010033
 51
98.898800366651443
  0
ARC
  5
1DE8A
  8
0
 10
4555.5816793335143302
 20
471.7641168443619222
 30
0.0
 40
2.971314605290682
 50
98.898800366651443
 51
117.5675124415317043
  0
ARC
  5
1DE8B
  8
0
 10
4556.2336836531321751
 20
466.1127702088788851
 30
0.0
 40
8.6824490126371092
 50
90.9580743838874213
 51
96.0907978958945108
  0
ARC
  5
1DE8C
  8
0
 10
4555.6921789786501904
 20
471.1874704100479789
 30
0.0
 40
3.578939490334557
 50
96.0907978958945108
 51
114.7327804516078942
  0
ARC
  5
1DE8D
  8
0
 10
4556.1089622024874188
 20
465.2122786722031833
 30
0.0
 40
9.5832486400227754
 50
90.4791019330330215
 51
95.5726433707262686
  0
ARC
  5
1DE8E
  8
0
 10
4555.4721293008096836
 20
471.7392906924084173
 30
0.0
 40
3.0252426887781132
 50
95.5726433707262686
 51
114.7227806583643002
  0
ARC
  5
1DE8F
  8
0
 10
4555.971402867830875
 20
464.7609069735096909
 30
0.0
 40
10.0350893629960503
 50
90.7253106828257216
 51
95.7711458624670229
  0
ARC
  5
1DE90
  8
0
 10
4555.1880047946460763
 20
472.526742854499787
 30
0.0
 40
2.2298405027982469
 50
95.8088730149339227
 51
116.4672921111983044
  0
ARC
  5
1DE91
  8
0
 10
4555.0719678229070269
 20
472.7822953619950113
 30
0.0
 40
1.981608368092417
 50
95.6490169807849782
 51
115.8697373796686065
  0
ARC
  5
1DE92
  8
0
 10
4555.6485894175393696
 20
466.9528098220156949
 30
0.0
 40
7.8395426562371417
 50
92.4701269874663865
 51
95.6490169807849782
  0
ARC
  5
1DE93
  8
0
 10
4555.9062909494377891
 20
460.3244411792304049
 30
0.0
 40
14.4728864480586399
 50
90.9842376712550731
 51
92.3584456608358266
  0
ARC
  5
1DE94
  8
0
 10
4554.9602045025303596
 20
472.9841869403716146
 30
0.0
 40
1.783678109950984
 50
96.042661455922115
 51
115.4407845947938966
  0
ARC
  5
1DE95
  8
0
 10
4555.4273264995772479
 20
468.5714268524577051
 30
0.0
 40
6.221093410958022
 50
90.4810691525902371
 51
96.042661455922115
  0
ARC
  5
1DE96
  8
0
 10
4555.3062012183036131
 20
482.997220502589073
 30
0.0
 40
8.2052087406653076
 50
270.4810691525901802
 51
271.5953484478130235
  0
ARC
  5
1DE97
  8
0
 10
4554.8846332227331004
 20
473.0006982834548239
 30
0.0
 40
1.7689271143708181
 50
95.7984025501939414
 51
112.6700467899577944
  0
ARC
  5
1DE98
  8
0
 10
4555.3404993069343618
 20
468.511535405228301
 30
0.0
 40
6.2811768009431388
 50
91.0470872346323148
 51
95.7984025501939414
  0
ARC
  5
1DE99
  8
0
 10
4554.5329887584721291
 20
512.6929502382902228
 30
0.0
 40
37.9076169134928591
 50
271.0470872346323858
 51
271.3067700626746728
  0
ARC
  5
1DE9A
  8
0
 10
4554.8777120030963488
 20
472.8619981705024884
 30
0.0
 40
1.920542613472443
 50
92.336159552985535
 51
110.8973542322570012
  0
ARC
  5
1DE9B
  8
0
 10
4555.1666970227443016
 20
469.0351590651750939
 30
0.0
 40
5.7575115183686112
 50
91.4535953198310239
 51
93.657373540352026
  0
ARC
  5
1DE9C
  8
0
 10
4554.8915807976518408
 20
481.9187740880432216
 30
0.0
 40
7.1291246443570442
 50
271.0373234988217064
 51
272.2595063575614063
  0
ARC
  5
1DE9D
  8
0
 10
4554.7460659852877143
 20
473.0661174831831772
 30
0.0
 40
1.715255393296935
 50
93.7309942430185856
 51
108.2981672204631991
  0
ARC
  5
1DE9E
  8
0
 10
4554.9917307339210311
 20
470.3411483676513853
 30
0.0
 40
4.4509518287737864
 50
91.5998136931408737
 51
94.6041133376535441
  0
ARC
  5
1DE9F
  8
0
 10
4555.4046461442212603
 20
457.335570289871896
 30
0.0
 40
17.4630589494979489
 50
91.1367684157605566
 51
91.7627458500583515
  0
ARC
  5
1DEA0
  8
0
 10
4554.6509785338721485
 20
473.2737533867148727
 30
0.0
 40
1.5104610510368279
 50
93.5188027351474176
 51
107.619064229525307
  0
ARC
  5
1DEA1
  8
0
 10
4555.0242522306107276
 20
467.2034751269088133
 30
0.0
 40
7.592205159773302
 50
90.6496363607736271
 51
93.5188027351474176
  0
ARC
  5
1DEA2
  8
0
 10
4554.668097656934151
 20
472.7150447333165175
 30
0.0
 40
2.0765083074696919
 50
91.1622529221292552
 51
103.1332092612284015
  0
ARC
  5
1DEA3
  8
0
 10
4554.3560598607391512
 20
488.0955149511177069
 30
0.0
 40
13.3071268840877792
 50
271.1622529221293121
 51
271.8323263769348728
  0
ARC
  5
1DEA4
  8
0
 10
4554.6169340163160086
 20
472.6207887496561852
 30
0.0
 40
2.1733407985816591
 50
89.7649478390747788
 51
101.219610040650295
  0
ARC
  5
1DEA5
  8
0
 10
4554.6393707642555455
 20
478.0898886547855113
 30
0.0
 40
3.2958051292523121
 50
269.7649478390748072
 51
271.4862302480657945
  0
ARC
  5
1DEA6
  8
0
 10
4554.4977524157093285
 20
472.8886983301838995
 30
0.0
 40
1.9038888320464971
 50
92.260829487998663
 51
99.0898321561911075
  0
ARC
  5
1DEA7
  8
0
 10
4554.6347952991673083
 20
469.4174488353752963
 30
0.0
 40
5.3778424597041061
 50
90.3476899059785552
 51
92.260829487998663
  0
ARC
  5
1DEA8
  8
0
 10
4554.434282338705998
 20
473.0266040560308056
 30
0.0
 40
1.7677660273647049
 50
90.4468542528962729
 51
97.8040796722593342
  0
ARC
  5
1DEA9
  8
0
 10
4554.3439169809898885
 20
484.6130410243571873
 30
0.0
 40
9.8190233259841015
 50
270.4468542528962871
 51
270.8862348259581836
  0
ARC
  5
1DEAA
  8
0
 10
4554.4477686535092289
 20
471.4213170065249869
 30
0.0
 40
3.3746753951144481
 50
91.2476969179046762
 51
94.3403165989234651
  0
ARC
  5
1DEAB
  8
0
 10
4554.3108406444107459
 20
472.8393009076092994
 30
0.0
 40
1.9554257025614681
 50
91.5923116492499787
 51
93.4602243982673144
  0
ARC
  5
1DEAC
  8
0
 10
4554.338504811958046
 20
471.8441238903034218
 30
0.0
 40
2.950987153171059
 50
90.3121878780387419
 51
91.5923116492499787
  0
ARC
  5
1DEAD
  8
0
 10
4554.3212328408762914
 20
475.0140139569427902
 30
0.0
 40
0.2189499685340134
 50
270.3121878780386851
 51
271.9614623159781104
  0
ARC
  5
1DEAE
  8
0
 10
4554.1926344246730878
 20
474.7887344405335739
 30
0.0
 40
0.0024343728352626
 50
85.6340705397740436
 51
263.8096289141495845
  0
ARC
  5
1DEAF
  8
0
 10
4554.1956407440793555
 20
474.7733473380106943
 30
0.0
 40
0.0048551756094663
 50
106.7160696372827999
 51
285.897477485384627
  0
ARC
  5
1DEB0
  8
0
 10
4554.1965135617147098
 20
474.7451105988102995
 30
0.0
 40
0.0078732089621108
 50
108.1047536496186012
 51
268.3158335926685254
  0
ARC
  5
1DEB1
  8
0
 10
4554.2025256922242988
 20
474.7053709455722128
 30
0.0
 40
0.0118433260331322
 50
137.5882659621923949
 51
295.0529993634755783
  0
ARC
  5
1DEB2
  8
0
 10
4554.2005184071049371
 20
474.645793356249726
 30
0.0
 40
0.0130452549126493
 50
127.0178861782524962
 51
280.2815020138388036
  0
ARC
  5
1DEB3
  8
0
 10
4554.2041153409818435
 20
474.5816747491264778
 30
0.0
 40
0.0166660537310258
 50
127.474599386379893
 51
281.1541847457572203
  0
ARC
  5
1DEB4
  8
0
 10
4554.2077908472947456
 20
474.5076416215425184
 30
0.0
 40
0.0204160505358535
 50
131.7574717976524994
 51
267.4634794013811074
  0
ARC
  5
1DEB5
  8
0
 10
4554.2106319420108775
 20
474.4210247391862936
 30
0.0
 40
0.0232942458288322
 50
132.8230872534736022
 51
259.9685237097752974
  0
ARC
  5
1DEB6
  8
0
 10
4556.3225748307768299
 20
475.4257993433432716
 30
0.0
 40
1.128398177514208
 50
260.4631130667328875
 51
271.0675103917549222
  0
ARC
  5
1DEB7
  8
0
 10
4557.2387725121670883
 20
481.1495031118686256
 30
0.0
 40
6.9502623790442559
 50
259.3862466398788911
 51
262.5999012646622077
  0
ARC
  5
1DEB8
  8
0
 10
4556.4223880128001838
 20
475.9560125997584805
 30
0.0
 40
1.728738232222198
 50
252.4757418953365118
 51
267.3877298053412233
  0
ARC
  5
1DEB9
  8
0
 10
4556.6799644065858956
 20
476.9827108221035132
 30
0.0
 40
2.8134367884468729
 50
252.0888656803680874
 51
263.1334450679656811
  0
ARC
  5
1DEBA
  8
0
 10
4556.6251068422079697
 20
477.1283058742557728
 30
0.0
 40
2.9792829947979969
 50
251.7550569367830917
 51
264.5780920609400937
  0
ARC
  5
1DEBB
  8
0
 10
4556.7333670528851144
 20
477.4329849505070911
 30
0.0
 40
3.3347087799457529
 50
250.471179019976887
 51
263.2877744972124106
  0
ARC
  5
1DEBC
  8
0
 10
4556.631619282675274
 20
477.2476553333806919
 30
0.0
 40
3.1686274960005041
 50
248.7166523160476004
 51
264.7847307106304129
  0
ARC
  5
1DEBD
  8
0
 10
4557.4772238933683184
 20
481.4142790765097857
 30
0.0
 40
7.4436672741585781
 50
253.2883196157069108
 51
261.2401047566277725
  0
ARC
  5
1DEBE
  8
0
 10
4557.046479986463055
 20
479.8262068400837848
 30
0.0
 40
5.8311134094717021
 50
254.4924883919588865
 51
263.0767301785684253
  0
ARC
  5
1DEBF
  8
0
 10
4544.6204478583476885
 20
435.0421827727690243
 30
0.0
 40
40.6448490454441114
 50
74.4924883919588439
 51
74.9686878488152644
  0
ARC
  5
1DEC0
  8
0
 10
4557.334419350358985
 20
481.3780081207822263
 30
0.0
 40
7.4381810211726762
 50
254.9874636633471994
 51
262.3450157894263839
  0
ARC
  5
1DEC1
  8
0
 10
4479.3720091855775536
 20
190.6727728561606909
 30
0.0
 40
293.5396773155500227
 50
74.9874636633471567
 51
75.0636601865534061
  0
ARC
  5
1DEC2
  8
0
 10
4556.6934288372649462
 20
478.3359294614174928
 30
0.0
 40
4.3587233594928962
 50
254.0779976495244057
 51
265.3964859409935002
  0
ARC
  5
1DEC3
  8
0
 10
4556.3607774006295585
 20
478.3443147766782886
 30
0.0
 40
4.2876536051475389
 50
250.4301919718307943
 51
258.3874737538117188
  0
ARC
  5
1DEC4
  8
0
 10
4556.8951428043828855
 20
478.9041083429740979
 30
0.0
 40
4.9714402682560861
 50
258.8249210902401956
 51
263.63033497500669
  0
ARC
  5
1DEC5
  8
0
 10
4558.3015130202757064
 20
486.0230467150449272
 30
0.0
 40
12.2279656578273901
 50
253.5094558135320142
 51
258.8249210902401956
  0
ARC
  5
1DEC6
  8
0
 10
4556.755481389718625
 20
478.9404715304057163
 30
0.0
 40
5.0086720142126921
 50
255.9684698474173103
 51
265.2830029651727273
  0
ARC
  5
1DEC7
  8
0
 10
4559.2715287227583758
 20
489.008180634487303
 30
0.0
 40
15.3860156428349502
 50
252.8270391294836941
 51
255.9684698474173103
  0
ARC
  5
1DEC8
  8
0
 10
4557.1492357902252479
 20
481.3584363744046186
 30
0.0
 40
7.4768497292209277
 50
250.5310881167943933
 51
263.8143108724809736
  0
ARC
  5
1DEC9
  8
0
 10
4556.8936368374743324
 20
480.6102828376808134
 30
0.0
 40
6.7205037894942157
 50
250.0673184530321862
 51
265.3053777631732828
  0
ARC
  5
1DECA
  8
0
 10
4556.7468602816688872
 20
480.016750848247284
 30
0.0
 40
6.1366013577901146
 50
248.6292392969525054
 51
266.2321292938736974
  0
ARC
  5
1DECB
  8
0
 10
4556.7117308766446513
 20
480.9081087656606996
 30
0.0
 40
7.0356972645956608
 50
257.4712930248149974
 51
267.0007054914705122
  0
ARC
  5
1DECC
  8
0
 10
4555.9410897976140404
 20
477.4401951182853168
 30
0.0
 40
3.483189314098881
 50
244.1754736619355128
 51
257.4712930248149974
  0
ARC
  5
1DECD
  8
0
 10
4556.5949083435825742
 20
480.6679811301407881
 30
0.0
 40
6.8045309475145244
 50
257.6108098002279121
 51
267.8834207074170877
  0
ARC
  5
1DECE
  8
0
 10
4555.7455104315085919
 20
476.9555973270317963
 30
0.0
 40
2.9965421033323931
 50
242.1442357753207943
 51
258.2441347273568795
  0
ARC
  5
1DECF
  8
0
 10
4556.5726191148405633
 20
481.455266464760598
 30
0.0
 40
7.601499118244603
 50
260.2170326827782105
 51
268.2735035710774127
  0
ARC
  5
1DED0
  8
0
 10
4555.7682569225380576
 20
477.2789313844564845
 30
0.0
 40
3.3502491635026201
 50
242.7232471025760958
 51
261.637273435013185
  0
ARC
  5
1DED1
  8
0
 10
4556.3908339285480906
 20
480.5063184308938844
 30
0.0
 40
6.6554542359582056
 50
260.0134336150940157
 51
269.593344984080602
  0
ARC
  5
1DED2
  8
0
 10
4555.6865183744248498
 20
477.1419283739004982
 30
0.0
 40
3.2217847066993661
 50
242.3960278283884122
 51
261.9736105656377845
  0
ARC
  5
1DED3
  8
0
 10
4556.4284540640983323
 20
484.9512681754532082
 30
0.0
 40
11.1028179932958704
 50
268.2324956468989967
 51
269.5620955459930883
  0
ARC
  5
1DED4
  8
0
 10
4556.3260730698184489
 20
481.6335179474455117
 30
0.0
 40
7.7834884761440577
 50
261.1011996333485854
 51
268.2324956468989967
  0
ARC
  5
1DED5
  8
0
 10
4555.5816793335143302
 20
476.8792677091140035
 30
0.0
 40
2.971314605290682
 50
242.4324875584682957
 51
261.1011996333485854
  0
ARC
  5
1DED6
  8
0
 10
4556.2336836531321751
 20
482.5306143445969838
 30
0.0
 40
8.6824490126371092
 50
263.909202104105475
 51
269.0419256161125077
  0
ARC
  5
1DED7
  8
0
 10
4555.6921789786501904
 20
477.4559141434277763
 30
0.0
 40
3.578939490334557
 50
245.2672195483920916
 51
263.909202104105475
  0
ARC
  5
1DED8
  8
0
 10
4556.1089622024874188
 20
483.4311058812726856
 30
0.0
 40
9.5832486400227754
 50
264.4273566292736746
 51
269.5208980669669927
  0
ARC
  5
1DED9
  8
0
 10
4555.4721293008096836
 20
476.9040938610673948
 30
0.0
 40
3.0252426887781132
 50
245.277219341635714
 51
264.4273566292736746
  0
ARC
  5
1DEDA
  8
0
 10
4555.971402867830875
 20
483.8824775799661779
 30
0.0
 40
10.0350893629960503
 50
264.2288541375330055
 51
269.2746893171741931
  0
ARC
  5
1DEDB
  8
0
 10
4555.1880047946460763
 20
476.1166416989760819
 30
0.0
 40
2.2298405027982469
 50
243.5327078888016956
 51
264.1911269850659778
  0
ARC
  5
1DEDC
  8
0
 10
4555.0719678229070269
 20
475.8610891914808008
 30
0.0
 40
1.981608368092417
 50
244.1302626203313935
 51
264.3509830192149934
  0
ARC
  5
1DEDD
  8
0
 10
4555.6485894175393696
 20
481.6905747314601172
 30
0.0
 40
7.8395426562371417
 50
264.3509830192149934
 51
267.5298730125335851
  0
ARC
  5
1DEDE
  8
0
 10
4555.9062909494377891
 20
488.3189433742455208
 30
0.0
 40
14.4728864480586399
 50
267.6415543391642018
 51
269.0157623287449269
  0
ARC
  5
1DEDF
  8
0
 10
4554.9602045025303596
 20
475.6591976131041974
 30
0.0
 40
1.783678109950984
 50
244.5592154052060891
 51
263.9573385440779134
  0
ARC
  5
1DEE0
  8
0
 10
4555.4273264995772479
 20
480.0719577010181069
 30
0.0
 40
6.221093410958022
 50
263.9573385440779134
 51
269.5189308474098198
  0
ARC
  5
1DEE1
  8
0
 10
4555.3062012183036131
 20
465.6461640508869095
 30
0.0
 40
8.2052087406653076
 50
88.4046515521870475
 51
89.5189308474097487
  0
ARC
  5
1DEE2
  8
0
 10
4554.8846332227331004
 20
475.6426862700211018
 30
0.0
 40
1.7689271143708181
 50
247.3299532100421061
 51
264.2015974498061155
  0
ARC
  5
1DEE3
  8
0
 10
4555.3404993069343618
 20
480.1318491482476247
 30
0.0
 40
6.2811768009431388
 50
264.2015974498061155
 51
268.9529127653677278
  0
ARC
  5
1DEE4
  8
0
 10
4554.5329887584721291
 20
435.9504343151857029
 30
0.0
 40
37.9076169134928591
 50
88.6932299373252704
 51
88.952912765367671
  0
ARC
  5
1DEE5
  8
0
 10
4554.8777120030963488
 20
475.7813863829733236
 30
0.0
 40
1.920542613472443
 50
249.102645767743013
 51
267.6638404470144792
  0
ARC
  5
1DEE6
  8
0
 10
4555.1666970227443016
 20
479.6082254883007749
 30
0.0
 40
5.7575115183686112
 50
266.3426264596479882
 51
268.5464046801690188
  0
ARC
  5
1DEE7
  8
0
 10
4554.8915807976518408
 20
466.7246104654327041
 30
0.0
 40
7.1291246443570442
 50
87.7404936424386079
 51
88.9626765011782652
  0
ARC
  5
1DEE8
  8
0
 10
4554.7460659852877143
 20
475.5772670702928053
 30
0.0
 40
1.715255393296935
 50
251.7018327795366872
 51
266.2690057569814144
  0
ARC
  5
1DEE9
  8
0
 10
4554.9917307339210311
 20
478.3022361858244267
 30
0.0
 40
4.4509518287737864
 50
265.3958866623464132
 51
268.4001863068590978
  0
ARC
  5
1DEEA
  8
0
 10
4555.4046461442212603
 20
491.3078142636040866
 30
0.0
 40
17.4630589494979489
 50
268.2372541499416911
 51
268.8632315842393723
  0
ARC
  5
1DEEB
  8
0
 10
4554.6509785338721485
 20
475.3696311667608825
 30
0.0
 40
1.5104610510368279
 50
252.3809357704747072
 51
266.4811972648524829
  0
ARC
  5
1DEEC
  8
0
 10
4555.0242522306107276
 20
481.4399094265669987
 30
0.0
 40
7.592205159773302
 50
266.4811972648524829
 51
269.3503636392263729
  0
ARC
  5
1DEED
  8
0
 10
4554.668097656934151
 20
475.9283398201595219
 30
0.0
 40
2.0765083074696919
 50
256.8667907387716127
 51
268.8377470778708016
  0
ARC
  5
1DEEE
  8
0
 10
4554.3560598607391512
 20
460.5478696023582188
 30
0.0
 40
13.3071268840877792
 50
88.1676736230650562
 51
88.8377470778707448
  0
ARC
  5
1DEEF
  8
0
 10
4554.6169340163160086
 20
476.0225958038196836
 30
0.0
 40
2.1733407985816591
 50
258.7803899593495771
 51
270.2350521609253065
  0
ARC
  5
1DEF0
  8
0
 10
4554.6393707642555455
 20
470.5534958986905281
 30
0.0
 40
3.2958051292523121
 50
88.5137697519341771
 51
90.235052160925207
  0
ARC
  5
1DEF1
  8
0
 10
4554.4977524157093285
 20
475.754686223292083
 30
0.0
 40
1.9038888320464971
 50
260.9101678438088925
 51
267.739170512001408
  0
ARC
  5
1DEF2
  8
0
 10
4554.6347952991673083
 20
479.2259357181005726
 30
0.0
 40
5.3778424597041061
 50
267.739170512001408
 51
269.6523100940215159
  0
ARC
  5
1DEF3
  8
0
 10
4554.434282338705998
 20
475.6167804974451201
 30
0.0
 40
1.7677660273647049
 50
262.19592032774068
 51
269.5531457471037129
  0
ARC
  5
1DEF4
  8
0
 10
4554.3439169809898885
 20
464.0303435291186247
 30
0.0
 40
9.8190233259841015
 50
89.1137651740417311
 51
89.5531457471037271
  0
ARC
  5
1DEF5
  8
0
 10
4554.4477686535092289
 20
477.2220675469508819
 30
0.0
 40
3.3746753951144481
 50
265.6596834010766202
 51
268.7523030820952954
  0
ARC
  5
1DEF6
  8
0
 10
4554.3108406444107459
 20
475.8040836458666263
 30
0.0
 40
1.9554257025614681
 50
266.5397756017326856
 51
268.4076883507499929
  0
ARC
  5
1DEF7
  8
0
 10
4554.338504811958046
 20
476.7992606631723902
 30
0.0
 40
2.950987153171059
 50
268.4076883507499929
 51
269.6878121219612012
  0
ARC
  5
1DEF8
  8
0
 10
4554.3212328408762914
 20
473.6293705965330787
 30
0.0
 40
0.2189499685340134
 50
88.0385376840219038
 51
89.6878121219612439
  0
ARC
  5
1DEF9
  8
0
 10
4554.1926344246730878
 20
473.8546501129421813
 30
0.0
 40
0.0024343728352626
 50
96.1903710858504013
 51
274.3659294602259138
  0
ARC
  5
1DEFA
  8
0
 10
4554.1956407440793555
 20
473.8700372154651177
 30
0.0
 40
0.0048551756094663
 50
74.1025225146153304
 51
253.2839303627172001
  0
ARC
  5
1DEFB
  8
0
 10
4554.1965135617147098
 20
473.8982739546655125
 30
0.0
 40
0.0078732089621108
 50
91.6841664073314746
 51
251.8952463503813988
  0
ARC
  5
1DEFC
  8
0
 10
4554.2025256922242988
 20
473.9380136079037129
 30
0.0
 40
0.0118433260331322
 50
64.9470006365243648
 51
222.4117340378076051
  0
ARC
  5
1DEFD
  8
0
 10
4554.2005184071049371
 20
473.9975911972263134
 30
0.0
 40
0.0130452549126493
 50
79.7184979861612248
 51
232.9821138217475038
  0
ARC
  5
1DEFE
  8
0
 10
4554.2041153409818435
 20
474.0617098043492774
 30
0.0
 40
0.0166660537310258
 50
78.8458152542427086
 51
232.5254006136200928
  0
ARC
  5
1DEFF
  8
0
 10
4554.2077908472947456
 20
474.1357429319332937
 30
0.0
 40
0.0204160505358535
 50
92.5365205986189068
 51
228.2425282023475006
  0
ARC
  5
1DF00
  8
0
 10
4554.2106319420108775
 20
474.2223598142895753
 30
0.0
 40
0.0232942458288322
 50
100.0314762902247026
 51
227.1769127465263978
  0
ARC
  5
1DF01
  8
0
 10
4556.1362408302793483
 20
474.3216922767380197
 30
0.0
 40
0.0087178859737655
 50
94.0905773736712661
 51
265.9094226263288192
  0
ARC
  5
1DF02
  8
0
 10
4555.9594278303366082
 20
474.3216977493589184
 30
0.0
 40
0.0036364161897114
 50
105.5329323913882007
 51
257.2053073729592256
  0
ARC
  5
1DF03
  8
0
 10
4555.9037794959331222
 20
474.3216922767380197
 30
0.0
 40
0.014317221915675
 50
97.7516250343914805
 51
262.248374965608491
  0
ARC
  5
1DF04
  8
0
 10
4555.8157943582546068
 20
474.3216922767380197
 30
0.0
 40
0.0161002358667431
 50
93.8413626775273713
 51
266.1586373224726003
  0
ARC
  5
1DF05
  8
0
 10
4555.7030732950797756
 20
474.3216922767380197
 30
0.0
 40
0.025277109020684
 50
115.0944734454598972
 51
244.9055265545401028
  0
ARC
  5
1DF06
  8
0
 10
4555.6326223237319937
 20
474.3216922767380197
 30
0.0
 40
0.0345397391047415
 50
113.8846205964155018
 51
246.1153794035845124
  0
ARC
  5
1DF07
  8
0
 10
4555.4871759614798066
 20
474.3216922767380197
 30
0.0
 40
0.0271600288078023
 50
102.1284916454443987
 51
257.8715083545549192
  0
ARC
  5
1DF08
  8
0
 10
4555.3482720242946016
 20
474.3216922767380197
 30
0.0
 40
0.0384543283717305
 50
107.4284864412235976
 51
252.5715135587763882
  0
ARC
  5
1DF09
  8
0
 10
4555.1697784120306096
 20
474.3216922767380197
 30
0.0
 40
0.0266527606463791
 50
107.953455848811501
 51
252.0465441511873905
  0
ARC
  5
1DF0A
  8
0
 10
4555.0398940606401084
 20
474.3216922767380197
 30
0.0
 40
0.0286780327911822
 50
108.9343717521576025
 51
251.0656282480061066
  0
ARC
  5
1DF0B
  8
0
 10
4554.9305901514344441
 20
474.3216922767380197
 30
0.0
 40
0.0183538576102891
 50
109.0290233998203036
 51
250.9709766001807054
  0
ARC
  5
1DF0C
  8
0
 10
4554.8445681637949747
 20
474.3216922767380197
 30
0.0
 40
0.0274943388319249
 50
120.731506371626196
 51
239.2684936283737045
  0
ARC
  5
1DF0D
  8
0
 10
4554.7307931911100241
 20
474.3216922767380197
 30
0.0
 40
0.0137457634423093
 50
98.7724389527267164
 51
261.2275610472727863
  0
ARC
  5
1DF0E
  8
0
 10
4554.6615651968459133
 20
474.3216922767380197
 30
0.0
 40
0.0133207582620396
 50
108.9626180512783975
 51
251.037381948721702
  0
ARC
  5
1DF0F
  8
0
 10
4554.6134259405180273
 20
474.3216922767380197
 30
0.0
 40
0.0312798020669941
 50
110.423461577686993
 51
249.5765384223128933
  0
ARC
  5
1DF10
  8
0
 10
4554.5179157931934242
 20
474.3216922767380197
 30
0.0
 40
0.0208970538944353
 50
110.2793129533154968
 51
249.7206870466833095
  0
ARC
  5
1DF11
  8
0
 10
4554.4280377107315871
 20
474.3216922767380197
 30
0.0
 40
0.0173650007399702
 50
104.2773760565965944
 51
255.7226239434041872
  0
ARC
  5
1DF12
  8
0
 10
4554.3536096121933952
 20
474.3216922767380197
 30
0.0
 40
0.0174746488568218
 50
118.0806176544092949
 51
241.9193823455890993
  0
ARC
  5
1DF13
  8
0
 10
4554.2489323516138029
 20
474.3216922767380197
 30
0.0
 40
0.0260192689241007
 50
128.1079667683978016
 51
231.8920332316021984
  0
ARC
  5
1DF14
  8
0
 10
4554.2805173456126795
 20
474.3216922767380197
 30
0.0
 40
0.0935570665785616
 50
158.1515332183348903
 51
201.8484667816844933
  0
LINE
  5
1DF15
  8
0
 10
4560.4947538548176453
 20
472.7190714580378881
 30
0.0
 11
4562.3062205634978454
 21
472.7190714580378881
 31
0.0
  0
LINE
  5
1DF16
  8
0
 10
4560.4014562485581337
 20
472.6351507336379996
 30
0.0
 11
4562.3995181697591761
 21
472.6351507336379996
 31
0.0
  0
LINE
  5
1DF17
  8
0
 10
4560.2217509474294275
 20
472.4930714580380027
 30
0.0
 11
4562.5792234708887918
 21
472.4930714580380027
 31
0.0
  0
LINE
  5
1DF18
  8
0
 10
4560.0959011123577511
 20
472.3866188146379841
 30
0.0
 11
4562.7050733059577396
 21
472.3866188146379841
 31
0.0
  0
LINE
  5
1DF19
  8
0
 10
4560.1111289412883707
 20
472.0473155525378957
 30
0.0
 11
4562.6898454770298486
 21
472.0473155525378957
 31
0.0
  0
ARC
  5
1DF1A
  8
0
 10
4560.4947538548176453
 20
472.6964336624383236
 30
0.0
 40
0.0226377955996497
 50
90.0000001508590373
 51
134.999999570383693
  0
LINE
  5
1DF1B
  8
0
 10
4560.4787465161589353
 20
472.7124410013379929
 30
0.0
 11
4560.4014562485581337
 21
472.6351507336379996
 31
0.0
  0
ARC
  5
1DF1C
  8
0
 10
4560.4174635864283118
 20
472.6191433952632224
 30
0.0
 40
0.0226377946707058
 50
134.9999990977802042
 51
180.0000003168202909
  0
LINE
  5
1DF1D
  8
0
 10
4560.3948257917591036
 20
472.6191433951378826
 30
0.0
 11
4560.3948257917591036
 21
472.5157092533380023
 31
0.0
  0
ARC
  5
1DF1E
  8
0
 10
4560.3721879966287815
 20
472.5157092531671879
 30
0.0
 40
0.02263779512929
 50
269.9999998210536205
 51
0.0000004320620181
  0
ARC
  5
1DF1F
  8
0
 10
4560.2217509474294275
 20
472.4704336628967098
 30
0.0
 40
0.0226377951412649
 50
89.9999999250134266
 51
132.2736892208646111
  0
LINE
  5
1DF20
  8
0
 10
4560.2065231184578806
 20
472.4871842746379116
 30
0.0
 11
4560.0959011123577511
 21
472.3866188146379841
 31
0.0
  0
ARC
  5
1DF21
  8
0
 10
4560.1111289407490403
 20
472.3698682031139811
 30
0.0
 40
0.0226377945901738
 50
132.2736885042693018
 51
180.0000009517733872
  0
LINE
  5
1DF22
  8
0
 10
4560.0884911461589581
 20
472.3698682027380187
 30
0.0
 11
4560.0884911461589581
 21
472.069953347838009
 31
0.0
  0
ARC
  5
1DF23
  8
0
 10
4560.1111289412883707
 20
472.0699533476671945
 30
0.0
 40
0.0226377951292873
 50
179.9999995679314111
 51
270.0000001789463795
  0
LINE
  5
1DF24
  8
0
 10
4560.2654872091588913
 20
472.0473155525378957
 30
0.0
 11
4560.2654872091588913
 21
472.0170714580380036
 31
0.0
  0
ARC
  5
1DF25
  8
0
 10
4562.3062205634978454
 20
472.6964336624383236
 30
0.0
 40
0.0226377955996497
 50
45.0000004296162999
 51
89.9999998491409485
  0
LINE
  5
1DF26
  8
0
 10
4562.3222279021583745
 20
472.7124410013379929
 30
0.0
 11
4562.3995181697591761
 21
472.6351507336379996
 31
0.0
  0
ARC
  5
1DF27
  8
0
 10
4562.3835108318880884
 20
472.6191433952632224
 30
0.0
 40
0.0226377946707058
 50
359.9999996831796807
 51
45.0000009022198029
  0
LINE
  5
1DF28
  8
0
 10
4562.4061486265591157
 20
472.6191433951378826
 30
0.0
 11
4562.4061486265591157
 21
472.5157092533380023
 31
0.0
  0
ARC
  5
1DF29
  8
0
 10
4562.4287864216867092
 20
472.5157092531671879
 30
0.0
 40
0.02263779512929
 50
179.9999995679378912
 51
270.0000001789463795
  0
ARC
  5
1DF2A
  8
0
 10
4562.5792234708887918
 20
472.4704336628967098
 30
0.0
 40
0.0226377951412649
 50
47.7263107791353605
 51
90.0000000749344764
  0
LINE
  5
1DF2B
  8
0
 10
4562.5944512998576101
 20
472.4871842746379116
 30
0.0
 11
4562.7050733059577396
 21
472.3866188146379841
 31
0.0
  0
ARC
  5
1DF2C
  8
0
 10
4562.6898454775682694
 20
472.3698682031139811
 30
0.0
 40
0.0226377945901738
 50
359.9999990482265844
 51
47.7263114957306627
  0
LINE
  5
1DF2D
  8
0
 10
4562.7124832721583516
 20
472.3698682027380187
 30
0.0
 11
4562.7124832721583516
 21
472.069953347838009
 31
0.0
  0
ARC
  5
1DF2E
  8
0
 10
4562.6898454770298486
 20
472.0699533476671945
 30
0.0
 40
0.0226377951292873
 50
269.9999998210536205
 51
0.0000004320685319
  0
LINE
  5
1DF2F
  8
0
 10
4562.5354872091584184
 20
472.0473155525378957
 30
0.0
 11
4562.5354872091584184
 21
472.0170714580380036
 31
0.0
  0
ARC
  5
1DF30
  8
0
 10
4559.7283034035435776
 20
481.5139025713485808
 30
0.0
 40
1.7180682422966931
 50
334.3372519096516271
 51
342.904532735701423
  0
ARC
  5
1DF31
  8
0
 10
4559.3421038990281886
 20
481.7634065289411751
 30
0.0
 40
2.2050045561999601
 50
333.2190880348528026
 51
338.987982679676179
  0
ARC
  5
1DF32
  8
0
 10
4562.5616561804235971
 20
480.2471978930987007
 30
0.0
 40
1.310995702840992
 50
152.3396770761204095
 51
156.5039518563579009
  0
ARC
  5
1DF33
  8
0
 10
4558.5849412354291417
 20
482.0826651557688933
 30
0.0
 40
2.9527543058590502
 50
333.602434148775103
 51
338.6137125125110856
  0
ARC
  5
1DF34
  8
0
 10
4552.8446203232615517
 20
484.6881070613856082
 30
0.0
 40
9.2198180758702701
 50
334.85058967984628
 51
336.4607952690515731
  0
ARC
  5
1DF35
  8
0
 10
4639.4738825325475773
 20
445.5686079198242737
 30
0.0
 40
85.8670141168034036
 50
155.6254269377365063
 51
155.7982401799085892
  0
ARC
  5
1DF36
  8
0
 10
4565.0664889219096949
 20
479.0859187360181863
 30
0.0
 40
4.2931717789465651
 50
153.4341282762923129
 51
156.9060410796529084
  0
ARC
  5
1DF37
  8
0
 10
4565.7526119517251573
 20
478.8187392513501095
 30
0.0
 40
5.0652590899584959
 50
154.4179417815981878
 51
157.3438095977072919
  0
ARC
  5
1DF38
  8
0
 10
4563.6910143365676049
 20
479.6086392810514099
 30
0.0
 40
2.8936021394673159
 50
151.1258262850699055
 51
156.3398972804355935
  0
ARC
  5
1DF39
  8
0
 10
4562.5263523218627597
 20
480.1260753636377103
 30
0.0
 40
1.6583791339834231
 50
147.9570244598563988
 51
157.1567479752469865
  0
ARC
  5
1DF3A
  8
0
 10
4561.849095562815819
 20
480.4589357957984816
 30
0.0
 40
0.9371728653694525
 50
144.2910966574686995
 51
160.6232417561487011
  0
ARC
  5
1DF3B
  8
0
 10
4561.8970100476581138
 20
480.4179205118924187
 30
0.0
 40
1.024676888126735
 50
144.9828436938070126
 51
159.9110491286207036
  0
ARC
  5
1DF3C
  8
0
 10
4561.8573893605644116
 20
480.4760207122549787
 30
0.0
 40
0.9890535781645047
 50
147.6059848934166041
 51
162.7396384019648963
  0
ARC
  5
1DF3D
  8
0
 10
4561.7869718106230721
 20
480.4946879239586792
 30
0.0
 40
0.9424524655584473
 50
147.1520598115465077
 51
163.0223392363959078
  0
ARC
  5
1DF3E
  8
0
 10
4561.7833632806768946
 20
480.5096665737328863
 30
0.0
 40
0.9528703241023885
 50
148.6173164399756956
 51
164.1290180095899984
  0
ARC
  5
1DF3F
  8
0
 10
4561.6764613946343161
 20
480.5613899345386244
 30
0.0
 40
0.857414846991206
 50
148.7740840927228021
 51
165.9270542093007919
  0
ARC
  5
1DF40
  8
0
 10
4561.7017196822962433
 20
480.5890487997482978
 30
0.0
 40
0.8898273600538077
 50
152.0666120083598969
 51
168.275240522261214
  0
ARC
  5
1DF41
  8
0
 10
4561.6135563255957095
 20
480.6351516543383013
 30
0.0
 40
0.810637147834703
 50
152.7849199212259066
 51
170.4332182105376035
  0
ARC
  5
1DF42
  8
0
 10
4561.6980908499781435
 20
480.6365511166538909
 30
0.0
 40
0.9063068327824856
 50
155.9514851874538977
 51
171.5407766008817134
  0
ARC
  5
1DF43
  8
0
 10
4561.6327109542153266
 20
480.6765553584646113
 30
0.0
 40
0.8481436759836219
 50
157.1522607567495129
 51
173.6829751233869956
  0
ARC
  5
1DF44
  8
0
 10
4561.685802079385212
 20
480.6948888667985216
 30
0.0
 40
0.9075759001905126
 50
159.9613130089994115
 51
175.2607524978145079
  0
ARC
  5
1DF45
  8
0
 10
4561.7176973443365569
 20
480.7191849419252776
 30
0.0
 40
0.9445930550986124
 50
162.353799417850496
 51
176.9236879194712913
  0
ARC
  5
1DF46
  8
0
 10
4561.75512797261581
 20
480.7485796694322744
 30
0.0
 40
0.9847325687655443
 50
164.8550602719942901
 51
178.7608426092853051
  0
ARC
  5
1DF47
  8
0
 10
4561.9149718557982851
 20
480.7722772514551934
 30
0.0
 40
1.147127273765987
 50
168.2497239015592072
 51
180.1198613997692064
  0
ARC
  5
1DF48
  8
0
 10
4562.6797861491431831
 20
480.7642582899933927
 30
0.0
 40
1.913070420474116
 50
172.7441150126173
 51
179.8319482075727933
  0
ARC
  5
1DF49
  8
0
 10
4562.0299433591144407
 20
480.8510806738970018
 30
0.0
 40
1.263945125340151
 50
172.9649657311163935
 51
178.4062102809216981
  0
ARC
  5
1DF4A
  8
0
 10
4562.542319473972384
 20
480.873268993851525
 30
0.0
 40
1.7771715447339329
 50
175.7206347940534101
 51
177.7754820668195919
  0
ARC
  5
1DF4B
  8
0
 10
4560.7728081106688478
 20
481.0060965901889176
 30
0.0
 40
0.0027141465727362
 50
355.505552887630472
 51
184.560006911941997
  0
ARC
  5
1DF4C
  8
0
 10
4560.7869594446856354
 20
481.0058422933337283
 30
0.0
 40
0.0049239641381596
 50
0.5047448792589561
 51
179.5527569361321127
  0
ARC
  5
1DF4D
  8
0
 10
4560.8110609517580087
 20
481.0051744658130133
 30
0.0
 40
0.0064992959688261
 50
3.1126171620649048
 51
174.011164363533112
  0
ARC
  5
1DF4E
  8
0
 10
4560.8421411721647019
 20
481.0049262120750768
 30
0.0
 40
0.0090215939956646
 50
6.0407081153789353
 51
173.970225965753599
  0
ARC
  5
1DF4F
  8
0
 10
4560.8815557163743506
 20
481.0012335941855213
 30
0.0
 40
0.0120378888988167
 50
22.7148418977150186
 51
157.2940249764048986
  0
ARC
  5
1DF50
  8
0
 10
4560.9294122836527094
 20
481.0016020688419189
 30
0.0
 40
0.0144954599287052
 50
17.1883150695405504
 51
162.8196704602727891
  0
ARC
  5
1DF51
  8
0
 10
4560.9825488201067856
 20
481.0026720739052735
 30
0.0
 40
0.0130577750166633
 50
14.2433692185077803
 51
165.7994773272490932
  0
ARC
  5
1DF52
  8
0
 10
4561.0400360618696141
 20
480.9969028017490018
 30
0.0
 40
0.0199312995960366
 50
26.841750372491429
 51
153.1822487650603932
  0
ARC
  5
1DF53
  8
0
 10
4561.1043732096586609
 20
480.9982240749711195
 30
0.0
 40
0.0179906372743433
 50
25.3864463100129498
 51
154.6276707620338016
  0
ARC
  5
1DF54
  8
0
 10
4561.1705268459390936
 20
481.0008888092692132
 30
0.0
 40
0.0143042144391213
 50
20.6570958847410289
 51
159.3889616728027931
  0
ARC
  5
1DF55
  8
0
 10
4561.2435255437967498
 20
480.9993989624414894
 30
0.0
 40
0.0181572385817994
 50
21.1336911214566108
 51
158.8898345975244979
  0
ARC
  5
1DF56
  8
0
 10
4561.3158043831617761
 20
481.0005787591867943
 30
0.0
 40
0.0193296532646276
 50
16.0768385991948293
 51
163.9325170135799965
  0
ARC
  5
1DF57
  8
0
 10
4560.7672856950102869
 20
480.7698497596252878
 30
0.0
 40
0.0005620816210845
 50
177.9948265933201981
 51
2.8278837157032761
  0
ARC
  5
1DF58
  8
0
 10
4560.7725454590690788
 20
480.7701134189185268
 30
0.0
 40
0.0019344877562713
 50
187.0738022185886962
 51
352.9937594795237032
  0
ARC
  5
1DF59
  8
0
 10
4560.7855230765626402
 20
480.7697946069524733
 30
0.0
 40
0.0041946671088905
 50
178.9173707462790048
 51
1.1160949804749261
  0
ARC
  5
1DF5A
  8
0
 10
4560.807918323006561
 20
480.7704872302256263
 30
0.0
 40
0.0063043299148049
 50
185.58351160594421
 51
354.4469197339599873
  0
ARC
  5
1DF5B
  8
0
 10
4560.8376189280370454
 20
480.7709766051157203
 30
0.0
 40
0.0072452883006062
 50
188.7774055683283052
 51
351.2656107706523017
  0
ARC
  5
1DF5C
  8
0
 10
4560.876236387031895
 20
480.7716947977921791
 30
0.0
 40
0.0095301036910603
 50
188.7197304514197924
 51
349.0402295555622914
  0
ARC
  5
1DF5D
  8
0
 10
4560.9237431492447286
 20
480.7714843488204792
 30
0.0
 40
0.0110486573442262
 50
190.4148806237502072
 51
351.624935113425181
  0
ARC
  5
1DF5E
  8
0
 10
4560.9815215081125643
 20
480.7764032629855819
 30
0.0
 40
0.0177603029219929
 50
201.5849584566647934
 51
338.4407940019319199
  0
ARC
  5
1DF5F
  8
0
 10
4561.0594303775596927
 20
480.781265503827683
 30
0.0
 40
0.0219737298766079
 50
211.2352656041286991
 51
328.7916293622993749
  0
ARC
  5
1DF60
  8
0
 10
4561.1356438911861915
 20
480.7813576001865954
 30
0.0
 40
0.0215918814758971
 50
212.133542654439708
 51
327.8897728589540748
  0
ARC
  5
1DF61
  8
0
 10
4561.2101159924295644
 20
480.7792688131902992
 30
0.0
 40
0.0218213066765067
 50
205.5220896453533896
 51
334.5133248759605067
  0
ARC
  5
1DF62
  8
0
 10
4561.2937426370226603
 20
480.7735806011526734
 30
0.0
 40
0.0172508040828623
 50
192.477829357632487
 51
347.5965916357931178
  0
ARC
  5
1DF63
  8
0
 10
4561.3792825069485843
 20
480.7777264295302189
 30
0.0
 40
0.0214160103827966
 50
201.5119371117858975
 51
338.4993095578199132
  0
ARC
  5
1DF64
  8
0
 10
4563.0726710147719132
 20
481.5139025713485808
 30
0.0
 40
1.7180682422966931
 50
197.0954672642984917
 51
205.6627480903484013
  0
ARC
  5
1DF65
  8
0
 10
4563.4588705192891211
 20
481.7634065289411751
 30
0.0
 40
2.2050045561999601
 50
201.0120173203237925
 51
206.7809119651471974
  0
ARC
  5
1DF66
  8
0
 10
4560.2393182378928032
 20
480.2471978930987007
 30
0.0
 40
1.310995702840992
 50
23.4960481436421382
 51
27.6603229238795798
  0
ARC
  5
1DF67
  8
0
 10
4564.2160331828872586
 20
482.0826651557688933
 30
0.0
 40
2.9527543058590502
 50
201.386287487488886
 51
206.397565851224897
  0
ARC
  5
1DF68
  8
0
 10
4569.9563540950539391
 20
484.6881070613856082
 30
0.0
 40
9.2198180758702701
 50
203.5392047309483985
 51
205.1494103201536063
  0
ARC
  5
1DF69
  8
0
 10
4483.3270918857697325
 20
445.5686079198242737
 30
0.0
 40
85.8670141168034036
 50
24.2017598200914286
 51
24.3745730622634689
  0
ARC
  5
1DF6A
  8
0
 10
4557.7344854964057959
 20
479.0859187360181863
 30
0.0
 40
4.2931717789465651
 50
23.0939589203470916
 51
26.5658717237077013
  0
ARC
  5
1DF6B
  8
0
 10
4557.0483624665921525
 20
478.8187392513501095
 30
0.0
 40
5.0652590899584959
 50
22.6561904022926299
 51
25.5820582184017908
  0
ARC
  5
1DF6C
  8
0
 10
4559.1099600817478859
 20
479.6086392810514099
 30
0.0
 40
2.8936021394673159
 50
23.6601027195643816
 51
28.8741737149300697
  0
ARC
  5
1DF6D
  8
0
 10
4560.2746220964536406
 20
480.1260753636377103
 30
0.0
 40
1.6583791339834231
 50
22.8432520247530384
 51
32.042975540143587
  0
ARC
  5
1DF6E
  8
0
 10
4560.9518788555005813
 20
480.4589357957984816
 30
0.0
 40
0.9371728653694525
 50
19.3767582438513202
 51
35.7089033425313218
  0
ARC
  5
1DF6F
  8
0
 10
4560.9039643706582865
 20
480.4179205118924187
 30
0.0
 40
1.024676888126735
 50
20.0889508713793212
 51
35.0171563061929874
  0
ARC
  5
1DF70
  8
0
 10
4560.9435850577528981
 20
480.4760207122549787
 30
0.0
 40
0.9890535781645047
 50
17.2603615980351606
 51
32.394015106583403
  0
ARC
  5
1DF71
  8
0
 10
4561.0140026076942377
 20
480.4946879239586792
 30
0.0
 40
0.9424524655584473
 50
16.9776607636041206
 51
32.8479401884534497
  0
ARC
  5
1DF72
  8
0
 10
4561.0176111376385961
 20
480.5096665737328863
 30
0.0
 40
0.9528703241023885
 50
15.8709819904099199
 51
31.3826835600242902
  0
ARC
  5
1DF73
  8
0
 10
4561.1245130236829937
 20
480.5613899345386244
 30
0.0
 40
0.857414846991206
 50
14.0729457906991602
 51
31.2259159072771517
  0
ARC
  5
1DF74
  8
0
 10
4561.099254736021976
 20
480.5890487997482978
 30
0.0
 40
0.8898273600538077
 50
11.7247594777388393
 51
27.9333879916400996
  0
ARC
  5
1DF75
  8
0
 10
4561.1874180927206908
 20
480.6351516543383013
 30
0.0
 40
0.810637147834703
 50
9.5667817894623433
 51
27.2150800787741005
  0
ARC
  5
1DF76
  8
0
 10
4561.1028835683391662
 20
480.6365511166538909
 30
0.0
 40
0.9063068327824856
 50
8.4592233991182493
 51
24.048514812546081
  0
ARC
  5
1DF77
  8
0
 10
4561.1682634641019831
 20
480.6765553584646113
 30
0.0
 40
0.8481436759836219
 50
6.3170248766130159
 51
22.8477392432504409
  0
ARC
  5
1DF78
  8
0
 10
4561.1151723389320978
 20
480.6948888667985216
 30
0.0
 40
0.9075759001905126
 50
4.7392475021855054
 51
20.0386869910005601
  0
ARC
  5
1DF79
  8
0
 10
4561.0832770739789339
 20
480.7191849419252776
 30
0.0
 40
0.9445930550986124
 50
3.0763120805287132
 51
17.6462005821494792
  0
ARC
  5
1DF7A
  8
0
 10
4561.0458464457005903
 20
480.7485796694322744
 30
0.0
 40
0.9847325687655443
 50
1.239157390714732
 51
15.1449397280056708
  0
ARC
  5
1DF7B
  8
0
 10
4560.8860025625190247
 20
480.7722772514551934
 30
0.0
 40
1.147127273765987
 50
359.8801386002306799
 51
11.7502760984407395
  0
ARC
  5
1DF7C
  8
0
 10
4560.1211882691741266
 20
480.7642582899933927
 30
0.0
 40
1.913070420474116
 50
0.1680517924271929
 51
7.25588498738274
  0
ARC
  5
1DF7D
  8
0
 10
4560.7710310592028691
 20
480.8510806738970018
 30
0.0
 40
1.263945125340151
 50
1.5937897190782531
 51
7.0350342688836269
  0
ARC
  5
1DF7E
  8
0
 10
4560.2586549443458352
 20
480.873268993851525
 30
0.0
 40
1.7771715447339329
 50
2.224517933180417
 51
4.279365205946589
  0
ARC
  5
1DF7F
  8
0
 10
4562.0281663076502809
 20
481.0060965901889176
 30
0.0
 40
0.0027141465727362
 50
355.4399930880579177
 51
184.4944471123694996
  0
ARC
  5
1DF80
  8
0
 10
4562.0140149736307649
 20
481.0058422933337283
 30
0.0
 40
0.0049239641381596
 50
0.4472430638678434
 51
179.4952551207410067
  0
ARC
  5
1DF81
  8
0
 10
4561.989913466559301
 20
481.0051744658130133
 30
0.0
 40
0.0064992959688261
 50
5.9888356364668613
 51
176.8873828379350925
  0
ARC
  5
1DF82
  8
0
 10
4561.9588332461507889
 20
481.0049262120750768
 30
0.0
 40
0.0090215939956646
 50
6.0297740342463841
 51
173.9592918846211091
  0
ARC
  5
1DF83
  8
0
 10
4561.9194187019420497
 20
481.0012335941855213
 30
0.0
 40
0.0120378888988167
 50
22.7059750235951086
 51
157.2851581022850098
  0
ARC
  5
1DF84
  8
0
 10
4561.8715621346646003
 20
481.0016020688419189
 30
0.0
 40
0.0144954599287052
 50
17.1803295397272109
 51
162.8116849304593927
  0
ARC
  5
1DF85
  8
0
 10
4561.8184255982087052
 20
481.0026720739052735
 30
0.0
 40
0.0130577750166633
 50
14.2005226727508997
 51
165.7566307814921913
  0
ARC
  5
1DF86
  8
0
 10
4561.7609383564476957
 20
480.9969028017490018
 30
0.0
 40
0.0199312995960366
 50
26.8177512349395606
 51
153.1582496275084964
  0
ARC
  5
1DF87
  8
0
 10
4561.6966012086577393
 20
480.9982240749711195
 30
0.0
 40
0.0179906372743433
 50
25.3723292379662304
 51
154.6135536899869862
  0
ARC
  5
1DF88
  8
0
 10
4561.6304475723782161
 20
481.0008888092692132
 30
0.0
 40
0.0143042144391213
 50
20.6110383271971713
 51
159.3429041152589036
  0
ARC
  5
1DF89
  8
0
 10
4561.5574488745196504
 20
480.9993989624414894
 30
0.0
 40
0.0181572385817994
 50
21.1101654024754488
 51
158.866308878543407
  0
ARC
  5
1DF8A
  8
0
 10
4561.4851700351564432
 20
481.0005787591867943
 30
0.0
 40
0.0193296532646276
 50
16.0674829864200213
 51
163.9231614008050997
  0
ARC
  5
1DF8B
  8
0
 10
4562.0336887233079324
 20
480.7698497596252878
 30
0.0
 40
0.0005620816210845
 50
177.1721162842966919
 51
2.0051734066797988
  0
ARC
  5
1DF8C
  8
0
 10
4562.0284289592473215
 20
480.7701134189185268
 30
0.0
 40
0.0019344877562713
 50
187.0062405204762968
 51
352.9261977814111901
  0
ARC
  5
1DF8D
  8
0
 10
4562.0154513417537601
 20
480.7697946069524733
 30
0.0
 40
0.0041946671088905
 50
178.8839050195250877
 51
1.0826292537209381
  0
ARC
  5
1DF8E
  8
0
 10
4561.9930560953089298
 20
480.7704872302256263
 30
0.0
 40
0.0063043299148049
 50
185.553080266039899
 51
354.4164883940557047
  0
ARC
  5
1DF8F
  8
0
 10
4561.9633554902802643
 20
480.7709766051157203
 30
0.0
 40
0.0072452883006062
 50
188.7343892293476983
 51
351.2225944316717232
  0
ARC
  5
1DF90
  8
0
 10
4561.9247380312863243
 20
480.7716947977921791
 30
0.0
 40
0.0095301036910603
 50
190.9597704444377086
 51
351.2802695485801792
  0
ARC
  5
1DF91
  8
0
 10
4561.8772312690725812
 20
480.7714843488204792
 30
0.0
 40
0.0110486573442262
 50
188.3750648865747053
 51
349.5851193762497928
  0
ARC
  5
1DF92
  8
0
 10
4561.8194529102020169
 20
480.7764032629855819
 30
0.0
 40
0.0177603029219929
 50
201.5592059980679949
 51
338.4150415433351782
  0
ARC
  5
1DF93
  8
0
 10
4561.7415440407567075
 20
480.781265503827683
 30
0.0
 40
0.0219737298766079
 50
211.2083706377005967
 51
328.7647343958713009
  0
ARC
  5
1DF94
  8
0
 10
4561.6653305271302088
 20
480.7813576001865954
 30
0.0
 40
0.0215918814758971
 50
212.1102271410458968
 51
327.8664573455603204
  0
ARC
  5
1DF95
  8
0
 10
4561.5908584258859264
 20
480.7792688131902992
 30
0.0
 40
0.0218213066765067
 50
205.4866751240394933
 51
334.4779103546466104
  0
ARC
  5
1DF96
  8
0
 10
4561.5072317812937399
 20
480.7735806011526734
 30
0.0
 40
0.0172508040828623
 50
192.4034083642067969
 51
347.5221706423674846
  0
ARC
  5
1DF97
  8
0
 10
4561.4216919113687254
 20
480.7777264295302189
 30
0.0
 40
0.0214160103827966
 50
201.5006904421802005
 51
338.4880628882111182
  0
ARC
  5
1DF98
  8
0
 10
4561.4004872091591096
 20
480.9856314422206083
 30
0.0
 40
0.0379569253361875
 50
37.7152822762638777
 51
142.2847177237387086
  0
ARC
  5
1DF99
  8
0
 10
4561.4004872091591096
 20
480.768958098858775
 30
0.0
 40
0.0015749566756714
 50
35.7019869170807027
 51
144.2980130829193115
  0
ARC
  5
1DF9A
  8
0
 10
4561.9032029380023232
 20
481.1426047140582796
 30
0.0
 40
0.0199999997795661
 50
44.9999996422777429
 51
90.0000001255856006
  0
LINE
  5
1DF9B
  8
0
 10
4561.9173450735588631
 20
481.1567468494379796
 30
0.0
 11
4562.0286293448589277
 21
481.045462578137915
 31
0.0
  0
ARC
  5
1DF9C
  8
0
 10
4562.014487208914943
 20
481.0313204424894025
 30
0.0
 40
0.020000000244022
 50
0.000000139049576
 51
44.9999994014379965
  0
ARC
  5
1DF9D
  8
0
 10
4562.014487208914943
 20
480.7431732883864015
 30
0.0
 40
0.0200000002440133
 50
315.0000005985551184
 51
359.9999998609570184
  0
LINE
  5
1DF9E
  8
0
 10
4562.0286293448589277
 20
480.729031152737889
 30
0.0
 11
4561.9173450735588631
 21
480.6177468814379949
 31
0.0
  0
ARC
  5
1DF9F
  8
0
 10
4561.9032029379095547
 20
480.6318890173819796
 30
0.0
 40
0.0200000002439994
 50
270.0000001390300213
 51
314.9999994014632989
  0
LINE
  5
1DFA0
  8
0
 10
4561.7404872091583456
 20
480.6118890171379121
 30
0.0
 11
4561.7404872091583456
 21
480.5238890171380035
 31
0.0
  0
ARC
  5
1DFA1
  8
0
 10
4561.8013810665606798
 20
480.5006606696119889
 30
0.0
 40
0.0232283477533933
 50
45.000000396842772
 51
89.9919819629919715
  0
LINE
  5
1DFA2
  8
0
 10
4561.8178059886586198
 20
480.5170855919379846
 30
0.0
 11
4561.8691991383584536
 21
480.4656924422379802
 31
0.0
  0
ARC
  5
1DFA3
  8
0
 10
4561.8527742172991566
 20
480.4492675209858135
 30
0.0
 40
0.0232283462593882
 50
359.9999998819411076
 51
45.0000003361872132
  0
LINE
  5
1DFA4
  8
0
 10
4561.8760025635583588
 20
480.4492675209378945
 30
0.0
 11
4561.8760025635583588
 21
480.3560275997378994
 31
0.0
  0
ARC
  5
1DFA5
  8
0
 10
4561.8992309098875921
 20
480.3560275995671986
 30
0.0
 40
0.0232283463292893
 50
179.9999995789137017
 51
270.0000001744128895
  0
ARC
  5
1DFA6
  8
0
 10
4561.9726668932180473
 20
480.309570905600026
 30
0.0
 40
0.0232283480034701
 50
45.0000005195333586
 51
89.991336801352503
  0
LINE
  5
1DFA7
  8
0
 10
4561.9890918154578685
 20
480.3259958281379909
 30
0.0
 11
4562.0404849651577024
 21
480.2746026784379865
 31
0.0
  0
ARC
  5
1DFA8
  8
0
 10
4562.0240600446550161
 20
480.2581777575579167
 30
0.0
 40
0.0232283456025576
 50
359.9999989641891034
 51
45.0000006584552779
  0
LINE
  5
1DFA9
  8
0
 10
4560.7536860280588371
 20
480.2581777575579167
 30
0.0
 11
4560.7536860280588371
 21
472.7190714580378881
 31
0.0
  0
LINE
  5
1DFAA
  8
0
 10
4562.0472883902575632
 20
480.2581777575579167
 30
0.0
 11
4562.0472883902575632
 21
472.7190714580378881
 31
0.0
  0
LINE
  5
1DFAB
  8
0
 10
4560.7664872091590951
 20
481.0313204424894025
 30
0.0
 11
4560.7664872091590951
 21
480.7431732883864015
 31
0.0
  0
LINE
  5
1DFAC
  8
0
 10
4562.0344872091591242
 20
480.7431732883864015
 30
0.0
 11
4562.0344872091591242
 21
481.0313204424894025
 31
0.0
  0
LINE
  5
1DFAE
  8
0
 10
4566.5354872091584184
 20
472.0170714580380036
 30
0.0
 11
4564.2654872091588913
 21
472.0170714580380036
 31
0.0
  0
LINE
  5
1DFAF
  8
0
 10
4566.6898454770289391
 20
472.0473155525378957
 30
0.0
 11
4564.1111289412883707
 21
472.0473155525378957
 31
0.0
  0
LINE
  5
1DFB0
  8
0
 10
4566.3995181697591761
 20
472.6351507336379996
 30
0.0
 11
4564.4014562485590432
 21
472.6351507336379996
 31
0.0
  0
LINE
  5
1DFB1
  8
0
 10
4566.3062205634978454
 20
472.7190714580378881
 30
0.0
 11
4564.4947538548185548
 21
472.7190714580378881
 31
0.0
  0
LINE
  5
1DFB2
  8
0
 10
4568.7263512377576262
 20
474.6961933381127778
 30
0.0
 11
4568.7263512377576262
 21
473.9474630189379809
 31
0.0
  0
LINE
  5
1DFB3
  8
0
 10
4568.6412091021593369
 20
473.8540399081045962
 30
0.0
 11
4568.6412091021593369
 21
474.7893241794711798
 31
0.0
  0
LINE
  5
1DFB4
  8
0
 10
4565.0663592594301008
 20
474.7951922767379074
 30
0.0
 11
4566.4337769729590946
 21
474.7951922767379074
 31
0.0
  0
LINE
  5
1DFB5
  8
0
 10
4566.457376972957718
 20
474.7951922767379074
 30
0.0
 11
4568.6270697898589788
 21
474.7951922767379074
 31
0.0
  0
LINE
  5
1DFB6
  8
0
 10
4568.627783506911328
 20
473.8481922767380183
 30
0.0
 11
4566.457376972957718
 21
473.8481922767380183
 31
0.0
  0
LINE
  5
1DFB7
  8
0
 10
4566.4337769729590946
 20
473.8481922767380183
 30
0.0
 11
4566.0133592594302172
 21
473.8481922767380183
 31
0.0
  0
LINE
  5
1DFB8
  8
0
 10
4565.8739872091591678
 20
472.7626714580558769
 30
0.0
 11
4565.8739872091591678
 21
473.7088202264666847
 31
0.0
  0
LINE
  5
1DFB9
  8
0
 10
4564.9269872091590514
 20
474.6558202264665738
 30
0.0
 11
4564.9269872091590514
 21
472.7626714580558769
 31
0.0
  0
ARC
  5
1DFBA
  8
0
 10
4566.3062205634978454
 20
472.6964336624383236
 30
0.0
 40
0.0226377955996418
 50
45.0000004295748397
 51
89.9999998491409485
  0
LINE
  5
1DFBB
  8
0
 10
4566.3222279021583745
 20
472.7124410013379929
 30
0.0
 11
4566.3995181697591761
 21
472.6351507336379996
 31
0.0
  0
ARC
  5
1DFBC
  8
0
 10
4566.3835108318880884
 20
472.6191433952632224
 30
0.0
 40
0.0226377946707132
 50
359.9999996831895146
 51
45.000000902180652
  0
LINE
  5
1DFBD
  8
0
 10
4566.4061486265591157
 20
472.6191433951378826
 30
0.0
 11
4566.4061486265591157
 21
472.5153033875379265
 31
0.0
  0
ARC
  5
1DFBE
  8
0
 10
4566.4287864222051212
 20
472.5153033875811275
 30
0.0
 40
0.0226377956461389
 50
180.0000001091545982
 51
270.0712487050085997
  0
LINE
  5
1DFBF
  8
0
 10
4566.4288145728505697
 20
472.4926656094378927
 30
0.0
 11
4564.3721598454667401
 21
472.4926656094378927
 31
0.0
  0
ARC
  5
1DFC0
  8
0
 10
4566.5792132454425882
 20
472.469842167818399
 30
0.0
 40
0.0226377947491361
 50
47.7293087627530497
 51
89.9293099574424843
  0
LINE
  5
1DFC1
  8
0
 10
4566.5944401976594236
 20
472.4865935760378761
 30
0.0
 11
4566.7050724293585517
 21
472.3860293925379779
 31
0.0
  0
ARC
  5
1DFC2
  8
0
 10
4566.6898454778593077
 20
472.3692779842754135
 30
0.0
 40
0.0226377942994633
 50
359.9999988927589811
 51
47.7293101765947583
  0
LINE
  5
1DFC3
  8
0
 10
4566.7050724293585517
 20
472.3860293925379779
 30
0.0
 11
4564.095901988958758
 21
472.3860293925379779
 31
0.0
  0
LINE
  5
1DFC4
  8
0
 10
4566.7124832721583516
 20
472.3692779838380034
 30
0.0
 11
4566.7124832721583516
 21
472.069953347838009
 31
0.0
  0
ARC
  5
1DFC5
  8
0
 10
4566.6898454770289391
 20
472.0699533476671945
 30
0.0
 40
0.0226377951292892
 50
269.9999998210536205
 51
0.000000432065275
  0
LINE
  5
1DFC6
  8
0
 10
4566.5354872091584184
 20
472.0473155525378957
 30
0.0
 11
4566.5354872091584184
 21
472.0170714580380036
 31
0.0
  0
ARC
  5
1DFC7
  8
0
 10
4568.6270213398129272
 20
474.7751069911864761
 30
0.0
 40
0.0200853439873064
 50
45.059355200161427
 51
89.861790477325826
  0
LINE
  5
1DFC8
  8
0
 10
4568.6412091021593369
 20
474.7893241794711798
 30
0.0
 11
4568.7204956890591347
 21
474.7100366470378958
 31
0.0
  0
ARC
  5
1DFC9
  8
0
 10
4568.7063534688113577
 20
474.695894595687605
 30
0.0
 40
0.020000000248699
 50
0.8558658241048021
 51
44.9996578613247777
  0
LINE
  5
1DFCA
  8
0
 10
4566.457376972957718
 20
474.7951922767379074
 30
0.0
 11
4566.457376972957718
 21
473.8481922767380183
 31
0.0
  0
ARC
  5
1DFCB
  8
0
 10
4566.0133592593956564
 20
473.7088202265002792
 30
0.0
 40
0.139372050237621
 50
89.9999999861386897
 51
180.0000000138417136
  0
ARC
  5
1DFCC
  8
0
 10
4565.0663592593964495
 20
474.6558202265002819
 30
0.0
 40
0.1393720502376206
 50
89.9999999861386897
 51
180.0000000138385019
  0
ARC
  5
1DFCD
  8
0
 10
4566.4337769729590946
 20
474.7715922767379766
 30
0.0
 40
0.0235999999999978
 50
0.0
 51
90.0
  0
ARC
  5
1DFCE
  8
0
 10
4566.4337769729590946
 20
473.871792276738006
 30
0.0
 40
0.0236000000000003
 50
270.0
 51
0.0
  0
LINE
  5
1DFCF
  8
0
 10
4565.8503872091150697
 20
472.7390714580379267
 30
0.0
 11
4564.95058720920224
 21
472.7390714580379267
 31
0.0
  0
ARC
  5
1DFD0
  8
0
 10
4565.8503872091587255
 20
472.7626714580379144
 30
0.0
 40
0.0235999999999972
 50
269.9999998944247181
 51
0.0000000000065138
  0
ARC
  5
1DFD1
  8
0
 10
4565.8064872091590587
 20
472.7550714580380031
 30
0.0
 40
0.0359999999999982
 50
206.3877999612288932
 51
270.0
  0
ARC
  5
1DFD2
  8
0
 10
4564.4947538548185548
 20
472.6964336624383236
 30
0.0
 40
0.0226377955996418
 50
90.0000001508590373
 51
134.9999995704251035
  0
LINE
  5
1DFD3
  8
0
 10
4564.4787465161589353
 20
472.7124410013379929
 30
0.0
 11
4564.4014562485590432
 21
472.6351507336379996
 31
0.0
  0
ARC
  5
1DFD4
  8
0
 10
4564.4174635864292213
 20
472.6191433952632224
 30
0.0
 40
0.0226377946707132
 50
134.9999990978193125
 51
180.0000003168105138
  0
LINE
  5
1DFD5
  8
0
 10
4564.3948257917591036
 20
472.6191433951378826
 30
0.0
 11
4564.3948257917591036
 21
472.5153033875379265
 31
0.0
  0
ARC
  5
1DFD6
  8
0
 10
4564.3721879961121886
 20
472.5153033875811275
 30
0.0
 40
0.0226377956461388
 50
269.9287512948350241
 51
359.9999998908454018
  0
ARC
  5
1DFD7
  8
0
 10
4564.2217600464127827
 20
472.4698450753641055
 30
0.0
 40
0.022634885568848
 50
90.0672576627697055
 51
132.2735317678123863
  0
LINE
  5
1DFD8
  8
0
 10
4564.2065342206578862
 20
472.4865935760378761
 30
0.0
 11
4564.095901988958758
 21
472.3860293925379779
 31
0.0
  0
ARC
  5
1DFD9
  8
0
 10
4564.111128940458002
 20
472.3692779842754135
 30
0.0
 40
0.0226377942994633
 50
132.2706898234052062
 51
180.0000011072409052
  0
LINE
  5
1DFDA
  8
0
 10
4564.0884911461589581
 20
472.3692779838380034
 30
0.0
 11
4564.0884911461589581
 21
472.069953347838009
 31
0.0
  0
ARC
  5
1DFDB
  8
0
 10
4564.1111289412883707
 20
472.0699533476671945
 30
0.0
 40
0.0226377951292892
 50
179.999999567934708
 51
270.0000001789463795
  0
LINE
  5
1DFDC
  8
0
 10
4564.2654872091588913
 20
472.0473155525378957
 30
0.0
 11
4564.2654872091588913
 21
472.0170714580380036
 31
0.0
  0
ARC
  5
1DFDD
  8
0
 10
4564.9505872091585843
 20
472.7626714580379144
 30
0.0
 40
0.0235999999999974
 50
179.9999999999934914
 51
270.0000001055752819
  0
ARC
  5
1DFDE
  8
0
 10
4564.9944872091591606
 20
472.7550714580380031
 30
0.0
 40
0.0359999999999982
 50
270.0
 51
333.6122000387711068
  0
ARC
  5
1DFDF
  8
0
 10
4568.7063365727690325
 20
473.9474714461555891
 30
0.0
 40
0.0200146667641687
 50
315.0080100138338253
 51
359.9758754905089972
  0
LINE
  5
1DFE0
  8
0
 10
4568.7204910577584087
 20
473.933320918237996
 30
0.0
 11
4568.6412091021593369
 21
473.8540399081045962
 31
0.0
  0
ARC
  5
1DFE1
  8
0
 10
4568.6270642617782869
 20
473.8681793427643925
 30
0.0
 40
0.0200000030476513
 50
272.0609296062323779
 51
315.0109504319697749
  0
LINE
  5
1DFE2
  8
0
 10
4564.3721598454667401
 20
472.4926656094378927
 30
0.0
 11
4564.2217334760589438
 21
472.4924799453380047
 31
0.0
  0
LINE
  5
1DFE3
  8
0
 10
4566.4288145728505697
 20
472.4926656094378927
 30
0.0
 11
4566.5792411753591296
 21
472.4924799453380047
 31
0.0
  0
ARC
  5
1DFE4
  8
0
 10
4566.4783995875395703
 20
473.2175852101327109
 30
0.0
 40
1.128398177514208
 50
80.4631130667329444
 51
91.0675103917549649
  0
ARC
  5
1DFE5
  8
0
 10
4565.562201906151131
 20
467.4938814416073001
 30
0.0
 40
6.9502623790442559
 50
79.3848334818072914
 51
82.5999012646621509
  0
ARC
  5
1DFE6
  8
0
 10
4566.3785864055180355
 20
472.687371953717502
 30
0.0
 40
1.728738232222198
 50
72.4757418953364692
 51
87.3877298053411948
  0
ARC
  5
1DFE7
  8
0
 10
4566.1210100117314141
 20
471.6606737313722988
 30
0.0
 40
2.8134367884468729
 50
72.08886568036813
 51
83.1334450679656953
  0
ARC
  5
1DFE8
  8
0
 10
4566.17586757610934
 20
471.5150786792199824
 30
0.0
 40
2.9792829947979969
 50
71.7550569367831059
 51
84.5780920609401221
  0
ARC
  5
1DFE9
  8
0
 10
4566.0676073654321954
 20
471.210399602968721
 30
0.0
 40
3.3347087799457529
 50
70.4711790199769297
 51
83.2877744972123253
  0
ARC
  5
1DFEA
  8
0
 10
4566.1693551356420357
 20
471.395729220095177
 30
0.0
 40
3.1686274960005041
 50
68.7166523160476146
 51
84.7847307106304271
  0
ARC
  5
1DFEB
  8
0
 10
4565.3237505249489914
 20
467.2291054769661969
 30
0.0
 40
7.4436672741585781
 50
73.2883196157068539
 51
81.2401047566278152
  0
ARC
  5
1DFEC
  8
0
 10
4565.7544944318542548
 20
468.8171777133920841
 30
0.0
 40
5.8311134094717021
 50
74.4924883919588439
 51
83.0767301785683969
  0
ARC
  5
1DFED
  8
0
 10
4578.1805265599678023
 20
513.6012017807067878
 30
0.0
 40
40.6448490454441114
 50
254.4924883919588865
 51
254.9686878488151933
  0
ARC
  5
1DFEE
  8
0
 10
4565.4665550679592343
 20
467.2653764326936994
 30
0.0
 40
7.4381810211726762
 50
74.9874636633471567
 51
82.3450157894264549
  0
ARC
  5
1DFEF
  8
0
 10
4643.4289652327388467
 20
757.9706116973152348
 30
0.0
 40
293.5396773155500227
 50
254.9874636633471994
 51
255.0636601865533919
  0
ARC
  5
1DFF0
  8
0
 10
4566.1075455810523636
 20
470.3074550920583761
 30
0.0
 40
4.3587233594928962
 50
74.0779976495244483
 51
85.3964859409935144
  0
ARC
  5
1DFF1
  8
0
 10
4566.4401970176859322
 20
470.2990697767975234
 30
0.0
 40
4.2876536051475389
 50
70.430191971879907
 51
78.3874737538116904
  0
ARC
  5
1DFF2
  8
0
 10
4565.9058316139344242
 20
469.7392762105018278
 30
0.0
 40
4.9714402682560861
 50
78.824921090240224
 51
83.6303349750067753
  0
ARC
  5
1DFF3
  8
0
 10
4564.4994613980416034
 20
462.6203378384309985
 30
0.0
 40
12.2279656578273901
 50
73.5094558135320284
 51
78.824921090240224
  0
ARC
  5
1DFF4
  8
0
 10
4566.0454930285986848
 20
469.7029130230703231
 30
0.0
 40
5.0086720142126921
 50
75.9684698474172535
 51
85.2830029651726278
  0
ARC
  5
1DFF5
  8
0
 10
4563.5294456955589339
 20
459.6352039189886227
 30
0.0
 40
15.3860156428349502
 50
72.8270391294837651
 51
75.9684698474172535
  0
ARC
  5
1DFF6
  8
0
 10
4565.6517386280920618
 20
467.2849481790711934
 30
0.0
 40
7.4768497292209277
 50
70.5310881167944359
 51
83.814310872481073
  0
ARC
  5
1DFF7
  8
0
 10
4565.9073375808411583
 20
468.033101715795226
 30
0.0
 40
6.7205037894942157
 50
70.0673184530322715
 51
85.305377763173297
  0
ARC
  5
1DFF8
  8
0
 10
4566.0541141366484226
 20
468.6266337052286985
 30
0.0
 40
6.1366013577901146
 50
68.6292392969525338
 51
86.2321292938737542
  0
ARC
  5
1DFF9
  8
0
 10
4566.089243541671749
 20
467.7352757878152261
 30
0.0
 40
7.0356972645956608
 50
77.4712930248150258
 51
87.0007054914705122
  0
ARC
  5
1DFFA
  8
0
 10
4566.8598846207032693
 20
471.2031894351906089
 30
0.0
 40
3.483189314098881
 50
64.1754736619354844
 51
77.4712930248150258
  0
ARC
  5
1DFFB
  8
0
 10
4566.2060660747329166
 20
467.9754034233350808
 30
0.0
 40
6.8045309475145244
 50
77.6108098002279547
 51
87.8834207074171729
  0
ARC
  5
1DFFC
  8
0
 10
4567.0554639868087179
 20
471.6877872264440157
 30
0.0
 40
2.9965421033323931
 50
62.1442357753207872
 51
78.2441347273568937
  0
ARC
  5
1DFFD
  8
0
 10
4566.2283553034767465
 20
467.1881180887153278
 30
0.0
 40
7.601499118244603
 50
80.2170326827781963
 51
88.2735035710774554
  0
ARC
  5
1DFFE
  8
0
 10
4567.0327174957801617
 20
471.3644531690193844
 30
0.0
 40
3.3502491635026201
 50
62.7232471025761313
 51
81.6372734350132134
  0
ARC
  5
1DFFF
  8
0
 10
4566.4101404897692191
 20
468.1370661225819845
 30
0.0
 40
6.6554542359582056
 50
80.0134336150939589
 51
89.5933449840807157
  0
ARC
  5
1E000
  8
0
 10
4567.114456043890641
 20
471.5014561795753139
 30
0.0
 40
3.2217847066993661
 50
62.3960278283884477
 51
81.9736105656378697
  0
ARC
  5
1E001
  8
0
 10
4566.3725203542189774
 20
463.6921163780226038
 30
0.0
 40
11.1028179932958704
 50
88.2324956468989967
 51
89.5620955459931452
  0
ARC
  5
1E002
  8
0
 10
4566.4749013484979514
 20
467.009866606030414
 30
0.0
 40
7.7834884761440577
 50
81.1011996333485428
 51
88.2324956468989967
  0
ARC
  5
1E003
  8
0
 10
4567.2192950848029795
 20
471.7641168443619222
 30
0.0
 40
2.971314605290682
 50
62.4324875584682886
 51
81.1011996333485428
  0
ARC
  5
1E004
  8
0
 10
4566.5672907651842252
 20
466.1127702088788851
 30
0.0
 40
8.6824490126371092
 50
83.909202104105475
 51
89.0419256161125787
  0
ARC
  5
1E005
  8
0
 10
4567.1087954396680288
 20
471.1874704100479789
 30
0.0
 40
3.578939490334557
 50
65.2672195483920916
 51
83.909202104105475
  0
ARC
  5
1E006
  8
0
 10
4566.6920122158298909
 20
465.2122786722031833
 30
0.0
 40
9.5832486400227754
 50
84.4273566292737456
 51
89.5208980669670069
  0
ARC
  5
1E007
  8
0
 10
4567.3288451175067166
 20
471.7392906924084173
 30
0.0
 40
3.0252426887781132
 50
65.2772193416356856
 51
84.4273566292737456
  0
ARC
  5
1E008
  8
0
 10
4566.8295715504873442
 20
464.7609069735096909
 30
0.0
 40
10.0350893629960503
 50
84.2288541375329629
 51
89.2746893171742641
  0
ARC
  5
1E009
  8
0
 10
4567.6129696236712334
 20
472.526742854499787
 30
0.0
 40
2.2298405027982469
 50
63.5327078888017169
 51
84.1911269850660915
  0
ARC
  5
1E00A
  8
0
 10
4567.7290065954093734
 20
472.7822953619950113
 30
0.0
 40
1.981608368092417
 50
64.1302626203313935
 51
84.3509830192150218
  0
ARC
  5
1E00B
  8
0
 10
4567.1523850007779401
 20
466.9528098220156949
 30
0.0
 40
7.8395426562371417
 50
84.3509830192150218
 51
87.5298730125336135
  0
ARC
  5
1E00C
  8
0
 10
4566.8946834688804302
 20
460.3244411792304049
 30
0.0
 40
14.4728864480586399
 50
87.6415543391641876
 51
89.0157623287449553
  0
ARC
  5
1E00D
  8
0
 10
4567.8407699157869502
 20
472.9841869403716146
 30
0.0
 40
1.783678109950984
 50
64.5592154052060465
 51
83.9573385440779134
  0
ARC
  5
1E00E
  8
0
 10
4567.3736479187400619
 20
468.5714268524577051
 30
0.0
 40
6.221093410958022
 50
83.9573385440779134
 51
89.5189308474097487
  0
ARC
  5
1E00F
  8
0
 10
4567.4947732000127871
 20
482.997220502589073
 30
0.0
 40
8.2052087406653076
 50
268.4046515521869765
 51
269.5189308474098198
  0
ARC
  5
1E010
  8
0
 10
4567.9163411955851188
 20
473.0006982834548239
 30
0.0
 40
1.7689271143708181
 50
67.3299532100421487
 51
84.2015974498060871
  0
ARC
  5
1E011
  8
0
 10
4567.4604751113838574
 20
468.511535405228301
 30
0.0
 40
6.2811768009431388
 50
84.2015974498060871
 51
88.952912765367671
  0
ARC
  5
1E012
  8
0
 10
4568.2679856598460901
 20
512.6929502382902228
 30
0.0
 40
37.9076169134928591
 50
268.6932299373252135
 51
268.9529127653677278
  0
ARC
  5
1E013
  8
0
 10
4567.923262415220961
 20
472.8619981705024884
 30
0.0
 40
1.920542613472443
 50
69.1026457677429846
 51
87.6638404470144366
  0
ARC
  5
1E014
  8
0
 10
4567.6342773955739176
 20
469.0351590651750939
 30
0.0
 40
5.7575115183686112
 50
86.3426264596480166
 51
88.5464046801689761
  0
ARC
  5
1E015
  8
0
 10
4567.9093936206663784
 20
481.9187740880432216
 30
0.0
 40
7.1291246443570442
 50
267.7404936424385937
 51
268.9626765011782936
  0
ARC
  5
1E016
  8
0
 10
4568.054908433028686
 20
473.0661174831831772
 30
0.0
 40
1.715255393296935
 50
71.7018327795367725
 51
86.2690057569814002
  0
ARC
  5
1E017
  8
0
 10
4567.8092436843962787
 20
470.3411483676513853
 30
0.0
 40
4.4509518287737864
 50
85.3958866623464559
 51
88.4001863068591121
  0
ARC
  5
1E018
  8
0
 10
4567.3963282740960494
 20
457.335570289871896
 30
0.0
 40
17.4630589494979489
 50
88.2372541499416627
 51
88.8632315842394291
  0
ARC
  5
1E019
  8
0
 10
4568.1499958844460707
 20
473.2737533867148727
 30
0.0
 40
1.5104610510368279
 50
72.3809357704747072
 51
86.4811972648525682
  0
ARC
  5
1E01A
  8
0
 10
4567.7767221877065822
 20
467.2034751269088133
 30
0.0
 40
7.592205159773302
 50
86.4811972648525682
 51
89.3503636392263587
  0
ARC
  5
1E01B
  8
0
 10
4568.1328767613831587
 20
472.7150447333165175
 30
0.0
 40
2.0765083074696919
 50
76.8667907387715843
 51
88.8377470778707448
  0
ARC
  5
1E01C
  8
0
 10
4568.4449145575781586
 20
488.0955149511177069
 30
0.0
 40
13.3071268840877792
 50
268.1676736230651272
 51
268.8377470778708016
  0
ARC
  5
1E01D
  8
0
 10
4568.1840404020013011
 20
472.6207887496561852
 30
0.0
 40
2.1733407985816591
 50
78.7803899593496908
 51
90.235052160925207
  0
ARC
  5
1E01E
  8
0
 10
4568.1616036540608548
 20
478.0898886547855113
 30
0.0
 40
3.2958051292523121
 50
268.5137697519340918
 51
270.2350521609253065
  0
ARC
  5
1E01F
  8
0
 10
4568.3032220026070718
 20
472.8886983301838995
 30
0.0
 40
1.9038888320464971
 50
80.9101678438088783
 51
87.739170512001337
  0
ARC
  5
1E020
  8
0
 10
4568.1661791191500015
 20
469.4174488353752963
 30
0.0
 40
5.3778424597041061
 50
87.739170512001337
 51
89.6523100940214448
  0
ARC
  5
1E021
  8
0
 10
4568.3666920796104023
 20
473.0266040560308056
 30
0.0
 40
1.7677660273647049
 50
82.19592032774068
 51
89.5531457471037271
  0
ARC
  5
1E022
  8
0
 10
4568.4570574373274212
 20
484.6130410243571873
 30
0.0
 40
9.8190233259841015
 50
269.1137651740417027
 51
269.5531457471037129
  0
ARC
  5
1E023
  8
0
 10
4568.3532057648071714
 20
471.4213170065249869
 30
0.0
 40
3.3746753951144481
 50
85.6596834010765633
 51
88.7523030820953664
  0
ARC
  5
1E024
  8
0
 10
4568.4901337739047449
 20
472.8393009076092994
 30
0.0
 40
1.9554257025614681
 50
86.539775601732714
 51
88.4076883507500071
  0
ARC
  5
1E025
  8
0
 10
4568.4624696063592637
 20
471.8441238903034218
 30
0.0
 40
2.950987153171059
 50
88.4076883507500071
 51
89.6878121219612439
  0
ARC
  5
1E026
  8
0
 10
4568.4797415774410183
 20
475.0140139569427902
 30
0.0
 40
0.2189499685340134
 50
268.0385376840218896
 51
269.6878121219612012
  0
ARC
  5
1E027
  8
0
 10
4568.608339993644222
 20
474.7887344405335739
 30
0.0
 40
0.0024343728352626
 50
276.1903710858504155
 51
94.3659294602259422
  0
ARC
  5
1E028
  8
0
 10
4568.6053336742388638
 20
474.7733473380106943
 30
0.0
 40
0.0048551756094663
 50
254.1025225146154014
 51
73.2839303627171716
  0
ARC
  5
1E029
  8
0
 10
4568.604460856600781
 20
474.7451105988102995
 30
0.0
 40
0.0078732089621108
 50
271.6841664073314746
 51
71.8952463503813135
  0
ARC
  5
1E02A
  8
0
 10
4568.5984487260921014
 20
474.7053709455722128
 30
0.0
 40
0.0118433260331322
 50
244.9470006365243933
 51
42.4117340378075767
  0
ARC
  5
1E02B
  8
0
 10
4568.6004560112123727
 20
474.645793356249726
 30
0.0
 40
0.0130452549126493
 50
259.7184979861611964
 51
52.982113821747447
  0
ARC
  5
1E02C
  8
0
 10
4568.5968590773345568
 20
474.5816747491264778
 30
0.0
 40
0.0166660537310258
 50
258.8458152542427229
 51
52.5254006136200573
  0
ARC
  5
1E02D
  8
0
 10
4568.5931835710243831
 20
474.5076416215425184
 30
0.0
 40
0.0204160505358535
 50
272.5365205986188926
 51
48.2425282023475006
  0
ARC
  5
1E02E
  8
0
 10
4568.5903424763064322
 20
474.4210247391862936
 30
0.0
 40
0.0232942458288322
 50
280.0314762902245889
 51
47.1769127465263907
  0
ARC
  5
1E02F
  8
0
 10
4566.4783995875395703
 20
475.4257993433432716
 30
0.0
 40
1.128398177514208
 50
268.9324896082450778
 51
279.5368869332671125
  0
ARC
  5
1E030
  8
0
 10
4565.562201906151131
 20
481.1495031118686256
 30
0.0
 40
6.9502623790442559
 50
277.400098735337906
 51
280.6137533601209952
  0
ARC
  5
1E031
  8
0
 10
4566.3785864055180355
 20
475.9560125997584805
 30
0.0
 40
1.728738232222198
 50
272.6122701946587767
 51
287.5242581046634882
  0
ARC
  5
1E032
  8
0
 10
4566.1210100117314141
 20
476.9827108221035132
 30
0.0
 40
2.8134367884468729
 50
276.8665549320343189
 51
287.9111343196317989
  0
ARC
  5
1E033
  8
0
 10
4566.17586757610934
 20
477.1283058742557728
 30
0.0
 40
2.9792829947979969
 50
275.4219079390599063
 51
288.2449430632169083
  0
ARC
  5
1E034
  8
0
 10
4566.0676073654321954
 20
477.4329849505070911
 30
0.0
 40
3.3347087799457529
 50
276.7122255027877031
 51
289.528820980023113
  0
ARC
  5
1E035
  8
0
 10
4566.1693551356420357
 20
477.2476553333806919
 30
0.0
 40
3.1686274960005041
 50
275.2152692893695871
 51
291.2833476839523996
  0
ARC
  5
1E036
  8
0
 10
4565.3237505249489914
 20
481.4142790765097857
 30
0.0
 40
7.4436672741585781
 50
278.7598952433722275
 51
286.7116803842931176
  0
ARC
  5
1E037
  8
0
 10
4565.7544944318542548
 20
479.8262068400837848
 30
0.0
 40
5.8311134094717021
 50
276.9232698214315747
 51
285.5075116080412272
  0
ARC
  5
1E038
  8
0
 10
4578.1805265599678023
 20
435.0421827727690243
 30
0.0
 40
40.6448490454441114
 50
105.031312151184693
 51
105.5075116080410993
  0
ARC
  5
1E039
  8
0
 10
4565.4665550679592343
 20
481.3780081207822263
 30
0.0
 40
7.4381810211726762
 50
277.6549842105735024
 51
285.0125363366527722
  0
ARC
  5
1E03A
  8
0
 10
4643.4289652327388467
 20
190.6727728561606909
 30
0.0
 40
293.5396773155500227
 50
104.9363398134465939
 51
105.0125363366528006
  0
ARC
  5
1E03B
  8
0
 10
4566.1075455810523636
 20
478.3359294614174928
 30
0.0
 40
4.3587233594928962
 50
274.6035140590064998
 51
285.9220023504756227
  0
ARC
  5
1E03C
  8
0
 10
4566.4401970176859322
 20
478.3443147766782886
 30
0.0
 40
4.2876536051475389
 50
281.6125262461882812
 51
289.5698080281201214
  0
ARC
  5
1E03D
  8
0
 10
4565.9058316139344242
 20
478.9041083429740979
 30
0.0
 40
4.9714402682560861
 50
276.3696650249931963
 51
281.1750789097598044
  0
ARC
  5
1E03E
  8
0
 10
4564.4994613980416034
 20
486.0230467150449272
 30
0.0
 40
12.2279656578273901
 50
281.1750789097598044
 51
286.4905441864680142
  0
ARC
  5
1E03F
  8
0
 10
4566.0454930285986848
 20
478.9404715304057163
 30
0.0
 40
5.0086720142126921
 50
274.7169970348272727
 51
284.0315301525827181
  0
ARC
  5
1E040
  8
0
 10
4563.5294456955589339
 20
489.008180634487303
 30
0.0
 40
15.3860156428349502
 50
284.0315301525827181
 51
287.1729608705161922
  0
ARC
  5
1E041
  8
0
 10
4565.6517386280920618
 20
481.3584363744046186
 30
0.0
 40
7.4768497292209277
 50
276.1856891275189128
 51
289.4689118832055783
  0
ARC
  5
1E042
  8
0
 10
4565.9073375808411583
 20
480.6102828376808134
 30
0.0
 40
6.7205037894942157
 50
274.6946222368267172
 51
289.9326815469676717
  0
ARC
  5
1E043
  8
0
 10
4566.0541141366484226
 20
480.016750848247284
 30
0.0
 40
6.1366013577901146
 50
273.7678707061263026
 51
291.370760703047381
  0
ARC
  5
1E044
  8
0
 10
4566.089243541671749
 20
480.9081087656606996
 30
0.0
 40
7.0356972645956608
 50
272.9992945085294878
 51
282.528706975184889
  0
ARC
  5
1E045
  8
0
 10
4566.8598846207032693
 20
477.4401951182853168
 30
0.0
 40
3.483189314098881
 50
282.528706975184889
 51
295.8245263380645156
  0
ARC
  5
1E046
  8
0
 10
4566.2060660747329166
 20
480.6679811301407881
 30
0.0
 40
6.8045309475145244
 50
272.1165792925829123
 51
282.3891901997719742
  0
ARC
  5
1E047
  8
0
 10
4567.0554639868087179
 20
476.9555973270317963
 30
0.0
 40
2.9965421033323931
 50
281.7558652726431205
 51
297.8557642246792057
  0
ARC
  5
1E048
  8
0
 10
4566.2283553034767465
 20
481.455266464760598
 30
0.0
 40
7.601499118244603
 50
271.7264964289225873
 51
279.7829673172217895
  0
ARC
  5
1E049
  8
0
 10
4567.0327174957801617
 20
477.2789313844564845
 30
0.0
 40
3.3502491635026201
 50
278.362726564986815
 51
297.2767528974238189
  0
ARC
  5
1E04A
  8
0
 10
4566.4101404897692191
 20
480.5063184308938844
 30
0.0
 40
6.6554542359582056
 50
270.4066550159192843
 51
279.9865663849060979
  0
ARC
  5
1E04B
  8
0
 10
4567.114456043890641
 20
477.1419283739004982
 30
0.0
 40
3.2217847066993661
 50
278.0263894343621018
 51
297.6039721716114741
  0
ARC
  5
1E04C
  8
0
 10
4566.3725203542189774
 20
484.9512681754532082
 30
0.0
 40
11.1028179932958704
 50
270.437904454006798
 51
271.7675043531010033
  0
ARC
  5
1E04D
  8
0
 10
4566.4749013484979514
 20
481.6335179474455117
 30
0.0
 40
7.7834884761440577
 50
271.7675043531010033
 51
278.8988003666514146
  0
ARC
  5
1E04E
  8
0
 10
4567.2192950848029795
 20
476.8792677091140035
 30
0.0
 40
2.971314605290682
 50
278.8988003666514146
 51
297.5675124415316759
  0
ARC
  5
1E04F
  8
0
 10
4566.5672907651842252
 20
482.5306143445969838
 30
0.0
 40
8.6824490126371092
 50
270.9580743838873786
 51
276.090797895894525
  0
ARC
  5
1E050
  8
0
 10
4567.1087954396680288
 20
477.4559141434277763
 30
0.0
 40
3.578939490334557
 50
276.090797895894525
 51
294.7327804516079937
  0
ARC
  5
1E051
  8
0
 10
4566.6920122158298909
 20
483.4311058812726856
 30
0.0
 40
9.5832486400227754
 50
270.4791019330330073
 51
275.5726433707263254
  0
ARC
  5
1E052
  8
0
 10
4567.3288451175067166
 20
476.9040938610673948
 30
0.0
 40
3.0252426887781132
 50
275.5726433707263254
 51
294.7227806583643996
  0
ARC
  5
1E053
  8
0
 10
4566.8295715504873442
 20
483.8824775799661779
 30
0.0
 40
10.0350893629960503
 50
270.7253106828256932
 51
275.7711458624669945
  0
ARC
  5
1E054
  8
0
 10
4567.6129696236712334
 20
476.1166416989760819
 30
0.0
 40
2.2298405027982469
 50
275.8088730149339085
 51
296.467292111198276
  0
ARC
  5
1E055
  8
0
 10
4567.7290065954093734
 20
475.8610891914808008
 30
0.0
 40
1.981608368092417
 50
275.6490169807850066
 51
295.8697373796686065
  0
ARC
  5
1E056
  8
0
 10
4567.1523850007779401
 20
481.6905747314601172
 30
0.0
 40
7.8395426562371417
 50
272.4701269874664149
 51
275.6490169807850066
  0
ARC
  5
1E057
  8
0
 10
4566.8946834688804302
 20
488.3189433742455208
 30
0.0
 40
14.4728864480586399
 50
270.9842376712550731
 51
272.3584456608357982
  0
ARC
  5
1E058
  8
0
 10
4567.8407699157869502
 20
475.6591976131041974
 30
0.0
 40
1.783678109950984
 50
276.0426614559220866
 51
295.4407845947940245
  0
ARC
  5
1E059
  8
0
 10
4567.3736479187400619
 20
480.0719577010181069
 30
0.0
 40
6.221093410958022
 50
270.4810691525901802
 51
276.0426614559220866
  0
ARC
  5
1E05A
  8
0
 10
4567.4947732000127871
 20
465.6461640508869095
 30
0.0
 40
8.2052087406653076
 50
90.4810691525902371
 51
91.5953484478129667
  0
ARC
  5
1E05B
  8
0
 10
4567.9163411955851188
 20
475.6426862700211018
 30
0.0
 40
1.7689271143708181
 50
275.7984025501938845
 51
292.6700467899578939
  0
ARC
  5
1E05C
  8
0
 10
4567.4604751113838574
 20
480.1318491482476247
 30
0.0
 40
6.2811768009431388
 50
271.0470872346323858
 51
275.7984025501938845
  0
ARC
  5
1E05D
  8
0
 10
4568.2679856598460901
 20
435.9504343151857029
 30
0.0
 40
37.9076169134928591
 50
91.0470872346323148
 51
91.3067700626747438
  0
ARC
  5
1E05E
  8
0
 10
4567.923262415220961
 20
475.7813863829733236
 30
0.0
 40
1.920542613472443
 50
272.3361595529855208
 51
290.897354232256987
  0
ARC
  5
1E05F
  8
0
 10
4567.6342773955739176
 20
479.6082254883007749
 30
0.0
 40
5.7575115183686112
 50
271.4535953198310949
 51
273.6573735403520118
  0
ARC
  5
1E060
  8
0
 10
4567.9093936206663784
 20
466.7246104654327041
 30
0.0
 40
7.1291246443570442
 50
91.0373234988217348
 51
92.2595063575614063
  0
ARC
  5
1E061
  8
0
 10
4568.054908433028686
 20
475.5772670702928053
 30
0.0
 40
1.715255393296935
 50
273.7309942430185856
 51
288.2981672204631991
  0
ARC
  5
1E062
  8
0
 10
4567.8092436843962787
 20
478.3022361858244267
 30
0.0
 40
4.4509518287737864
 50
271.5998136931409022
 51
274.6041133376535868
  0
ARC
  5
1E063
  8
0
 10
4567.3963282740960494
 20
491.3078142636040866
 30
0.0
 40
17.4630589494979489
 50
271.1367684157606277
 51
271.7627458500583089
  0
ARC
  5
1E064
  8
0
 10
4568.1499958844460707
 20
475.3696311667608825
 30
0.0
 40
1.5104610510368279
 50
273.5188027351475171
 51
287.6190642295252928
  0
ARC
  5
1E065
  8
0
 10
4567.7767221877065822
 20
481.4399094265669987
 30
0.0
 40
7.592205159773302
 50
270.6496363607736271
 51
273.5188027351475171
  0
ARC
  5
1E066
  8
0
 10
4568.1328767613831587
 20
475.9283398201595219
 30
0.0
 40
2.0765083074696919
 50
271.1622529221293121
 51
283.1332092612283873
  0
ARC
  5
1E067
  8
0
 10
4568.4449145575781586
 20
460.5478696023582188
 30
0.0
 40
13.3071268840877792
 50
91.1622529221292552
 51
91.832326376934958
  0
ARC
  5
1E068
  8
0
 10
4568.1840404020013011
 20
476.0225958038196836
 30
0.0
 40
2.1733407985816591
 50
269.7649478390748072
 51
281.2196100406503092
  0
ARC
  5
1E069
  8
0
 10
4568.1616036540608548
 20
470.5534958986905281
 30
0.0
 40
3.2958051292523121
 50
89.7649478390747788
 51
91.4862302480658371
  0
ARC
  5
1E06A
  8
0
 10
4568.3032220026070718
 20
475.754686223292083
 30
0.0
 40
1.9038888320464971
 50
272.260829487998592
 51
279.0898321561911075
  0
ARC
  5
1E06B
  8
0
 10
4568.1661791191500015
 20
479.2259357181005726
 30
0.0
 40
5.3778424597041061
 50
270.3476899059784841
 51
272.260829487998592
  0
ARC
  5
1E06C
  8
0
 10
4568.3666920796104023
 20
475.6167804974451201
 30
0.0
 40
1.7677660273647049
 50
270.4468542528962871
 51
277.80407967225932
  0
ARC
  5
1E06D
  8
0
 10
4568.4570574373274212
 20
464.0303435291186247
 30
0.0
 40
9.8190233259841015
 50
90.4468542528962729
 51
90.8862348259582546
  0
ARC
  5
1E06E
  8
0
 10
4568.3532057648071714
 20
477.2220675469508819
 30
0.0
 40
3.3746753951144481
 50
271.2476969179045909
 51
274.3403165989234935
  0
ARC
  5
1E06F
  8
0
 10
4568.4901337739047449
 20
475.8040836458666263
 30
0.0
 40
1.9554257025614681
 50
271.5923116492500071
 51
273.4602243982672007
  0
ARC
  5
1E070
  8
0
 10
4568.4624696063592637
 20
476.7992606631723902
 30
0.0
 40
2.950987153171059
 50
270.3121878780386851
 51
271.5923116492500071
  0
ARC
  5
1E071
  8
0
 10
4568.4797415774410183
 20
473.6293705965330787
 30
0.0
 40
0.2189499685340134
 50
90.3121878780387419
 51
91.9614623159781246
  0
ARC
  5
1E072
  8
0
 10
4568.608339993644222
 20
473.8546501129421813
 30
0.0
 40
0.0024343728352626
 50
265.6340705397739725
 51
83.8096289141495845
  0
ARC
  5
1E073
  8
0
 10
4568.6053336742388638
 20
473.8700372154651177
 30
0.0
 40
0.0048551756094663
 50
286.7160696372828284
 51
105.8974774853845986
  0
ARC
  5
1E074
  8
0
 10
4568.604460856600781
 20
473.8982739546655125
 30
0.0
 40
0.0078732089621108
 50
288.1047536496187149
 51
88.3158335926685254
  0
ARC
  5
1E075
  8
0
 10
4568.5984487260921014
 20
473.9380136079037129
 30
0.0
 40
0.0118433260331322
 50
317.5882659621923949
 51
115.0529993634756067
  0
ARC
  5
1E076
  8
0
 10
4568.6004560112123727
 20
473.9975911972263134
 30
0.0
 40
0.0130452549126493
 50
307.0178861782525814
 51
100.2815020138388036
  0
ARC
  5
1E077
  8
0
 10
4568.5968590773345568
 20
474.0617098043492774
 30
0.0
 40
0.0166660537310258
 50
307.4745993863800209
 51
101.1541847457573056
  0
ARC
  5
1E078
  8
0
 10
4568.5931835710243831
 20
474.1357429319332937
 30
0.0
 40
0.0204160505358535
 50
311.7574717976524994
 51
87.4634794013810932
  0
ARC
  5
1E079
  8
0
 10
4568.5903424763064322
 20
474.2223598142895753
 30
0.0
 40
0.0232942458288322
 50
312.8230872534736022
 51
79.9685237097753401
  0
ARC
  5
1E07A
  8
0
 10
4566.664733588037052
 20
474.3216922767380197
 30
0.0
 40
0.0087178859737655
 50
274.0905773736712945
 51
85.9094226263287766
  0
ARC
  5
1E07B
  8
0
 10
4566.8415465879807016
 20
474.3216977493589184
 30
0.0
 40
0.0036364161897114
 50
282.7946926270407744
 51
74.4670676086118135
  0
ARC
  5
1E07C
  8
0
 10
4566.8971949223841875
 20
474.3216922767380197
 30
0.0
 40
0.014317221915675
 50
277.7516250343913953
 51
82.2483749656085479
  0
ARC
  5
1E07D
  8
0
 10
4566.9851800600617935
 20
474.3216922767380197
 30
0.0
 40
0.0161002358667431
 50
273.841362677527286
 51
86.1586373224726429
  0
ARC
  5
1E07E
  8
0
 10
4567.0979011232366247
 20
474.3216922767380197
 30
0.0
 40
0.025277109020684
 50
295.0944734454599256
 51
64.905526554540117
  0
ARC
  5
1E07F
  8
0
 10
4567.1683520945862256
 20
474.3216922767380197
 30
0.0
 40
0.0345397391047415
 50
293.8846205964154024
 51
66.1153794035845266
  0
ARC
  5
1E080
  8
0
 10
4567.3137984568365937
 20
474.3216922767380197
 30
0.0
 40
0.0271600288078023
 50
282.1284916454450808
 51
77.8715083545555444
  0
ARC
  5
1E081
  8
0
 10
4567.4527023940217987
 20
474.3216922767380197
 30
0.0
 40
0.0384543283717305
 50
287.4284864412235834
 51
72.5715135587764024
  0
ARC
  5
1E082
  8
0
 10
4567.6311960062857906
 20
474.3216922767380197
 30
0.0
 40
0.0266527606463791
 50
287.9534558488126095
 51
72.0465441511884706
  0
ARC
  5
1E083
  8
0
 10
4567.7610803576772014
 20
474.3216922767380197
 30
0.0
 40
0.0286780327911822
 50
288.9343717519939787
 51
71.0656282478423407
  0
ARC
  5
1E084
  8
0
 10
4567.8703842668837751
 20
474.3216922767380197
 30
0.0
 40
0.0183538576102891
 50
289.0290233998192093
 51
70.9709766001797249
  0
ARC
  5
1E085
  8
0
 10
4567.9564062545232446
 20
474.3216922767380197
 30
0.0
 40
0.0274943388319249
 50
300.7315063716262102
 51
59.2684936283737684
  0
ARC
  5
1E086
  8
0
 10
4568.0701812272072857
 20
474.3216922767380197
 30
0.0
 40
0.0137457634423093
 50
278.7724389527272137
 51
81.2275610472732836
  0
ARC
  5
1E087
  8
0
 10
4568.1394092214723059
 20
474.3216922767380197
 30
0.0
 40
0.0133207582620396
 50
288.9626180512784117
 51
71.0373819487216451
  0
ARC
  5
1E088
  8
0
 10
4568.1875484778001919
 20
474.3216922767380197
 30
0.0
 40
0.0312798020669941
 50
290.4234615776870214
 51
69.5765384223129502
  0
ARC
  5
1E089
  8
0
 10
4568.2830586251238856
 20
474.3216922767380197
 30
0.0
 40
0.0208970538944353
 50
290.2793129533167189
 51
69.7206870466844606
  0
ARC
  5
1E08A
  8
0
 10
4568.3729367075848131
 20
474.3216922767380197
 30
0.0
 40
0.0173650007399702
 50
284.2773760565958128
 51
75.7226239434034056
  0
ARC
  5
1E08B
  8
0
 10
4568.4473648061239146
 20
474.3216922767380197
 30
0.0
 40
0.0174746488568218
 50
298.0806176544107871
 51
61.9193823455907122
  0
ARC
  5
1E08C
  8
0
 10
4568.5520420667044164
 20
474.3216922767380197
 30
0.0
 40
0.0260192689241007
 50
308.1079667683977732
 51
51.8920332316021984
  0
ARC
  5
1E08D
  8
0
 10
4568.5204570727028113
 20
474.3216922767380197
 30
0.0
 40
0.0935570665785616
 50
338.1515332183154783
 51
21.8484667816651097
  0
LINE
  5
1E08E
  8
0
 10
4560.9300147819549238
 20
478.1118808858921057
 30
0.0
 11
4560.9300141456578785
 21
478.071435565937918
 31
0.0
  0
ARC
  5
1E08F
  8
0
 10
4561.0550619776013264
 20
478.070773079908804
 30
0.0
 40
0.1250489643184459
 50
154.629806644556794
 51
205.9243194926208105
  0
ARC
  5
1E090
  8
0
 10
4560.9484327963782562
 20
478.0189407892402187
 30
0.0
 40
0.0064894069458541
 50
205.9243194926179115
 51
281.6674146068892242
  0
ARC
  5
1E091
  8
0
 10
4561.0074719982831084
 20
478.1168126452548108
 30
0.0
 40
0.0067937945800205
 50
260.3029852161971007
 51
332.1052781440454282
  0
ARC
  5
1E092
  8
0
 10
4561.0081235343550361
 20
478.1160586585602914
 30
0.0
 40
0.005876343425825
 50
335.6328034641862246
 51
359.9095516097473251
  0
ARC
  5
1E093
  8
0
 10
4561.1039698999238681
 20
478.0707533587549278
 30
0.0
 40
0.1001390827932926
 50
154.6458171114954041
 51
179.6096639433268081
  0
ARC
  5
1E094
  8
0
 10
4561.1038150195390699
 20
478.0707544139169727
 30
0.0
 40
0.0999841988156139
 50
179.6096639433268081
 51
206.0653546705833037
  0
LINE
  5
1E095
  8
0
 10
4560.942072946359076
 20
478.1374609849606827
 30
0.0
 11
4560.942072946359076
 21
478.1243522014380005
 31
0.0
  0
ARC
  5
1E096
  8
0
 10
4560.9504632838052203
 20
478.1250348444094129
 30
0.0
 40
0.008418061764539
 50
184.6513742847799904
 51
265.1062375200306747
  0
LINE
  5
1E097
  8
0
 10
4560.9497451519591777
 20
478.116647469938016
 30
0.0
 11
4561.006327664958917
 21
478.1101159187379039
 31
0.0
  0
LINE
  5
1E098
  8
0
 10
4561.0139998704589743
 20
478.1603735171379981
 30
0.0
 11
4561.0139998704589743
 21
478.1160493820378861
 31
0.0
  0
LINE
  5
1E099
  8
0
 10
4561.0139998704589743
 20
478.1208197560379176
 30
0.0
 11
4561.0469571096591608
 21
478.1208197560379176
 31
0.0
  0
LINE
  5
1E09A
  8
0
 10
4561.0139998704589743
 20
478.1603735171379981
 30
0.0
 11
4560.965191716458321
 21
478.1660076422380143
 31
0.0
  0
ARC
  5
1E09B
  8
0
 10
4561.1833736722282993
 20
478.0722506199999202
 30
0.0
 40
0.1909270272264122
 50
121.5513840543240036
 51
152.5126500033721015
  0
LINE
  5
1E09C
  8
0
 10
4561.0350959432098534
 20
478.192528817537891
 30
0.0
 11
4561.0469571096591608
 21
478.192528817537891
 31
0.0
  0
LINE
  5
1E09D
  8
0
 10
4561.0469571096591608
 20
478.192528817537891
 30
0.0
 11
4561.0469571096591608
 21
478.1788906221379989
 31
0.0
  0
LINE
  5
1E09E
  8
0
 10
4561.0469571096591608
 20
478.1788906221379989
 30
0.0
 11
4561.0250037266259824
 21
478.1788906221379989
 31
0.0
  0
ARC
  5
1E09F
  8
0
 10
4561.152588637430199
 20
478.1573220025994146
 30
0.0
 40
0.1113442386365102
 50
147.9172031493272925
 51
161.5668546536415988
  0
ARC
  5
1E0A0
  8
0
 10
4561.173697914990953
 20
478.1333940903120947
 30
0.0
 40
0.1346594450626686
 50
131.5385765554098043
 51
160.2532304823396885
  0
ARC
  5
1E0A1
  8
0
 10
4561.091337119039963
 20
478.243599173686107
 30
0.0
 40
0.0116904738733557
 50
190.7650707950747062
 51
237.1507084133565968
  0
LINE
  5
1E0A2
  8
0
 10
4561.0849958418575625
 20
478.2337780035379069
 30
0.0
 11
4561.1246000772589468
 21
478.212542832137899
 31
0.0
  0
ARC
  5
1E0A3
  8
0
 10
4561.1265839318248254
 20
478.2157412445224054
 30
0.0
 40
0.0037637110303527
 50
238.1902334382444053
 51
290.9145979639797019
  0
ARC
  5
1E0A4
  8
0
 10
4561.3652080788133389
 20
477.6816107899231838
 30
0.0
 40
0.5812521499476007
 50
98.0904711531419622
 51
114.0932655926164045
  0
ARC
  5
1E0A5
  8
0
 10
4561.2832059689371818
 20
478.257871786448618
 30
0.0
 40
0.00081848202265
 50
284.0477508073872741
 51
338.7317980905071977
  0
ARC
  5
1E0A6
  8
0
 10
4561.2845273955426819
 20
478.2593001283269132
 30
0.0
 40
0.0026325439753868
 50
208.5422181443686043
 51
229.8218206442601002
  0
ARC
  5
1E0A7
  8
0
 10
4561.2834058178086707
 20
478.2579718945735863
 30
0.0
 40
0.0008941132121576
 50
229.8218206442664098
 51
269.9244899607454045
  0
ARC
  5
1E0A8
  8
0
 10
4561.276270724682945
 20
478.2605767487627872
 30
0.0
 40
0.0082625690333658
 50
338.696536916697994
 51
3.6058445631719369
  0
LINE
  5
1E0A9
  8
0
 10
4561.2845169364591129
 20
478.2944755956625045
 30
0.0
 11
4561.2845169364591129
 21
478.2610964009379018
 31
0.0
  0
LINE
  5
1E0AA
  8
0
 10
4561.2822147970591686
 20
478.2580422825379856
 30
0.0
 11
4561.2652365189578632
 21
478.2858090051378781
 31
0.0
  0
ARC
  5
1E0AB
  8
0
 10
4561.2830714967367385
 20
478.2947414010491229
 30
0.0
 40
0.0199467824247994
 50
189.3165085838209905
 51
206.6033500227763966
  0
ARC
  5
1E0AC
  8
0
 10
4561.4004872089399214
 20
477.6181324931646941
 30
0.0
 40
0.6618042229024254
 50
79.9075642230645258
 51
100.0922468392150932
  0
LINE
  5
1E0AD
  8
0
 10
4561.0619045319590441
 20
478.1362169937380031
 30
0.0
 11
4561.0619045319590441
 21
478.1106453775379919
 31
0.0
  0
ARC
  5
1E0AE
  8
0
 10
4561.1555590749348994
 20
478.1350970361087889
 30
0.0
 40
0.0936612391822202
 50
148.7269104764087047
 51
179.3148673323507865
  0
ARC
  5
1E0AF
  8
0
 10
4561.204981754705841
 20
478.1052111019442918
 30
0.0
 40
0.1514172994186994
 50
129.8467939420928019
 51
148.7695178271021916
  0
ARC
  5
1E0B0
  8
0
 10
4561.1713304102668189
 20
478.1126269838857183
 30
0.0
 40
0.1094438194112522
 50
181.0374627408689889
 51
217.6881349423912866
  0
LINE
  5
1E0B1
  8
0
 10
4560.9497451514589557
 20
478.0125854665379848
 30
0.0
 11
4561.0063276651590058
 21
478.0191170177379831
 31
0.0
  0
LINE
  5
1E0B2
  8
0
 10
4561.0139998704589743
 20
478.0711458843379091
 30
0.0
 11
4561.0139998704589743
 21
478.0268217494379996
 31
0.0
  0
ARC
  5
1E0B3
  8
0
 10
4561.0056095329573509
 20
478.0275043922205214
 30
0.0
 40
0.0084180618060493
 50
274.8937648946478021
 51
355.3486270281770771
  0
ARC
  5
1E0B4
  8
0
 10
4561.2163838088226839
 20
478.1876666576497996
 30
0.0
 40
0.2335301888864497
 50
209.9308075463453918
 51
248.2824031302353092
  0
ARC
  5
1E0B5
  8
0
 10
4561.218780521532608
 20
478.2590796497996735
 30
0.0
 40
0.3446976879829875
 50
224.9697750590648013
 51
246.1902594315737076
  0
LINE
  5
1E0B6
  8
0
 10
4561.1299701430589266
 20
477.9707126821379006
 30
0.0
 11
4561.0796257759593573
 21
477.9437188201379172
 31
0.0
  0
LINE
  5
1E0B7
  8
0
 10
4561.0796257759593573
 20
477.9437188201379172
 30
0.0
 11
4561.0796257759593573
 21
477.899394685437926
 31
0.0
  0
LINE
  5
1E0B8
  8
0
 10
4561.1299701430589266
 20
477.9707126821379006
 30
0.0
 11
4561.1299701430589266
 21
477.9263885471380036
 31
0.0
  0
LINE
  5
1E0B9
  8
0
 10
4561.0849958416592926
 20
477.8954549328378789
 30
0.0
 11
4561.124600077058858
 21
477.916690104337988
 31
0.0
  0
ARC
  5
1E0BA
  8
0
 10
4561.1180565788681633
 20
477.9266491998279776
 30
0.0
 40
0.0119164152139832
 50
303.3064106256352943
 51
358.7466457048769257
  0
ARC
  5
1E0BB
  8
0
 10
4561.3658525196397022
 20
478.4535192647092003
 30
0.0
 40
0.577500899556625
 50
245.8922646786882922
 51
261.9035079446280747
  0
ARC
  5
1E0BC
  8
0
 10
4561.3600523122104278
 20
478.516889447091728
 30
0.0
 40
0.6812289842893328
 50
245.8799736962054112
 51
261.8983321338351971
  0
LINE
  5
1E0BD
  8
0
 10
4561.282214797159213
 20
477.8711906540380028
 30
0.0
 11
4561.2652365188587282
 21
477.8434239310379894
 31
0.0
  0
ARC
  5
1E0BE
  8
0
 10
4561.2637270288641957
 20
477.8440699259472808
 30
0.0
 40
0.0016419103106489
 50
281.2260518919769083
 51
336.8312185220792117
  0
ARC
  5
1E0BF
  8
0
 10
4561.2596194457528327
 20
477.8816477692051876
 30
0.0
 40
0.024897814416857
 50
335.1653285465691283
 51
0.2921708029024728
  0
LINE
  5
1E0C0
  8
0
 10
4561.2845169364591129
 20
477.9260988658379006
 30
0.0
 11
4561.2845169364591129
 21
477.8817747311379094
 31
0.0
  0
ARC
  5
1E0C1
  8
0
 10
4561.4004872091090874
 20
478.6977411096374908
 30
0.0
 40
0.7803081804996143
 50
261.4529733285615976
 51
278.5470266714384024
  0
ARC
  5
1E0C2
  8
0
 10
4561.4004872087052718
 20
478.8106643374595137
 30
0.0
 40
0.9301411262335672
 50
262.8377062590699893
 51
277.1622937972317118
  0
ARC
  5
1E0C3
  8
0
 10
4561.0829029253518456
 20
477.8978560944028118
 30
0.0
 40
0.0029856523012223
 50
197.5277411171400104
 51
278.8441888295856756
  0
ARC
  5
1E0C4
  8
0
 10
4561.0826858715754497
 20
477.8996239126366277
 30
0.0
 40
0.004766167679414
 50
278.1550433331602221
 51
298.9901887135565062
  0
ARC
  5
1E0C5
  8
0
 10
4561.0862023418530953
 20
477.8992982146826876
 30
0.0
 40
0.0065772734156727
 50
179.1595962379396099
 51
200.8528099582727862
  0
ARC
  5
1E0C6
  8
0
 10
4561.4004872091591096
 20
478.7776381130000232
 30
0.0
 40
0.9460651731501148
 50
263.576589491633797
 51
276.4234105083663167
  0
ARC
  5
1E0C7
  8
0
 10
4561.1586980769789079
 20
478.1587269865697749
 30
0.0
 40
0.1179957707049977
 50
198.7390949250500114
 51
217.3469360856946935
  0
ARC
  5
1E0C8
  8
0
 10
4561.1768702853496507
 20
478.196340605929322
 30
0.0
 40
0.1703103318671041
 50
206.3229866307505915
 51
233.5826133794788859
  0
LINE
  5
1E0C9
  8
0
 10
4561.0819705781577795
 20
478.0494386146011152
 30
0.0
 11
4561.0819705781577795
 21
478.0316591768379908
 31
0.0
  0
LINE
  5
1E0CA
  8
0
 10
4561.0819705781577795
 20
478.0316591768379908
 30
0.0
 11
4561.0921160573298039
 21
478.0367319164237756
 31
0.0
  0
ARC
  5
1E0CB
  8
0
 10
4561.2739315431472278
 20
478.3189484488020753
 30
0.0
 40
0.3455200976280346
 50
236.2499433929529005
 51
243.9734070365151979
  0
ARC
  5
1E0CC
  8
0
 10
4561.4004872091591096
 20
478.5792095588636812
 30
0.0
 40
0.6457295357257531
 50
259.5284021031591237
 51
280.4715978968408763
  0
ARC
  5
1E0CD
  8
0
 10
4561.4004872091591096
 20
478.5461874819314971
 30
0.0
 40
0.6071527406935031
 50
256.6224538781094111
 51
283.3775461218905889
  0
ARC
  5
1E0CE
  8
0
 10
4561.2459601867094534
 20
478.1708677883038945
 30
0.0
 40
0.2041089127634202
 50
217.8180968383055927
 51
239.7919327299985923
  0
ARC
  5
1E0CF
  8
0
 10
4561.3558699472187072
 20
478.3665326113583092
 30
0.0
 40
0.4285173959039832
 50
240.2549206482206046
 51
260.2264417816138007
  0
ARC
  5
1E0D0
  8
0
 10
4561.1691476407013397
 20
478.0970071824505112
 30
0.0
 40
0.0846029410428386
 50
145.4074637958254925
 51
214.5925362041745075
  0
ARC
  5
1E0D1
  8
0
 10
4561.1766325078997397
 20
478.1109844956138204
 30
0.0
 40
0.0922388044102427
 50
185.0341885722097004
 51
216.6314593165525082
  0
ARC
  5
1E0D2
  8
0
 10
4561.2327211288129547
 20
478.138505295767402
 30
0.0
 40
0.1605089071325778
 50
213.903111213648998
 51
236.7034959799975127
  0
ARC
  5
1E0D3
  8
0
 10
4561.3399728126505579
 20
478.3052409239537042
 30
0.0
 40
0.3587564768368304
 50
237.0049949431383993
 51
257.1216129933750949
  0
ARC
  5
1E0D4
  8
0
 10
4561.4004869827949733
 20
477.6411332909682983
 30
0.0
 40
0.6138464762550992
 50
78.6401917532897556
 51
101.3598082467102017
  0
ARC
  5
1E0D5
  8
0
 10
4561.2494398716153228
 20
478.0398121858215745
 30
0.0
 40
0.1831781539784446
 50
117.0787442118862032
 51
144.9386903159631004
  0
ARC
  5
1E0D6
  8
0
 10
4561.3569051616159413
 20
477.8427909342746034
 30
0.0
 40
0.4075661908374293
 50
100.9369951846693994
 51
117.9220003123500931
  0
ARC
  5
1E0D7
  8
0
 10
4561.1377079072299239
 20
478.1496278248766885
 30
0.0
 40
0.0915484181368146
 50
164.2400605967146134
 51
215.3766052294639906
  0
ARC
  5
1E0D8
  8
0
 10
4561.1739743163661842
 20
478.1352077010075163
 30
0.0
 40
0.1304303241185193
 50
131.7000572158698901
 51
162.4704281665964913
  0
ARC
  5
1E0D9
  8
0
 10
4561.2341760246727063
 20
478.1526652995869995
 30
0.0
 40
0.1632888044200754
 50
216.3206398867534119
 51
233.3414319587213015
  0
ARC
  5
1E0DA
  8
0
 10
4561.4004872091363723
 20
478.5598832324928935
 30
0.0
 40
0.6092494659549316
 50
257.2206860568554134
 51
282.7793139431445866
  0
ARC
  5
1E0DB
  8
0
 10
4561.3025549657913871
 20
478.2459101763694207
 30
0.0
 40
0.2789170690086737
 50
233.5093240578887901
 51
248.1662217608474919
  0
ARC
  5
1E0DC
  8
0
 10
4561.377385804055848
 20
478.4326812102846134
 30
0.0
 40
0.4801211282747059
 50
248.166221760848714
 51
256.5514979100091182
  0
LINE
  5
1E0DD
  8
0
 10
4561.1770620122588298
 20
478.1509838190170854
 30
0.0
 11
4561.1770620122588298
 21
478.1396265426379273
 31
0.0
  0
LINE
  5
1E0DE
  8
0
 10
4561.200684059458581
 20
478.1586631902379736
 30
0.0
 11
4561.200684059458581
 21
478.1257042182378996
 31
0.0
  0
ARC
  5
1E0DF
  8
0
 10
4561.1704124135912934
 20
478.1404130052678738
 30
0.0
 40
0.0066959454823001
 50
284.9583742200002803
 51
353.2548370748845059
  0
LINE
  5
1E0E0
  8
0
 10
4561.2243061067583767
 20
478.1509838189379025
 30
0.0
 11
4561.2243061067583767
 21
478.1396265426379273
 31
0.0
  0
ARC
  5
1E0E1
  8
0
 10
4561.2310834085474198
 20
478.140523599414621
 30
0.0
 40
0.0068364120999805
 50
187.5399515570524045
 51
254.2468371480950964
  0
LINE
  5
1E0E2
  8
0
 10
4561.1721407524582901
 20
478.1330836876379067
 30
0.0
 11
4561.1979542356575621
 21
478.1256319768380081
 31
0.0
  0
LINE
  5
1E0E3
  8
0
 10
4561.2034138833578254
 20
478.1256319768380081
 30
0.0
 11
4561.2292273666580513
 21
478.1330836876379067
 31
0.0
  0
ARC
  5
1E0E4
  8
0
 10
4561.19919172880509
 20
478.1304829370220091
 30
0.0
 40
0.0050063164099097
 50
255.6889220987355884
 51
287.3428937126843721
  0
ARC
  5
1E0E5
  8
0
 10
4561.2021765681502075
 20
478.1304896629451946
 30
0.0
 40
0.0050127899657327
 50
252.6780799925705026
 51
284.290104307074273
  0
LINE
  5
1E0E6
  8
0
 10
4561.2341486263585466
 20
478.1509838190170854
 30
0.0
 11
4561.2341486263585466
 21
478.1396265426379273
 31
0.0
  0
LINE
  5
1E0E7
  8
0
 10
4561.2577706735592074
 20
478.1586631902379736
 30
0.0
 11
4561.2577706735592074
 21
478.1257042182378996
 31
0.0
  0
ARC
  5
1E0E8
  8
0
 10
4561.2274990276919198
 20
478.1404130052678738
 30
0.0
 40
0.0066959454823001
 50
284.9583742200002803
 51
353.2548370748845059
  0
LINE
  5
1E0E9
  8
0
 10
4561.281392720859003
 20
478.1509838189379025
 30
0.0
 11
4561.281392720859003
 21
478.1396265426379273
 31
0.0
  0
ARC
  5
1E0EA
  8
0
 10
4561.2881700226480461
 20
478.140523599414621
 30
0.0
 40
0.0068364120999805
 50
187.5399515570524045
 51
254.2468371480950964
  0
LINE
  5
1E0EB
  8
0
 10
4561.2292273665589164
 20
478.1330836876379067
 30
0.0
 11
4561.2550408497590979
 21
478.1256319768380081
 31
0.0
  0
LINE
  5
1E0EC
  8
0
 10
4561.2605004974584517
 20
478.1256319768380081
 30
0.0
 11
4561.2863139807577681
 21
478.1330836876379067
 31
0.0
  0
ARC
  5
1E0ED
  8
0
 10
4561.2562783429048068
 20
478.1304829370220091
 30
0.0
 40
0.0050063164099097
 50
255.6889220987355884
 51
287.3428937126843721
  0
ARC
  5
1E0EE
  8
0
 10
4561.2592631822499243
 20
478.1304896629451946
 30
0.0
 40
0.0050127899657327
 50
252.6780799925705026
 51
284.290104307074273
  0
LINE
  5
1E0EF
  8
0
 10
4561.2056053192582112
 20
478.1262645899170138
 30
0.0
 11
4561.2056053192582112
 21
478.1149073135379126
 31
0.0
  0
LINE
  5
1E0F0
  8
0
 10
4561.2292273664579625
 20
478.1339439611379021
 30
0.0
 11
4561.2292273664579625
 21
478.1009849891379986
 31
0.0
  0
ARC
  5
1E0F1
  8
0
 10
4561.1989557205906749
 20
478.1156937761679728
 30
0.0
 40
0.0066959454823001
 50
284.9583742200002803
 51
353.2548370748845059
  0
LINE
  5
1E0F2
  8
0
 10
4561.2528494137577582
 20
478.1262645898380015
 30
0.0
 11
4561.2528494137577582
 21
478.1149073135379126
 31
0.0
  0
ARC
  5
1E0F3
  8
0
 10
4561.2596267155468013
 20
478.1158043703146063
 30
0.0
 40
0.0068364120999805
 50
187.5399515570524045
 51
254.2468371480950964
  0
LINE
  5
1E0F4
  8
0
 10
4561.200684059458581
 20
478.108364458537892
 30
0.0
 11
4561.2264975426587625
 21
478.1009127477378797
 31
0.0
  0
LINE
  5
1E0F5
  8
0
 10
4561.2319571903590258
 20
478.1009127477378797
 30
0.0
 11
4561.2577706736583423
 21
478.108364458537892
 31
0.0
  0
ARC
  5
1E0F6
  8
0
 10
4561.2277350358062904
 20
478.1057637079221081
 30
0.0
 40
0.0050063164099097
 50
255.6889220987355884
 51
287.3428937126843721
  0
ARC
  5
1E0F7
  8
0
 10
4561.2307198751495889
 20
478.1057704338451799
 30
0.0
 40
0.0050127899657327
 50
252.6780799925705026
 51
284.290104307074273
  0
LINE
  5
1E0F8
  8
0
 10
4561.1485187051594039
 20
478.1262645899170138
 30
0.0
 11
4561.1485187051594039
 21
478.1149073135379126
 31
0.0
  0
LINE
  5
1E0F9
  8
0
 10
4561.1721407523591552
 20
478.1339439611379021
 30
0.0
 11
4561.1721407523591552
 21
478.1009849891379986
 31
0.0
  0
ARC
  5
1E0FA
  8
0
 10
4561.1418691064909581
 20
478.1156937761679728
 30
0.0
 40
0.0066959454823001
 50
284.9583742200002803
 51
353.2548370748845059
  0
LINE
  5
1E0FB
  8
0
 10
4561.1957627996580413
 20
478.1262645898380015
 30
0.0
 11
4561.1957627996580413
 21
478.1149073135379126
 31
0.0
  0
ARC
  5
1E0FC
  8
0
 10
4561.2025401014470845
 20
478.1158043703146063
 30
0.0
 40
0.0068364120999805
 50
187.5399515570524045
 51
254.2468371480950964
  0
LINE
  5
1E0FD
  8
0
 10
4561.1435974453588642
 20
478.108364458537892
 30
0.0
 11
4561.1694109285590457
 21
478.1009127477378797
 31
0.0
  0
LINE
  5
1E0FE
  8
0
 10
4561.1748705762583995
 20
478.1009127477378797
 30
0.0
 11
4561.2006840595586254
 21
478.108364458537892
 31
0.0
  0
ARC
  5
1E0FF
  8
0
 10
4561.1706484217056641
 20
478.1057637079221081
 30
0.0
 40
0.0050063164099097
 50
255.6889220987355884
 51
287.3428937126843721
  0
ARC
  5
1E100
  8
0
 10
4561.1736332610507816
 20
478.1057704338451799
 30
0.0
 40
0.0050127899657327
 50
252.6780799925705026
 51
284.290104307074273
  0
LINE
  5
1E101
  8
0
 10
4561.1199753980590685
 20
478.1015453609169867
 30
0.0
 11
4561.1199753980590685
 21
478.0901880845378855
 31
0.0
  0
LINE
  5
1E102
  8
0
 10
4561.1435974452579103
 20
478.1092247321379887
 30
0.0
 11
4561.1435974452579103
 21
478.0762657601379146
 31
0.0
  0
ARC
  5
1E103
  8
0
 10
4561.1133257993906227
 20
478.0909745471680026
 30
0.0
 40
0.0066959454823001
 50
284.9583742200002803
 51
353.2548370748845059
  0
LINE
  5
1E104
  8
0
 10
4561.1672194925586155
 20
478.1015453608379744
 30
0.0
 11
4561.1672194925586155
 21
478.0901880845378855
 31
0.0
  0
ARC
  5
1E105
  8
0
 10
4561.1739967943467491
 20
478.0910851413145792
 30
0.0
 40
0.0068364120999805
 50
187.5399515570524045
 51
254.2468371480950964
  0
LINE
  5
1E106
  8
0
 10
4561.1150541382576193
 20
478.0836452295379218
 30
0.0
 11
4561.1408676214587103
 21
478.0761935187380232
 31
0.0
  0
LINE
  5
1E107
  8
0
 10
4561.1463272691589736
 20
478.0761935187380232
 30
0.0
 11
4561.1721407524582901
 21
478.0836452295379218
 31
0.0
  0
ARC
  5
1E108
  8
0
 10
4561.1421051146053287
 20
478.081044478922081
 30
0.0
 40
0.0050063164099097
 50
255.6889220987355884
 51
287.3428937126843721
  0
ARC
  5
1E109
  8
0
 10
4561.1450899539504462
 20
478.081051204845096
 30
0.0
 40
0.0050127899657327
 50
252.6780799925705026
 51
284.290104307074273
  0
LINE
  5
1E10A
  8
0
 10
4561.1770620121578759
 20
478.1015453609169867
 30
0.0
 11
4561.1770620121578759
 21
478.0901880845378855
 31
0.0
  0
LINE
  5
1E10B
  8
0
 10
4561.2006840593576271
 20
478.1092247321379887
 30
0.0
 11
4561.2006840593576271
 21
478.0762657601379146
 31
0.0
  0
ARC
  5
1E10C
  8
0
 10
4561.170412413491249
 20
478.0909745471680026
 30
0.0
 40
0.0066959454823001
 50
284.9583742200002803
 51
353.2548370748845059
  0
LINE
  5
1E10D
  8
0
 10
4561.2243061066583323
 20
478.1015453608379744
 30
0.0
 11
4561.2243061066583323
 21
478.0901880845378855
 31
0.0
  0
ARC
  5
1E10E
  8
0
 10
4561.2310834084473754
 20
478.0910851413145792
 30
0.0
 40
0.0068364120999805
 50
187.5399515570524045
 51
254.2468371480950964
  0
LINE
  5
1E10F
  8
0
 10
4561.1721407523591552
 20
478.0836452295379218
 30
0.0
 11
4561.1979542355584272
 21
478.0761935187380232
 31
0.0
  0
LINE
  5
1E110
  8
0
 10
4561.2034138832586905
 20
478.0761935187380232
 30
0.0
 11
4561.2292273665589164
 21
478.0836452295379218
 31
0.0
  0
ARC
  5
1E111
  8
0
 10
4561.199191728705955
 20
478.081044478922081
 30
0.0
 40
0.0050063164099097
 50
255.6889220987355884
 51
287.3428937126843721
  0
ARC
  5
1E112
  8
0
 10
4561.202176568050163
 20
478.081051204845096
 30
0.0
 40
0.0050127899657327
 50
252.6780799925705026
 51
284.290104307074273
  0
LINE
  5
1E113
  8
0
 10
4561.1101901221600201
 20
478.0492821369379044
 30
0.0
 11
4561.1350811372576572
 21
478.0564675541378961
 31
0.0
  0
LINE
  5
1E114
  8
0
 10
4561.1485187051594039
 20
478.0768261319170165
 30
0.0
 11
4561.1485187051594039
 21
478.0654688555379721
 31
0.0
  0
LINE
  5
1E115
  8
0
 10
4561.1721407523591552
 20
478.0845055031379047
 30
0.0
 11
4561.1721407523591552
 21
478.0515465311378875
 31
0.0
  0
ARC
  5
1E116
  8
0
 10
4561.1418691064909581
 20
478.0662553181679755
 30
0.0
 40
0.0066959454823001
 50
284.9583742200002803
 51
353.2548370748845059
  0
LINE
  5
1E117
  8
0
 10
4561.1957627996580413
 20
478.0768261318380041
 30
0.0
 11
4561.1957627996580413
 21
478.0654688555379721
 31
0.0
  0
ARC
  5
1E118
  8
0
 10
4561.2025401014470845
 20
478.0663659123144953
 30
0.0
 40
0.0068364120999805
 50
187.5399515570524045
 51
254.2468371480950964
  0
LINE
  5
1E119
  8
0
 10
4561.1435974453588642
 20
478.0589260005378947
 30
0.0
 11
4561.1694109285590457
 21
478.0514742897379961
 31
0.0
  0
LINE
  5
1E11A
  8
0
 10
4561.1748705762583995
 20
478.0514742897379961
 30
0.0
 11
4561.2006840595586254
 21
478.0589260005378947
 31
0.0
  0
ARC
  5
1E11B
  8
0
 10
4561.1706484217056641
 20
478.0563252499221107
 30
0.0
 40
0.0050063164099097
 50
255.6889220987355884
 51
287.3428937126843721
  0
ARC
  5
1E11C
  8
0
 10
4561.1736332610507816
 20
478.0563319758451257
 30
0.0
 40
0.0050127899657327
 50
252.6780799925705026
 51
284.290104307074273
  0
LINE
  5
1E11D
  8
0
 10
4561.1770620121578759
 20
478.0521069028170018
 30
0.0
 11
4561.1770620121578759
 21
478.0407496264380143
 31
0.0
  0
LINE
  5
1E11E
  8
0
 10
4561.2006840593576271
 20
478.0597862740378901
 30
0.0
 11
4561.2006840593576271
 21
478.0268273020379866
 31
0.0
  0
ARC
  5
1E11F
  8
0
 10
4561.170412413491249
 20
478.0415360890680176
 30
0.0
 40
0.0066959454823001
 50
284.9583742200002803
 51
353.2548370748845059
  0
LINE
  5
1E120
  8
0
 10
4561.2243061066583323
 20
478.0521069027378758
 30
0.0
 11
4561.2243061066583323
 21
478.0407496264380143
 31
0.0
  0
ARC
  5
1E121
  8
0
 10
4561.2310834084473754
 20
478.0416466832145943
 30
0.0
 40
0.0068364120999805
 50
187.5399515570524045
 51
254.2468371480950964
  0
LINE
  5
1E122
  8
0
 10
4561.1721407523591552
 20
478.03420677143788
 30
0.0
 11
4561.1979542355584272
 21
478.0267550606379814
 31
0.0
  0
LINE
  5
1E123
  8
0
 10
4561.2034138832586905
 20
478.0267550606379814
 30
0.0
 11
4561.2292273665589164
 21
478.03420677143788
 31
0.0
  0
ARC
  5
1E124
  8
0
 10
4561.199191728705955
 20
478.0316060208219824
 30
0.0
 40
0.0050063164099097
 50
255.6889220987355884
 51
287.3428937126843721
  0
ARC
  5
1E125
  8
0
 10
4561.202176568050163
 20
478.0316127467451111
 30
0.0
 40
0.0050127899657327
 50
252.6780799925705026
 51
284.290104307074273
  0
LINE
  5
1E126
  8
0
 10
4561.2056053192582112
 20
478.0273876738170884
 30
0.0
 11
4561.2056053192582112
 21
478.0160303974379872
 31
0.0
  0
LINE
  5
1E127
  8
0
 10
4561.2292273664579625
 20
478.0350670450379198
 30
0.0
 11
4561.2292273664579625
 21
478.0021080730379026
 31
0.0
  0
ARC
  5
1E128
  8
0
 10
4561.1989557205906749
 20
478.0168168600678769
 30
0.0
 40
0.0066959454823001
 50
284.9583742200002803
 51
353.2548370748845059
  0
LINE
  5
1E129
  8
0
 10
4561.2528494137577582
 20
478.0273876737379055
 30
0.0
 11
4561.2528494137577582
 21
478.0160303974379872
 31
0.0
  0
ARC
  5
1E12A
  8
0
 10
4561.2596267155468013
 20
478.016927454214624
 30
0.0
 40
0.0068364120999805
 50
187.5399515570524045
 51
254.2468371480950964
  0
LINE
  5
1E12B
  8
0
 10
4561.200684059458581
 20
478.0094875424380234
 30
0.0
 11
4561.2264975426587625
 21
478.0020358316378974
 31
0.0
  0
LINE
  5
1E12C
  8
0
 10
4561.2319571903590258
 20
478.0020358316378974
 30
0.0
 11
4561.2577706736583423
 21
478.0094875424380234
 31
0.0
  0
ARC
  5
1E12D
  8
0
 10
4561.2277350358062904
 20
478.0068867918220121
 30
0.0
 40
0.0050063164099097
 50
255.6889220987355884
 51
287.3428937126843721
  0
ARC
  5
1E12E
  8
0
 10
4561.2307198751495889
 20
478.006893517745084
 30
0.0
 40
0.0050127899657327
 50
252.6780799925705026
 51
284.290104307074273
  0
LINE
  5
1E12F
  8
0
 10
4561.2341486263585466
 20
478.0521069028170018
 30
0.0
 11
4561.2341486263585466
 21
478.0407496264380143
 31
0.0
  0
LINE
  5
1E130
  8
0
 10
4561.2577706735592074
 20
478.0597862740378901
 30
0.0
 11
4561.2577706735592074
 21
478.0268273020379866
 31
0.0
  0
ARC
  5
1E131
  8
0
 10
4561.2274990276919198
 20
478.0415360890680176
 30
0.0
 40
0.0066959454823001
 50
284.9583742200002803
 51
353.2548370748845059
  0
LINE
  5
1E132
  8
0
 10
4561.281392720859003
 20
478.0521069027378758
 30
0.0
 11
4561.281392720859003
 21
478.0407496264380143
 31
0.0
  0
ARC
  5
1E133
  8
0
 10
4561.2881700226480461
 20
478.0416466832145943
 30
0.0
 40
0.0068364120999805
 50
187.5399515570524045
 51
254.2468371480950964
  0
LINE
  5
1E134
  8
0
 10
4561.2292273665589164
 20
478.03420677143788
 30
0.0
 11
4561.2550408497590979
 21
478.0267550606379814
 31
0.0
  0
LINE
  5
1E135
  8
0
 10
4561.2605004974584517
 20
478.0267550606379814
 30
0.0
 11
4561.2863139807577681
 21
478.03420677143788
 31
0.0
  0
ARC
  5
1E136
  8
0
 10
4561.2562783429048068
 20
478.0316060208219824
 30
0.0
 40
0.0050063164099097
 50
255.6889220987355884
 51
287.3428937126843721
  0
ARC
  5
1E137
  8
0
 10
4561.2592631822499243
 20
478.0316127467451111
 30
0.0
 40
0.0050127899657327
 50
252.6780799925705026
 51
284.290104307074273
  0
LINE
  5
1E138
  8
0
 10
4561.2056053192582112
 20
478.0768261319170165
 30
0.0
 11
4561.2056053192582112
 21
478.0654688555379721
 31
0.0
  0
LINE
  5
1E139
  8
0
 10
4561.2292273664579625
 20
478.0845055031379047
 30
0.0
 11
4561.2292273664579625
 21
478.0515465311378875
 31
0.0
  0
ARC
  5
1E13A
  8
0
 10
4561.1989557205906749
 20
478.0662553181679755
 30
0.0
 40
0.0066959454823001
 50
284.9583742200002803
 51
353.2548370748845059
  0
LINE
  5
1E13B
  8
0
 10
4561.2528494137577582
 20
478.0768261318380041
 30
0.0
 11
4561.2528494137577582
 21
478.0654688555379721
 31
0.0
  0
ARC
  5
1E13C
  8
0
 10
4561.2596267155468013
 20
478.0663659123144953
 30
0.0
 40
0.0068364120999805
 50
187.5399515570524045
 51
254.2468371480950964
  0
LINE
  5
1E13D
  8
0
 10
4561.200684059458581
 20
478.0589260005378947
 30
0.0
 11
4561.2264975426587625
 21
478.0514742897379961
 31
0.0
  0
LINE
  5
1E13E
  8
0
 10
4561.2319571903590258
 20
478.0514742897379961
 30
0.0
 11
4561.2577706736583423
 21
478.0589260005378947
 31
0.0
  0
ARC
  5
1E13F
  8
0
 10
4561.2277350358062904
 20
478.0563252499221107
 30
0.0
 40
0.0050063164099097
 50
255.6889220987355884
 51
287.3428937126843721
  0
ARC
  5
1E140
  8
0
 10
4561.2307198751495889
 20
478.0563319758451257
 30
0.0
 40
0.0050127899657327
 50
252.6780799925705026
 51
284.290104307074273
  0
LINE
  5
1E141
  8
0
 10
4561.2341486263585466
 20
478.1015453609169867
 30
0.0
 11
4561.2341486263585466
 21
478.0901880845378855
 31
0.0
  0
LINE
  5
1E142
  8
0
 10
4561.2577706735592074
 20
478.1092247321379887
 30
0.0
 11
4561.2577706735592074
 21
478.0762657601379146
 31
0.0
  0
ARC
  5
1E143
  8
0
 10
4561.2274990276919198
 20
478.0909745471680026
 30
0.0
 40
0.0066959454823001
 50
284.9583742200002803
 51
353.2548370748845059
  0
LINE
  5
1E144
  8
0
 10
4561.281392720859003
 20
478.1015453608379744
 30
0.0
 11
4561.281392720859003
 21
478.0901880845378855
 31
0.0
  0
ARC
  5
1E145
  8
0
 10
4561.2881700226480461
 20
478.0910851413145792
 30
0.0
 40
0.0068364120999805
 50
187.5399515570524045
 51
254.2468371480950964
  0
LINE
  5
1E146
  8
0
 10
4561.2292273665589164
 20
478.0836452295379218
 30
0.0
 11
4561.2550408497590979
 21
478.0761935187380232
 31
0.0
  0
LINE
  5
1E147
  8
0
 10
4561.2605004974584517
 20
478.0761935187380232
 30
0.0
 11
4561.2863139807577681
 21
478.0836452295379218
 31
0.0
  0
ARC
  5
1E148
  8
0
 10
4561.2562783429048068
 20
478.081044478922081
 30
0.0
 40
0.0050063164099097
 50
255.6889220987355884
 51
287.3428937126843721
  0
ARC
  5
1E149
  8
0
 10
4561.2592631822499243
 20
478.081051204845096
 30
0.0
 40
0.0050127899657327
 50
252.6780799925705026
 51
284.290104307074273
  0
LINE
  5
1E14A
  8
0
 10
4561.262691933458882
 20
478.0768261319170165
 30
0.0
 11
4561.262691933458882
 21
478.0654688555379721
 31
0.0
  0
LINE
  5
1E14B
  8
0
 10
4561.2863139806577237
 20
478.0845055031379047
 30
0.0
 11
4561.2863139806577237
 21
478.0515465311378875
 31
0.0
  0
ARC
  5
1E14C
  8
0
 10
4561.2560423347913456
 20
478.0662553181679755
 30
0.0
 40
0.0066959454823001
 50
284.9583742200002803
 51
353.2548370748845059
  0
LINE
  5
1E14D
  8
0
 10
4561.3099360279584289
 20
478.0768261318380041
 30
0.0
 11
4561.3099360279584289
 21
478.0654688555379721
 31
0.0
  0
ARC
  5
1E14E
  8
0
 10
4561.3167133297465625
 20
478.0663659123144953
 30
0.0
 40
0.0068364120999805
 50
187.5399515570524045
 51
254.2468371480950964
  0
LINE
  5
1E14F
  8
0
 10
4561.2577706736583423
 20
478.0589260005378947
 30
0.0
 11
4561.2835841568594333
 21
478.0514742897379961
 31
0.0
  0
LINE
  5
1E150
  8
0
 10
4561.2890438045587871
 20
478.0514742897379961
 30
0.0
 11
4561.314857287859013
 21
478.0589260005378947
 31
0.0
  0
ARC
  5
1E151
  8
0
 10
4561.2848216500051421
 20
478.0563252499221107
 30
0.0
 40
0.0050063164099097
 50
255.6889220987355884
 51
287.3428937126843721
  0
ARC
  5
1E152
  8
0
 10
4561.2878064893502597
 20
478.0563319758451257
 30
0.0
 40
0.0050127899657327
 50
252.6780799925705026
 51
284.290104307074273
  0
LINE
  5
1E153
  8
0
 10
4561.2341486263585466
 20
478.1015453609169867
 30
0.0
 11
4561.2341486263585466
 21
478.0901880845378855
 31
0.0
  0
LINE
  5
1E154
  8
0
 10
4561.2577706735592074
 20
478.1092247321379887
 30
0.0
 11
4561.2577706735592074
 21
478.0762657601379146
 31
0.0
  0
ARC
  5
1E155
  8
0
 10
4561.2274990276919198
 20
478.0909745471680026
 30
0.0
 40
0.0066959454823001
 50
284.9583742200002803
 51
353.2548370748845059
  0
LINE
  5
1E156
  8
0
 10
4561.281392720859003
 20
478.1015453608379744
 30
0.0
 11
4561.281392720859003
 21
478.0901880845378855
 31
0.0
  0
ARC
  5
1E157
  8
0
 10
4561.2881700226480461
 20
478.0910851413145792
 30
0.0
 40
0.0068364120999805
 50
187.5399515570524045
 51
254.2468371480950964
  0
LINE
  5
1E158
  8
0
 10
4561.2292273665589164
 20
478.0836452295379218
 30
0.0
 11
4561.2550408497590979
 21
478.0761935187380232
 31
0.0
  0
LINE
  5
1E159
  8
0
 10
4561.2605004974584517
 20
478.0761935187380232
 30
0.0
 11
4561.2863139807577681
 21
478.0836452295379218
 31
0.0
  0
ARC
  5
1E15A
  8
0
 10
4561.2562783429048068
 20
478.081044478922081
 30
0.0
 40
0.0050063164099097
 50
255.6889220987355884
 51
287.3428937126843721
  0
ARC
  5
1E15B
  8
0
 10
4561.2592631822499243
 20
478.081051204845096
 30
0.0
 40
0.0050127899657327
 50
252.6780799925705026
 51
284.290104307074273
  0
LINE
  5
1E15C
  8
0
 10
4561.262691933458882
 20
478.1262645899170138
 30
0.0
 11
4561.262691933458882
 21
478.1149073135379126
 31
0.0
  0
LINE
  5
1E15D
  8
0
 10
4561.2863139806577237
 20
478.1339439611379021
 30
0.0
 11
4561.2863139806577237
 21
478.1009849891379986
 31
0.0
  0
ARC
  5
1E15E
  8
0
 10
4561.2560423347913456
 20
478.1156937761679728
 30
0.0
 40
0.0066959454823001
 50
284.9583742200002803
 51
353.2548370748845059
  0
LINE
  5
1E15F
  8
0
 10
4561.3099360279584289
 20
478.1262645898380015
 30
0.0
 11
4561.3099360279584289
 21
478.1149073135379126
 31
0.0
  0
ARC
  5
1E160
  8
0
 10
4561.3167133297465625
 20
478.1158043703146063
 30
0.0
 40
0.0068364120999805
 50
187.5399515570524045
 51
254.2468371480950964
  0
LINE
  5
1E161
  8
0
 10
4561.2577706736583423
 20
478.108364458537892
 30
0.0
 11
4561.2835841568594333
 21
478.1009127477378797
 31
0.0
  0
LINE
  5
1E162
  8
0
 10
4561.2890438045587871
 20
478.1009127477378797
 30
0.0
 11
4561.314857287859013
 21
478.108364458537892
 31
0.0
  0
ARC
  5
1E163
  8
0
 10
4561.2848216500051421
 20
478.1057637079221081
 30
0.0
 40
0.0050063164099097
 50
255.6889220987355884
 51
287.3428937126843721
  0
ARC
  5
1E164
  8
0
 10
4561.2878064893502597
 20
478.1057704338451799
 30
0.0
 40
0.0050127899657327
 50
252.6780799925705026
 51
284.290104307074273
  0
LINE
  5
1E165
  8
0
 10
4561.2912352405592173
 20
478.1509838190170854
 30
0.0
 11
4561.2912352405592173
 21
478.1396265426379273
 31
0.0
  0
LINE
  5
1E166
  8
0
 10
4561.3148572877589686
 20
478.1586631902379736
 30
0.0
 11
4561.3148572877589686
 21
478.1257042182378996
 31
0.0
  0
ARC
  5
1E167
  8
0
 10
4561.2845856418907715
 20
478.1404130052678738
 30
0.0
 40
0.0066959454823001
 50
284.9583742200002803
 51
353.2548370748845059
  0
LINE
  5
1E168
  8
0
 10
4561.3384793350578548
 20
478.1509838189379025
 30
0.0
 11
4561.3384793350578548
 21
478.1396265426379273
 31
0.0
  0
ARC
  5
1E169
  8
0
 10
4561.3452566368468979
 20
478.140523599414621
 30
0.0
 40
0.0068364120999805
 50
187.5399515570524045
 51
254.2468371480950964
  0
LINE
  5
1E16A
  8
0
 10
4561.2863139807577681
 20
478.1330836876379067
 30
0.0
 11
4561.3121274639588592
 21
478.1256319768380081
 31
0.0
  0
LINE
  5
1E16B
  8
0
 10
4561.317587111658213
 20
478.1256319768380081
 30
0.0
 11
4561.3434005949584389
 21
478.1330836876379067
 31
0.0
  0
ARC
  5
1E16C
  8
0
 10
4561.313364957104568
 20
478.1304829370220091
 30
0.0
 40
0.0050063164099097
 50
255.6889220987355884
 51
287.3428937126843721
  0
ARC
  5
1E16D
  8
0
 10
4561.316349796450595
 20
478.1304896629451946
 30
0.0
 40
0.0050127899657327
 50
252.6780799925705026
 51
284.290104307074273
  0
LINE
  5
1E16E
  8
0
 10
4561.262691933458882
 20
478.1757030480171125
 30
0.0
 11
4561.262691933458882
 21
478.1643457716378975
 31
0.0
  0
LINE
  5
1E16F
  8
0
 10
4561.2863139806577237
 20
478.183382419237887
 30
0.0
 11
4561.2863139806577237
 21
478.1504234472379835
 31
0.0
  0
ARC
  5
1E170
  8
0
 10
4561.2560423347913456
 20
478.1651322342680146
 30
0.0
 40
0.0066959454823001
 50
284.9583742200002803
 51
353.2548370748845059
  0
LINE
  5
1E171
  8
0
 10
4561.3099360279584289
 20
478.1757030479378727
 30
0.0
 11
4561.3099360279584289
 21
478.1643457716378975
 31
0.0
  0
ARC
  5
1E172
  8
0
 10
4561.3167133297465625
 20
478.1652428284145913
 30
0.0
 40
0.0068364120999805
 50
187.5399515570524045
 51
254.2468371480950964
  0
LINE
  5
1E173
  8
0
 10
4561.2577706736583423
 20
478.1578029166379906
 30
0.0
 11
4561.2835841568594333
 21
478.1503512058379215
 31
0.0
  0
LINE
  5
1E174
  8
0
 10
4561.2890438045587871
 20
478.1503512058379215
 30
0.0
 11
4561.314857287859013
 21
478.1578029166379906
 31
0.0
  0
ARC
  5
1E175
  8
0
 10
4561.2848216500051421
 20
478.1552021660219793
 30
0.0
 40
0.0050063164099097
 50
255.6889220987355884
 51
287.3428937126843721
  0
ARC
  5
1E176
  8
0
 10
4561.2878064893502597
 20
478.155208891945108
 30
0.0
 40
0.0050127899657327
 50
252.6780799925705026
 51
284.290104307074273
  0
LINE
  5
1E177
  8
0
 10
4561.2056053192582112
 20
478.1757030480171125
 30
0.0
 11
4561.2056053192582112
 21
478.1643457716378975
 31
0.0
  0
LINE
  5
1E178
  8
0
 10
4561.2292273664579625
 20
478.183382419237887
 30
0.0
 11
4561.2292273664579625
 21
478.1504234472379835
 31
0.0
  0
ARC
  5
1E179
  8
0
 10
4561.1989557205906749
 20
478.1651322342680146
 30
0.0
 40
0.0066959454823001
 50
284.9583742200002803
 51
353.2548370748845059
  0
LINE
  5
1E17A
  8
0
 10
4561.2528494137577582
 20
478.1757030479378727
 30
0.0
 11
4561.2528494137577582
 21
478.1643457716378975
 31
0.0
  0
ARC
  5
1E17B
  8
0
 10
4561.2596267155468013
 20
478.1652428284145913
 30
0.0
 40
0.0068364120999805
 50
187.5399515570524045
 51
254.2468371480950964
  0
LINE
  5
1E17C
  8
0
 10
4561.200684059458581
 20
478.1578029166379906
 30
0.0
 11
4561.2264975426587625
 21
478.1503512058379215
 31
0.0
  0
LINE
  5
1E17D
  8
0
 10
4561.2319571903590258
 20
478.1503512058379215
 30
0.0
 11
4561.2577706736583423
 21
478.1578029166379906
 31
0.0
  0
ARC
  5
1E17E
  8
0
 10
4561.2277350358062904
 20
478.1552021660219793
 30
0.0
 40
0.0050063164099097
 50
255.6889220987355884
 51
287.3428937126843721
  0
ARC
  5
1E17F
  8
0
 10
4561.2307198751495889
 20
478.155208891945108
 30
0.0
 40
0.0050127899657327
 50
252.6780799925705026
 51
284.290104307074273
  0
LINE
  5
1E180
  8
0
 10
4561.1485187051594039
 20
478.1757030480171125
 30
0.0
 11
4561.1485187051594039
 21
478.1643457716378975
 31
0.0
  0
LINE
  5
1E181
  8
0
 10
4561.1721407523591552
 20
478.183382419237887
 30
0.0
 11
4561.1721407523591552
 21
478.1504234472379835
 31
0.0
  0
ARC
  5
1E182
  8
0
 10
4561.1418691064909581
 20
478.1651322342680146
 30
0.0
 40
0.0066959454823001
 50
284.9583742200002803
 51
353.2548370748845059
  0
LINE
  5
1E183
  8
0
 10
4561.1957627996580413
 20
478.1757030479378727
 30
0.0
 11
4561.1957627996580413
 21
478.1643457716378975
 31
0.0
  0
ARC
  5
1E184
  8
0
 10
4561.2025401014470845
 20
478.1652428284145913
 30
0.0
 40
0.0068364120999805
 50
187.5399515570524045
 51
254.2468371480950964
  0
LINE
  5
1E185
  8
0
 10
4561.1435974453588642
 20
478.1578029166379906
 30
0.0
 11
4561.1694109285590457
 21
478.1503512058379215
 31
0.0
  0
LINE
  5
1E186
  8
0
 10
4561.1748705762583995
 20
478.1503512058379215
 30
0.0
 11
4561.2006840595586254
 21
478.1578029166379906
 31
0.0
  0
ARC
  5
1E187
  8
0
 10
4561.1706484217056641
 20
478.1552021660219793
 30
0.0
 40
0.0050063164099097
 50
255.6889220987355884
 51
287.3428937126843721
  0
ARC
  5
1E188
  8
0
 10
4561.1736332610507816
 20
478.155208891945108
 30
0.0
 40
0.0050127899657327
 50
252.6780799925705026
 51
284.290104307074273
  0
LINE
  5
1E189
  8
0
 10
4561.1199753980590685
 20
478.1509838190170854
 30
0.0
 11
4561.1199753980590685
 21
478.1396265426379273
 31
0.0
  0
LINE
  5
1E18A
  8
0
 10
4561.1435974452579103
 20
478.1586631902379736
 30
0.0
 11
4561.1435974452579103
 21
478.1257042182378996
 31
0.0
  0
ARC
  5
1E18B
  8
0
 10
4561.1133257993906227
 20
478.1404130052678738
 30
0.0
 40
0.0066959454823001
 50
284.9583742200002803
 51
353.2548370748845059
  0
LINE
  5
1E18C
  8
0
 10
4561.1672194925586155
 20
478.1509838189379025
 30
0.0
 11
4561.1672194925586155
 21
478.1396265426379273
 31
0.0
  0
ARC
  5
1E18D
  8
0
 10
4561.1739967943467491
 20
478.140523599414621
 30
0.0
 40
0.0068364120999805
 50
187.5399515570524045
 51
254.2468371480950964
  0
LINE
  5
1E18E
  8
0
 10
4561.1150541382576193
 20
478.1330836876379067
 30
0.0
 11
4561.1408676214587103
 21
478.1256319768380081
 31
0.0
  0
LINE
  5
1E18F
  8
0
 10
4561.1463272691589736
 20
478.1256319768380081
 30
0.0
 11
4561.1721407524582901
 21
478.1330836876379067
 31
0.0
  0
ARC
  5
1E190
  8
0
 10
4561.1421051146053287
 20
478.1304829370220091
 30
0.0
 40
0.0050063164099097
 50
255.6889220987355884
 51
287.3428937126843721
  0
ARC
  5
1E191
  8
0
 10
4561.1450899539504462
 20
478.1304896629451946
 30
0.0
 40
0.0050127899657327
 50
252.6780799925705026
 51
284.290104307074273
  0
LINE
  5
1E192
  8
0
 10
4561.1150541381575749
 20
478.1339439611379021
 30
0.0
 11
4561.1150541381575749
 21
478.1009849891379986
 31
0.0
  0
LINE
  5
1E193
  8
0
 10
4561.1386761854591896
 20
478.1262645898380015
 30
0.0
 11
4561.1386761854591896
 21
478.1149073135379126
 31
0.0
  0
ARC
  5
1E194
  8
0
 10
4561.1454534872482327
 20
478.1158043703146063
 30
0.0
 40
0.0068364120999805
 50
187.5399515570524045
 51
254.2468371480950964
  0
LINE
  5
1E195
  8
0
 10
4561.0853563020018555
 20
478.1086977424005795
 30
0.0
 11
4561.112324314358375
 21
478.1009127477378797
 31
0.0
  0
LINE
  5
1E196
  8
0
 10
4561.1177839620586383
 20
478.1009127477378797
 30
0.0
 11
4561.1435974453588642
 21
478.108364458537892
 31
0.0
  0
ARC
  5
1E197
  8
0
 10
4561.1135618075059028
 20
478.1057637079221081
 30
0.0
 40
0.0050063164099097
 50
255.6889220987355884
 51
287.3428937126843721
  0
ARC
  5
1E198
  8
0
 10
4561.1165466468492014
 20
478.1057704338451799
 30
0.0
 40
0.0050127899657327
 50
252.6780799925705026
 51
284.290104307074273
  0
LINE
  5
1E199
  8
0
 10
4561.1770620121578759
 20
478.2004222771170134
 30
0.0
 11
4561.1770620121578759
 21
478.1890650007380259
 31
0.0
  0
LINE
  5
1E19A
  8
0
 10
4561.2006840593576271
 20
478.2081016483379017
 30
0.0
 11
4561.2006840593576271
 21
478.1751426763379982
 31
0.0
  0
ARC
  5
1E19B
  8
0
 10
4561.170412413491249
 20
478.1898514633679724
 30
0.0
 40
0.0066959454823001
 50
284.9583742200002803
 51
353.2548370748845059
  0
LINE
  5
1E19C
  8
0
 10
4561.2243061066583323
 20
478.2004222770380011
 30
0.0
 11
4561.2243061066583323
 21
478.1890650007380259
 31
0.0
  0
ARC
  5
1E19D
  8
0
 10
4561.2310834084473754
 20
478.1899620575146059
 30
0.0
 40
0.0068364120999805
 50
187.5399515570524045
 51
254.2468371480950964
  0
LINE
  5
1E19E
  8
0
 10
4561.1721407523591552
 20
478.1825221457378916
 30
0.0
 11
4561.1979542355584272
 21
478.175070434937993
 31
0.0
  0
LINE
  5
1E19F
  8
0
 10
4561.2034138832586905
 20
478.175070434937993
 30
0.0
 11
4561.2292273665589164
 21
478.1825221457378916
 31
0.0
  0
ARC
  5
1E1A0
  8
0
 10
4561.199191728705955
 20
478.1799213951221077
 30
0.0
 40
0.0050063164099097
 50
255.6889220987355884
 51
287.3428937126843721
  0
ARC
  5
1E1A1
  8
0
 10
4561.202176568050163
 20
478.1799281210451227
 30
0.0
 40
0.0050127899657327
 50
252.6780799925705026
 51
284.290104307074273
  0
LINE
  5
1E1A2
  8
0
 10
4561.2341486263585466
 20
478.2004222771170134
 30
0.0
 11
4561.2341486263585466
 21
478.1890650007380259
 31
0.0
  0
LINE
  5
1E1A3
  8
0
 10
4561.2577706735592074
 20
478.2081016483379017
 30
0.0
 11
4561.2577706735592074
 21
478.1751426763379982
 31
0.0
  0
ARC
  5
1E1A4
  8
0
 10
4561.2274990276919198
 20
478.1898514633679724
 30
0.0
 40
0.0066959454823001
 50
284.9583742200002803
 51
353.2548370748845059
  0
LINE
  5
1E1A5
  8
0
 10
4561.281392720859003
 20
478.2004222770380011
 30
0.0
 11
4561.281392720859003
 21
478.1890650007380259
 31
0.0
  0
ARC
  5
1E1A6
  8
0
 10
4561.2881700226480461
 20
478.1899620575146059
 30
0.0
 40
0.0068364120999805
 50
187.5399515570524045
 51
254.2468371480950964
  0
LINE
  5
1E1A7
  8
0
 10
4561.2292273665589164
 20
478.1825221457378916
 30
0.0
 11
4561.2550408497590979
 21
478.175070434937993
 31
0.0
  0
LINE
  5
1E1A8
  8
0
 10
4561.2605004974584517
 20
478.175070434937993
 30
0.0
 11
4561.2863139807577681
 21
478.1825221457378916
 31
0.0
  0
ARC
  5
1E1A9
  8
0
 10
4561.2562783429048068
 20
478.1799213951221077
 30
0.0
 40
0.0050063164099097
 50
255.6889220987355884
 51
287.3428937126843721
  0
ARC
  5
1E1AA
  8
0
 10
4561.2592631822499243
 20
478.1799281210451227
 30
0.0
 40
0.0050127899657327
 50
252.6780799925705026
 51
284.290104307074273
  0
LINE
  5
1E1AB
  8
0
 10
4561.2056053192582112
 20
478.2212332120608949
 30
0.0
 11
4561.2056053192582112
 21
478.2137842297378825
 31
0.0
  0
LINE
  5
1E1AC
  8
0
 10
4561.2292273664579625
 20
478.2298420685414158
 30
0.0
 11
4561.2292273664579625
 21
478.1998619053379116
 31
0.0
  0
ARC
  5
1E1AD
  8
0
 10
4561.1989557205906749
 20
478.2145706923679995
 30
0.0
 40
0.0066959454823001
 50
284.9583742200002803
 51
353.2548370748845059
  0
LINE
  5
1E1AE
  8
0
 10
4561.2528494137577582
 20
478.2251415060379145
 30
0.0
 11
4561.2528494137577582
 21
478.2137842297378825
 31
0.0
  0
ARC
  5
1E1AF
  8
0
 10
4561.2596267155468013
 20
478.2146812865145762
 30
0.0
 40
0.0068364120999805
 50
187.5399515570524045
 51
254.2468371480950964
  0
LINE
  5
1E1B0
  8
0
 10
4561.200684059458581
 20
478.2072413747379187
 30
0.0
 11
4561.2264975426587625
 21
478.1997896639380201
 31
0.0
  0
LINE
  5
1E1B1
  8
0
 10
4561.2319571903590258
 20
478.1997896639380201
 30
0.0
 11
4561.2577706736583423
 21
478.2072413747379187
 31
0.0
  0
ARC
  5
1E1B2
  8
0
 10
4561.2277350358062904
 20
478.2046406241220211
 30
0.0
 40
0.0050063164099097
 50
255.6889220987355884
 51
287.3428937126843721
  0
ARC
  5
1E1B3
  8
0
 10
4561.2307198751495889
 20
478.2046473500450929
 30
0.0
 40
0.0050127899657327
 50
252.6780799925705026
 51
284.290104307074273
  0
LINE
  5
1E1B4
  8
0
 10
4561.262691933458882
 20
478.2251415061169837
 30
0.0
 11
4561.262691933458882
 21
478.2137842297378825
 31
0.0
  0
LINE
  5
1E1B5
  8
0
 10
4561.2863139806577237
 20
478.2328208773378719
 30
0.0
 11
4561.2863139806577237
 21
478.1998619053379116
 31
0.0
  0
ARC
  5
1E1B6
  8
0
 10
4561.2560423347913456
 20
478.2145706923679995
 30
0.0
 40
0.0066959454823001
 50
284.9583742200002803
 51
353.2548370748845059
  0
LINE
  5
1E1B7
  8
0
 10
4561.3099360279584289
 20
478.2251415060379145
 30
0.0
 11
4561.3099360279584289
 21
478.2137842297378825
 31
0.0
  0
ARC
  5
1E1B8
  8
0
 10
4561.3167133297465625
 20
478.2146812865145762
 30
0.0
 40
0.0068364120999805
 50
187.5399515570524045
 51
254.2468371480950964
  0
LINE
  5
1E1B9
  8
0
 10
4561.2577706736583423
 20
478.2072413747379187
 30
0.0
 11
4561.2835841568594333
 21
478.1997896639380201
 31
0.0
  0
LINE
  5
1E1BA
  8
0
 10
4561.2890438045587871
 20
478.1997896639380201
 30
0.0
 11
4561.314857287859013
 21
478.2072413747379187
 31
0.0
  0
ARC
  5
1E1BB
  8
0
 10
4561.2848216500051421
 20
478.2046406241220211
 30
0.0
 40
0.0050063164099097
 50
255.6889220987355884
 51
287.3428937126843721
  0
ARC
  5
1E1BC
  8
0
 10
4561.2878064893502597
 20
478.2046473500450929
 30
0.0
 40
0.0050127899657327
 50
252.6780799925705026
 51
284.290104307074273
  0
LINE
  5
1E1BD
  8
0
 10
4561.3197785476577337
 20
478.2251415061169837
 30
0.0
 11
4561.3197785476577337
 21
478.2137842297378825
 31
0.0
  0
LINE
  5
1E1BE
  8
0
 10
4561.3434005948583945
 20
478.2328208773378719
 30
0.0
 11
4561.3434005948583945
 21
478.1998619053379116
 31
0.0
  0
ARC
  5
1E1BF
  8
0
 10
4561.3131289489920164
 20
478.2145706923679995
 30
0.0
 40
0.0066959454823001
 50
284.9583742200002803
 51
353.2548370748845059
  0
LINE
  5
1E1C0
  8
0
 10
4561.3670226421581901
 20
478.2251415060379145
 30
0.0
 11
4561.3670226421581901
 21
478.2137842297378825
 31
0.0
  0
ARC
  5
1E1C1
  8
0
 10
4561.3737999439481428
 20
478.2146812865145762
 30
0.0
 40
0.0068364120999805
 50
187.5399515570524045
 51
254.2468371480950964
  0
LINE
  5
1E1C2
  8
0
 10
4561.314857287859013
 20
478.2072413747379187
 30
0.0
 11
4561.340670771058285
 21
478.1997896639380201
 31
0.0
  0
LINE
  5
1E1C3
  8
0
 10
4561.3461304187576388
 20
478.1997896639380201
 30
0.0
 11
4561.3719439020587743
 21
478.2072413747379187
 31
0.0
  0
ARC
  5
1E1C4
  8
0
 10
4561.3419082642058129
 20
478.2046406241220211
 30
0.0
 40
0.0050063164099097
 50
255.6889220987355884
 51
287.3428937126843721
  0
ARC
  5
1E1C5
  8
0
 10
4561.3448931035509304
 20
478.2046473500450929
 30
0.0
 40
0.0050127899657327
 50
252.6780799925705026
 51
284.290104307074273
  0
LINE
  5
1E1C6
  8
0
 10
4561.2912352405592173
 20
478.2004222771170134
 30
0.0
 11
4561.2912352405592173
 21
478.1890650007380259
 31
0.0
  0
LINE
  5
1E1C7
  8
0
 10
4561.3148572877589686
 20
478.2081016483379017
 30
0.0
 11
4561.3148572877589686
 21
478.1751426763379982
 31
0.0
  0
ARC
  5
1E1C8
  8
0
 10
4561.2845856418907715
 20
478.1898514633679724
 30
0.0
 40
0.0066959454823001
 50
284.9583742200002803
 51
353.2548370748845059
  0
LINE
  5
1E1C9
  8
0
 10
4561.3384793350578548
 20
478.2004222770380011
 30
0.0
 11
4561.3384793350578548
 21
478.1890650007380259
 31
0.0
  0
ARC
  5
1E1CA
  8
0
 10
4561.3452566368468979
 20
478.1899620575146059
 30
0.0
 40
0.0068364120999805
 50
187.5399515570524045
 51
254.2468371480950964
  0
LINE
  5
1E1CB
  8
0
 10
4561.2863139807577681
 20
478.1825221457378916
 30
0.0
 11
4561.3121274639588592
 21
478.175070434937993
 31
0.0
  0
LINE
  5
1E1CC
  8
0
 10
4561.317587111658213
 20
478.175070434937993
 30
0.0
 11
4561.3434005949584389
 21
478.1825221457378916
 31
0.0
  0
ARC
  5
1E1CD
  8
0
 10
4561.313364957104568
 20
478.1799213951221077
 30
0.0
 40
0.0050063164099097
 50
255.6889220987355884
 51
287.3428937126843721
  0
ARC
  5
1E1CE
  8
0
 10
4561.316349796450595
 20
478.1799281210451227
 30
0.0
 40
0.0050127899657327
 50
252.6780799925705026
 51
284.290104307074273
  0
LINE
  5
1E1CF
  8
0
 10
4561.3197785476577337
 20
478.1757030480171125
 30
0.0
 11
4561.3197785476577337
 21
478.1643457716378975
 31
0.0
  0
LINE
  5
1E1D0
  8
0
 10
4561.3434005948583945
 20
478.183382419237887
 30
0.0
 11
4561.3434005948583945
 21
478.1504234472379835
 31
0.0
  0
ARC
  5
1E1D1
  8
0
 10
4561.3131289489920164
 20
478.1651322342680146
 30
0.0
 40
0.0066959454823001
 50
284.9583742200002803
 51
353.2548370748845059
  0
LINE
  5
1E1D2
  8
0
 10
4561.3670226421581901
 20
478.1757030479378727
 30
0.0
 11
4561.3670226421581901
 21
478.1643457716378975
 31
0.0
  0
ARC
  5
1E1D3
  8
0
 10
4561.3737999439481428
 20
478.1652428284145913
 30
0.0
 40
0.0068364120999805
 50
187.5399515570524045
 51
254.2468371480950964
  0
LINE
  5
1E1D4
  8
0
 10
4561.314857287859013
 20
478.1578029166379906
 30
0.0
 11
4561.340670771058285
 21
478.1503512058379215
 31
0.0
  0
LINE
  5
1E1D5
  8
0
 10
4561.3461304187576388
 20
478.1503512058379215
 30
0.0
 11
4561.3719439020587743
 21
478.1578029166379906
 31
0.0
  0
ARC
  5
1E1D6
  8
0
 10
4561.3419082642058129
 20
478.1552021660219793
 30
0.0
 40
0.0050063164099097
 50
255.6889220987355884
 51
287.3428937126843721
  0
ARC
  5
1E1D7
  8
0
 10
4561.3448931035509304
 20
478.155208891945108
 30
0.0
 40
0.0050127899657327
 50
252.6780799925705026
 51
284.290104307074273
  0
LINE
  5
1E1D8
  8
0
 10
4561.3483218547589786
 20
478.2004222771170134
 30
0.0
 11
4561.3483218547589786
 21
478.1890650007380259
 31
0.0
  0
LINE
  5
1E1D9
  8
0
 10
4561.3719439019587298
 20
478.2081016483379017
 30
0.0
 11
4561.3719439019587298
 21
478.1751426763379982
 31
0.0
  0
ARC
  5
1E1DA
  8
0
 10
4561.3416722560914423
 20
478.1898514633679724
 30
0.0
 40
0.0066959454823001
 50
284.9583742200002803
 51
353.2548370748845059
  0
LINE
  5
1E1DB
  8
0
 10
4561.395565949259435
 20
478.2004222770380011
 30
0.0
 11
4561.395565949259435
 21
478.1890650007380259
 31
0.0
  0
ARC
  5
1E1DC
  8
0
 10
4561.4023432510475686
 20
478.1899620575146059
 30
0.0
 40
0.0068364120999805
 50
187.5399515570524045
 51
254.2468371480950964
  0
LINE
  5
1E1DD
  8
0
 10
4561.3434005949584389
 20
478.1825221457378916
 30
0.0
 11
4561.3692140781577109
 21
478.175070434937993
 31
0.0
  0
LINE
  5
1E1DE
  8
0
 10
4561.3746737258579742
 20
478.175070434937993
 30
0.0
 11
4561.4004872091591096
 21
478.1825221457378916
 31
0.0
  0
ARC
  5
1E1DF
  8
0
 10
4561.3704515713052388
 20
478.1799213951221077
 30
0.0
 40
0.0050063164099097
 50
255.6889220987355884
 51
287.3428937126843721
  0
ARC
  5
1E1E0
  8
0
 10
4561.3734364106503563
 20
478.1799281210451227
 30
0.0
 40
0.0050127899657327
 50
252.6780799925705026
 51
284.290104307074273
  0
LINE
  5
1E1E1
  8
0
 10
4561.3483218547589786
 20
478.2498607352171121
 30
0.0
 11
4561.3483218547589786
 21
478.2385034588378971
 31
0.0
  0
LINE
  5
1E1E2
  8
0
 10
4561.3719439019587298
 20
478.2543157996450987
 30
0.0
 11
4561.3719439019587298
 21
478.2245811344379263
 31
0.0
  0
ARC
  5
1E1E3
  8
0
 10
4561.3416722560914423
 20
478.2392899214680142
 30
0.0
 40
0.0066959454823001
 50
284.9583742200002803
 51
353.2548370748845059
  0
LINE
  5
1E1E4
  8
0
 10
4561.395565949259435
 20
478.249860735137986
 30
0.0
 11
4561.395565949259435
 21
478.2385034588378971
 31
0.0
  0
ARC
  5
1E1E5
  8
0
 10
4561.4023432510475686
 20
478.2394005156145909
 30
0.0
 40
0.0068364120999805
 50
187.5399515570524045
 51
254.2468371480950964
  0
LINE
  5
1E1E6
  8
0
 10
4561.3434005949584389
 20
478.2319606038378765
 30
0.0
 11
4561.3692140781577109
 21
478.2245088930379779
 31
0.0
  0
LINE
  5
1E1E7
  8
0
 10
4561.3746737258579742
 20
478.2245088930379779
 30
0.0
 11
4561.4004872091591096
 21
478.2319606038378765
 31
0.0
  0
ARC
  5
1E1E8
  8
0
 10
4561.3704515713052388
 20
478.2293598532220926
 30
0.0
 40
0.0050063164099097
 50
255.6889220987355884
 51
287.3428937126843721
  0
ARC
  5
1E1E9
  8
0
 10
4561.3734364106503563
 20
478.2293665791451076
 30
0.0
 40
0.0050127899657327
 50
252.6780799925705026
 51
284.290104307074273
  0
LINE
  5
1E1EA
  8
0
 10
4561.2912352405592173
 20
478.2451792769903136
 30
0.0
 11
4561.2912352405592173
 21
478.2385034588378971
 31
0.0
  0
LINE
  5
1E1EB
  8
0
 10
4561.3148572877589686
 20
478.2489778860243064
 30
0.0
 11
4561.3148572877589686
 21
478.2245811344379263
 31
0.0
  0
ARC
  5
1E1EC
  8
0
 10
4561.2845856418907715
 20
478.2392899214680142
 30
0.0
 40
0.0066959454823001
 50
284.9583742200002803
 51
353.2548370748845059
  0
LINE
  5
1E1ED
  8
0
 10
4561.3384793350578548
 20
478.249860735137986
 30
0.0
 11
4561.3384793350578548
 21
478.2385034588378971
 31
0.0
  0
ARC
  5
1E1EE
  8
0
 10
4561.3452566368468979
 20
478.2394005156145909
 30
0.0
 40
0.0068364120999805
 50
187.5399515570524045
 51
254.2468371480950964
  0
LINE
  5
1E1EF
  8
0
 10
4561.2863139807577681
 20
478.2319606038378765
 30
0.0
 11
4561.3121274639588592
 21
478.2245088930379779
 31
0.0
  0
LINE
  5
1E1F0
  8
0
 10
4561.317587111658213
 20
478.2245088930379779
 30
0.0
 11
4561.3434005949584389
 21
478.2319606038378765
 31
0.0
  0
ARC
  5
1E1F1
  8
0
 10
4561.313364957104568
 20
478.2293598532220926
 30
0.0
 40
0.0050063164099097
 50
255.6889220987355884
 51
287.3428937126843721
  0
ARC
  5
1E1F2
  8
0
 10
4561.316349796450595
 20
478.2293665791451076
 30
0.0
 40
0.0050127899657327
 50
252.6780799925705026
 51
284.290104307074273
  0
LINE
  5
1E1F3
  8
0
 10
4561.2577706735592074
 20
478.2381168165427994
 30
0.0
 11
4561.2577706735592074
 21
478.2245811344379263
 31
0.0
  0
LINE
  5
1E1F4
  8
0
 10
4561.281392720859003
 20
478.2433160316580825
 30
0.0
 11
4561.281392720859003
 21
478.2385034588378971
 31
0.0
  0
ARC
  5
1E1F5
  8
0
 10
4561.2881700226480461
 20
478.2394005156145909
 30
0.0
 40
0.0068364120999805
 50
187.5399515570524045
 51
254.2468371480950964
  0
LINE
  5
1E1F6
  8
0
 10
4561.2326799013244454
 20
478.230963942891492
 30
0.0
 11
4561.2550408497590979
 21
478.2245088930379779
 31
0.0
  0
LINE
  5
1E1F7
  8
0
 10
4561.2605004974584517
 20
478.2245088930379779
 30
0.0
 11
4561.2863139807577681
 21
478.2319606038378765
 31
0.0
  0
ARC
  5
1E1F8
  8
0
 10
4561.2562783429048068
 20
478.2293598532220926
 30
0.0
 40
0.0050063164099097
 50
255.6889220987355884
 51
287.3428937126843721
  0
ARC
  5
1E1F9
  8
0
 10
4561.2592631822499243
 20
478.2293665791451076
 30
0.0
 40
0.0050127899657327
 50
252.6780799925705026
 51
284.290104307074273
  0
LINE
  5
1E1FA
  8
0
 10
4561.3197785476577337
 20
478.1262645899170138
 30
0.0
 11
4561.3197785476577337
 21
478.1149073135379126
 31
0.0
  0
LINE
  5
1E1FB
  8
0
 10
4561.3434005948583945
 20
478.1339439611379021
 30
0.0
 11
4561.3434005948583945
 21
478.1009849891379986
 31
0.0
  0
ARC
  5
1E1FC
  8
0
 10
4561.3131289489920164
 20
478.1156937761679728
 30
0.0
 40
0.0066959454823001
 50
284.9583742200002803
 51
353.2548370748845059
  0
LINE
  5
1E1FD
  8
0
 10
4561.3670226421581901
 20
478.1262645898380015
 30
0.0
 11
4561.3670226421581901
 21
478.1149073135379126
 31
0.0
  0
ARC
  5
1E1FE
  8
0
 10
4561.3737999439481428
 20
478.1158043703146063
 30
0.0
 40
0.0068364120999805
 50
187.5399515570524045
 51
254.2468371480950964
  0
LINE
  5
1E1FF
  8
0
 10
4561.314857287859013
 20
478.108364458537892
 30
0.0
 11
4561.340670771058285
 21
478.1009127477378797
 31
0.0
  0
LINE
  5
1E200
  8
0
 10
4561.3461304187576388
 20
478.1009127477378797
 30
0.0
 11
4561.3719439020587743
 21
478.108364458537892
 31
0.0
  0
ARC
  5
1E201
  8
0
 10
4561.3419082642058129
 20
478.1057637079221081
 30
0.0
 40
0.0050063164099097
 50
255.6889220987355884
 51
287.3428937126843721
  0
ARC
  5
1E202
  8
0
 10
4561.3448931035509304
 20
478.1057704338451799
 30
0.0
 40
0.0050127899657327
 50
252.6780799925705026
 51
284.290104307074273
  0
LINE
  5
1E203
  8
0
 10
4561.2912352405592173
 20
478.1015453609169867
 30
0.0
 11
4561.2912352405592173
 21
478.0901880845378855
 31
0.0
  0
LINE
  5
1E204
  8
0
 10
4561.3148572877589686
 20
478.1092247321379887
 30
0.0
 11
4561.3148572877589686
 21
478.0762657601379146
 31
0.0
  0
ARC
  5
1E205
  8
0
 10
4561.2845856418907715
 20
478.0909745471680026
 30
0.0
 40
0.0066959454823001
 50
284.9583742200002803
 51
353.2548370748845059
  0
LINE
  5
1E206
  8
0
 10
4561.3384793350578548
 20
478.1015453608379744
 30
0.0
 11
4561.3384793350578548
 21
478.0901880845378855
 31
0.0
  0
ARC
  5
1E207
  8
0
 10
4561.3452566368468979
 20
478.0910851413145792
 30
0.0
 40
0.0068364120999805
 50
187.5399515570524045
 51
254.2468371480950964
  0
LINE
  5
1E208
  8
0
 10
4561.2863139807577681
 20
478.0836452295379218
 30
0.0
 11
4561.3121274639588592
 21
478.0761935187380232
 31
0.0
  0
LINE
  5
1E209
  8
0
 10
4561.317587111658213
 20
478.0761935187380232
 30
0.0
 11
4561.3434005949584389
 21
478.0836452295379218
 31
0.0
  0
ARC
  5
1E20A
  8
0
 10
4561.313364957104568
 20
478.081044478922081
 30
0.0
 40
0.0050063164099097
 50
255.6889220987355884
 51
287.3428937126843721
  0
ARC
  5
1E20B
  8
0
 10
4561.316349796450595
 20
478.081051204845096
 30
0.0
 40
0.0050127899657327
 50
252.6780799925705026
 51
284.290104307074273
  0
LINE
  5
1E20C
  8
0
 10
4561.3197785476577337
 20
478.0768261319170165
 30
0.0
 11
4561.3197785476577337
 21
478.0654688555379721
 31
0.0
  0
LINE
  5
1E20D
  8
0
 10
4561.3434005948583945
 20
478.0845055031379047
 30
0.0
 11
4561.3434005948583945
 21
478.0515465311378875
 31
0.0
  0
ARC
  5
1E20E
  8
0
 10
4561.3131289489920164
 20
478.0662553181679755
 30
0.0
 40
0.0066959454823001
 50
284.9583742200002803
 51
353.2548370748845059
  0
LINE
  5
1E20F
  8
0
 10
4561.3670226421581901
 20
478.0768261318380041
 30
0.0
 11
4561.3670226421581901
 21
478.0654688555379721
 31
0.0
  0
ARC
  5
1E210
  8
0
 10
4561.3737999439481428
 20
478.0663659123144953
 30
0.0
 40
0.0068364120999805
 50
187.5399515570524045
 51
254.2468371480950964
  0
LINE
  5
1E211
  8
0
 10
4561.314857287859013
 20
478.0589260005378947
 30
0.0
 11
4561.340670771058285
 21
478.0514742897379961
 31
0.0
  0
LINE
  5
1E212
  8
0
 10
4561.3461304187576388
 20
478.0514742897379961
 30
0.0
 11
4561.3719439020587743
 21
478.0589260005378947
 31
0.0
  0
ARC
  5
1E213
  8
0
 10
4561.3419082642058129
 20
478.0563252499221107
 30
0.0
 40
0.0050063164099097
 50
255.6889220987355884
 51
287.3428937126843721
  0
ARC
  5
1E214
  8
0
 10
4561.3448931035509304
 20
478.0563319758451257
 30
0.0
 40
0.0050127899657327
 50
252.6780799925705026
 51
284.290104307074273
  0
LINE
  5
1E215
  8
0
 10
4561.2912352405592173
 20
478.0521069028170018
 30
0.0
 11
4561.2912352405592173
 21
478.0407496264380143
 31
0.0
  0
LINE
  5
1E216
  8
0
 10
4561.3148572877589686
 20
478.0597862740378901
 30
0.0
 11
4561.3148572877589686
 21
478.0268273020379866
 31
0.0
  0
ARC
  5
1E217
  8
0
 10
4561.2845856418907715
 20
478.0415360890680176
 30
0.0
 40
0.0066959454823001
 50
284.9583742200002803
 51
353.2548370748845059
  0
LINE
  5
1E218
  8
0
 10
4561.3384793350578548
 20
478.0521069027378758
 30
0.0
 11
4561.3384793350578548
 21
478.0407496264380143
 31
0.0
  0
ARC
  5
1E219
  8
0
 10
4561.3452566368468979
 20
478.0416466832145943
 30
0.0
 40
0.0068364120999805
 50
187.5399515570524045
 51
254.2468371480950964
  0
LINE
  5
1E21A
  8
0
 10
4561.2863139807577681
 20
478.03420677143788
 30
0.0
 11
4561.3121274639588592
 21
478.0267550606379814
 31
0.0
  0
LINE
  5
1E21B
  8
0
 10
4561.317587111658213
 20
478.0267550606379814
 30
0.0
 11
4561.3434005949584389
 21
478.03420677143788
 31
0.0
  0
ARC
  5
1E21C
  8
0
 10
4561.313364957104568
 20
478.0316060208219824
 30
0.0
 40
0.0050063164099097
 50
255.6889220987355884
 51
287.3428937126843721
  0
ARC
  5
1E21D
  8
0
 10
4561.316349796450595
 20
478.0316127467451111
 30
0.0
 40
0.0050127899657327
 50
252.6780799925705026
 51
284.290104307074273
  0
LINE
  5
1E21E
  8
0
 10
4561.262691933458882
 20
478.0273876738170884
 30
0.0
 11
4561.262691933458882
 21
478.0160303974379872
 31
0.0
  0
LINE
  5
1E21F
  8
0
 10
4561.2863139806577237
 20
478.0350670450379198
 30
0.0
 11
4561.2863139806577237
 21
478.0021080730379026
 31
0.0
  0
ARC
  5
1E220
  8
0
 10
4561.2560423347913456
 20
478.0168168600678769
 30
0.0
 40
0.0066959454823001
 50
284.9583742200002803
 51
353.2548370748845059
  0
LINE
  5
1E221
  8
0
 10
4561.3099360279584289
 20
478.0273876737379055
 30
0.0
 11
4561.3099360279584289
 21
478.0160303974379872
 31
0.0
  0
ARC
  5
1E222
  8
0
 10
4561.3167133297465625
 20
478.016927454214624
 30
0.0
 40
0.0068364120999805
 50
187.5399515570524045
 51
254.2468371480950964
  0
LINE
  5
1E223
  8
0
 10
4561.2577706736583423
 20
478.0094875424380234
 30
0.0
 11
4561.2835841568594333
 21
478.0020358316378974
 31
0.0
  0
LINE
  5
1E224
  8
0
 10
4561.2890438045587871
 20
478.0020358316378974
 30
0.0
 11
4561.314857287859013
 21
478.0094875424380234
 31
0.0
  0
ARC
  5
1E225
  8
0
 10
4561.2848216500051421
 20
478.0068867918220121
 30
0.0
 40
0.0050063164099097
 50
255.6889220987355884
 51
287.3428937126843721
  0
ARC
  5
1E226
  8
0
 10
4561.2878064893502597
 20
478.006893517745084
 30
0.0
 40
0.0050127899657327
 50
252.6780799925705026
 51
284.290104307074273
  0
LINE
  5
1E227
  8
0
 10
4561.2912352405592173
 20
478.0026684447170737
 30
0.0
 11
4561.2912352405592173
 21
477.9913111683379157
 31
0.0
  0
LINE
  5
1E228
  8
0
 10
4561.3148572877589686
 20
478.0103478159380188
 30
0.0
 11
4561.3148572877589686
 21
477.9773888439380016
 31
0.0
  0
ARC
  5
1E229
  8
0
 10
4561.2845856418907715
 20
477.9920976309679759
 30
0.0
 40
0.0066959454823001
 50
284.9583742200002803
 51
353.2548370748845059
  0
LINE
  5
1E22A
  8
0
 10
4561.3384793350578548
 20
478.0026684446378908
 30
0.0
 11
4561.3384793350578548
 21
477.9913111683379157
 31
0.0
  0
ARC
  5
1E22B
  8
0
 10
4561.3452566368468979
 20
477.9922082251146094
 30
0.0
 40
0.0068364120999805
 50
187.5399515570524045
 51
254.2468371480950964
  0
LINE
  5
1E22C
  8
0
 10
4561.2863139807577681
 20
477.9847683133380087
 30
0.0
 11
4561.3121274639588592
 21
477.9773166025378828
 31
0.0
  0
LINE
  5
1E22D
  8
0
 10
4561.317587111658213
 20
477.9773166025378828
 30
0.0
 11
4561.3434005949584389
 21
477.9847683133380087
 31
0.0
  0
ARC
  5
1E22E
  8
0
 10
4561.313364957104568
 20
477.9821675627219975
 30
0.0
 40
0.0050063164099097
 50
255.6889220987355884
 51
287.3428937126843721
  0
ARC
  5
1E22F
  8
0
 10
4561.316349796450595
 20
477.982174288645183
 30
0.0
 40
0.0050127899657327
 50
252.6780799925705026
 51
284.290104307074273
  0
LINE
  5
1E230
  8
0
 10
4561.3197785476577337
 20
478.0273876738170884
 30
0.0
 11
4561.3197785476577337
 21
478.0160303974379872
 31
0.0
  0
LINE
  5
1E231
  8
0
 10
4561.3434005948583945
 20
478.0350670450379198
 30
0.0
 11
4561.3434005948583945
 21
478.0021080730379026
 31
0.0
  0
ARC
  5
1E232
  8
0
 10
4561.3131289489920164
 20
478.0168168600678769
 30
0.0
 40
0.0066959454823001
 50
284.9583742200002803
 51
353.2548370748845059
  0
LINE
  5
1E233
  8
0
 10
4561.3670226421581901
 20
478.0273876737379055
 30
0.0
 11
4561.3670226421581901
 21
478.0160303974379872
 31
0.0
  0
ARC
  5
1E234
  8
0
 10
4561.3737999439481428
 20
478.016927454214624
 30
0.0
 40
0.0068364120999805
 50
187.5399515570524045
 51
254.2468371480950964
  0
LINE
  5
1E235
  8
0
 10
4561.314857287859013
 20
478.0094875424380234
 30
0.0
 11
4561.340670771058285
 21
478.0020358316378974
 31
0.0
  0
LINE
  5
1E236
  8
0
 10
4561.3461304187576388
 20
478.0020358316378974
 30
0.0
 11
4561.3719439020587743
 21
478.0094875424380234
 31
0.0
  0
ARC
  5
1E237
  8
0
 10
4561.3419082642058129
 20
478.0068867918220121
 30
0.0
 40
0.0050063164099097
 50
255.6889220987355884
 51
287.3428937126843721
  0
ARC
  5
1E238
  8
0
 10
4561.3448931035509304
 20
478.006893517745084
 30
0.0
 40
0.0050127899657327
 50
252.6780799925705026
 51
284.290104307074273
  0
LINE
  5
1E239
  8
0
 10
4561.3483218547589786
 20
478.0026684447170737
 30
0.0
 11
4561.3483218547589786
 21
477.9913111683379157
 31
0.0
  0
LINE
  5
1E23A
  8
0
 10
4561.3719439019587298
 20
478.0103478159380188
 30
0.0
 11
4561.3719439019587298
 21
477.9773888439380016
 31
0.0
  0
ARC
  5
1E23B
  8
0
 10
4561.3416722560914423
 20
477.9920976309679759
 30
0.0
 40
0.0066959454823001
 50
284.9583742200002803
 51
353.2548370748845059
  0
LINE
  5
1E23C
  8
0
 10
4561.395565949259435
 20
478.0026684446378908
 30
0.0
 11
4561.395565949259435
 21
477.9913111683379157
 31
0.0
  0
ARC
  5
1E23D
  8
0
 10
4561.4023432510475686
 20
477.9922082251146094
 30
0.0
 40
0.0068364120999805
 50
187.5399515570524045
 51
254.2468371480950964
  0
LINE
  5
1E23E
  8
0
 10
4561.3434005949584389
 20
477.9847683133380087
 30
0.0
 11
4561.3692140781577109
 21
477.9773166025378828
 31
0.0
  0
LINE
  5
1E23F
  8
0
 10
4561.3746737258579742
 20
477.9773166025378828
 30
0.0
 11
4561.4004872091591096
 21
477.9847683133380087
 31
0.0
  0
ARC
  5
1E240
  8
0
 10
4561.3704515713052388
 20
477.9821675627219975
 30
0.0
 40
0.0050063164099097
 50
255.6889220987355884
 51
287.3428937126843721
  0
ARC
  5
1E241
  8
0
 10
4561.3734364106503563
 20
477.982174288645183
 30
0.0
 40
0.0050127899657327
 50
252.6780799925705026
 51
284.290104307074273
  0
LINE
  5
1E242
  8
0
 10
4561.37686516175836
 20
478.0273876738170884
 30
0.0
 11
4561.37686516175836
 21
478.0160303974379872
 31
0.0
  0
LINE
  5
1E243
  8
0
 10
4561.4004872089590208
 20
478.0350670450379198
 30
0.0
 11
4561.4004872089590208
 21
478.0021080730379026
 31
0.0
  0
ARC
  5
1E244
  8
0
 10
4561.3702155630908237
 20
478.0168168600678769
 30
0.0
 40
0.0066959454823001
 50
284.9583742200002803
 51
353.2548370748845059
  0
LINE
  5
1E245
  8
0
 10
4561.3719439019587298
 20
478.0094875424380234
 30
0.0
 11
4561.3977573851589113
 21
478.0020358316378974
 31
0.0
  0
ARC
  5
1E246
  8
0
 10
4561.3989948783046202
 20
478.0068867918220121
 30
0.0
 40
0.0050063164099097
 50
255.6889220987355884
 51
287.3428937126843721
  0
LINE
  5
1E247
  8
0
 10
4561.3483218547589786
 20
478.0521069028170018
 30
0.0
 11
4561.3483218547589786
 21
478.0407496264380143
 31
0.0
  0
LINE
  5
1E248
  8
0
 10
4561.3719439019587298
 20
478.0597862740378901
 30
0.0
 11
4561.3719439019587298
 21
478.0268273020379866
 31
0.0
  0
ARC
  5
1E249
  8
0
 10
4561.3416722560914423
 20
478.0415360890680176
 30
0.0
 40
0.0066959454823001
 50
284.9583742200002803
 51
353.2548370748845059
  0
LINE
  5
1E24A
  8
0
 10
4561.395565949259435
 20
478.0521069027378758
 30
0.0
 11
4561.395565949259435
 21
478.0407496264380143
 31
0.0
  0
ARC
  5
1E24B
  8
0
 10
4561.4023432510475686
 20
478.0416466832145943
 30
0.0
 40
0.0068364120999805
 50
187.5399515570524045
 51
254.2468371480950964
  0
LINE
  5
1E24C
  8
0
 10
4561.3434005949584389
 20
478.03420677143788
 30
0.0
 11
4561.3692140781577109
 21
478.0267550606379814
 31
0.0
  0
LINE
  5
1E24D
  8
0
 10
4561.3746737258579742
 20
478.0267550606379814
 30
0.0
 11
4561.4004872091591096
 21
478.03420677143788
 31
0.0
  0
ARC
  5
1E24E
  8
0
 10
4561.3704515713052388
 20
478.0316060208219824
 30
0.0
 40
0.0050063164099097
 50
255.6889220987355884
 51
287.3428937126843721
  0
ARC
  5
1E24F
  8
0
 10
4561.3734364106503563
 20
478.0316127467451111
 30
0.0
 40
0.0050127899657327
 50
252.6780799925705026
 51
284.290104307074273
  0
LINE
  5
1E250
  8
0
 10
4561.37686516175836
 20
478.0768261319170165
 30
0.0
 11
4561.37686516175836
 21
478.0654688555379721
 31
0.0
  0
LINE
  5
1E251
  8
0
 10
4561.4004872089590208
 20
478.0845055031379047
 30
0.0
 11
4561.4004872089590208
 21
478.0515465311378875
 31
0.0
  0
ARC
  5
1E252
  8
0
 10
4561.3702155630908237
 20
478.0662553181679755
 30
0.0
 40
0.0066959454823001
 50
284.9583742200002803
 51
353.2548370748845059
  0
LINE
  5
1E253
  8
0
 10
4561.3719439019587298
 20
478.0589260005378947
 30
0.0
 11
4561.3977573851589113
 21
478.0514742897379961
 31
0.0
  0
ARC
  5
1E254
  8
0
 10
4561.3989948783046202
 20
478.0563252499221107
 30
0.0
 40
0.0050063164099097
 50
255.6889220987355884
 51
287.3428937126843721
  0
LINE
  5
1E255
  8
0
 10
4561.3483218547589786
 20
478.1015453609169867
 30
0.0
 11
4561.3483218547589786
 21
478.0901880845378855
 31
0.0
  0
LINE
  5
1E256
  8
0
 10
4561.3719439019587298
 20
478.1092247321379887
 30
0.0
 11
4561.3719439019587298
 21
478.0762657601379146
 31
0.0
  0
ARC
  5
1E257
  8
0
 10
4561.3416722560914423
 20
478.0909745471680026
 30
0.0
 40
0.0066959454823001
 50
284.9583742200002803
 51
353.2548370748845059
  0
LINE
  5
1E258
  8
0
 10
4561.395565949259435
 20
478.1015453608379744
 30
0.0
 11
4561.395565949259435
 21
478.0901880845378855
 31
0.0
  0
ARC
  5
1E259
  8
0
 10
4561.4023432510475686
 20
478.0910851413145792
 30
0.0
 40
0.0068364120999805
 50
187.5399515570524045
 51
254.2468371480950964
  0
LINE
  5
1E25A
  8
0
 10
4561.3434005949584389
 20
478.0836452295379218
 30
0.0
 11
4561.3692140781577109
 21
478.0761935187380232
 31
0.0
  0
LINE
  5
1E25B
  8
0
 10
4561.3746737258579742
 20
478.0761935187380232
 30
0.0
 11
4561.4004872091591096
 21
478.0836452295379218
 31
0.0
  0
ARC
  5
1E25C
  8
0
 10
4561.3704515713052388
 20
478.081044478922081
 30
0.0
 40
0.0050063164099097
 50
255.6889220987355884
 51
287.3428937126843721
  0
ARC
  5
1E25D
  8
0
 10
4561.3734364106503563
 20
478.081051204845096
 30
0.0
 40
0.0050127899657327
 50
252.6780799925705026
 51
284.290104307074273
  0
LINE
  5
1E25E
  8
0
 10
4561.3483218547589786
 20
478.1509838190170854
 30
0.0
 11
4561.3483218547589786
 21
478.1396265426379273
 31
0.0
  0
LINE
  5
1E25F
  8
0
 10
4561.3719439019587298
 20
478.1586631902379736
 30
0.0
 11
4561.3719439019587298
 21
478.1257042182378996
 31
0.0
  0
ARC
  5
1E260
  8
0
 10
4561.3416722560914423
 20
478.1404130052678738
 30
0.0
 40
0.0066959454823001
 50
284.9583742200002803
 51
353.2548370748845059
  0
LINE
  5
1E261
  8
0
 10
4561.395565949259435
 20
478.1509838189379025
 30
0.0
 11
4561.395565949259435
 21
478.1396265426379273
 31
0.0
  0
ARC
  5
1E262
  8
0
 10
4561.4023432510475686
 20
478.140523599414621
 30
0.0
 40
0.0068364120999805
 50
187.5399515570524045
 51
254.2468371480950964
  0
LINE
  5
1E263
  8
0
 10
4561.3434005949584389
 20
478.1330836876379067
 30
0.0
 11
4561.3692140781577109
 21
478.1256319768380081
 31
0.0
  0
ARC
  5
1E264
  8
0
 10
4561.3704515713052388
 20
478.1304829370220091
 30
0.0
 40
0.0050063164099097
 50
255.6889220987355884
 51
287.3428937126843721
  0
LINE
  5
1E265
  8
0
 10
4561.3768651618584045
 20
478.1757030480171125
 30
0.0
 11
4561.3768651618584045
 21
478.1643457716378975
 31
0.0
  0
LINE
  5
1E266
  8
0
 10
4561.4004872090581557
 20
478.183382419237887
 30
0.0
 11
4561.4004872090581557
 21
478.1504234472379835
 31
0.0
  0
ARC
  5
1E267
  8
0
 10
4561.3702155631917776
 20
478.1651322342680146
 30
0.0
 40
0.0066959454823001
 50
284.9583742200002803
 51
353.2548370748845059
  0
LINE
  5
1E268
  8
0
 10
4561.3719439020587743
 20
478.1578029166379906
 30
0.0
 11
4561.3977573852580463
 21
478.1503512058379215
 31
0.0
  0
ARC
  5
1E269
  8
0
 10
4561.3989948784046646
 20
478.1552021660219793
 30
0.0
 40
0.0050063164099097
 50
255.6889220987355884
 51
287.3428937126843721
  0
LINE
  5
1E26A
  8
0
 10
4561.3768651618584045
 20
478.2251415061169837
 30
0.0
 11
4561.3768651618584045
 21
478.2137842297378825
 31
0.0
  0
LINE
  5
1E26B
  8
0
 10
4561.4004872090581557
 20
478.2328208773378719
 30
0.0
 11
4561.4004872090581557
 21
478.1998619053379116
 31
0.0
  0
ARC
  5
1E26C
  8
0
 10
4561.3702155631917776
 20
478.2145706923679995
 30
0.0
 40
0.0066959454823001
 50
284.9583742200002803
 51
353.2548370748845059
  0
LINE
  5
1E26D
  8
0
 10
4561.3719439020587743
 20
478.2072413747379187
 30
0.0
 11
4561.3977573852580463
 21
478.1997896639380201
 31
0.0
  0
ARC
  5
1E26E
  8
0
 10
4561.3989948784046646
 20
478.2046406241220211
 30
0.0
 40
0.0050063164099097
 50
255.6889220987355884
 51
287.3428937126843721
  0
LINE
  5
1E26F
  8
0
 10
4561.3434005948583945
 20
478.2523195479499236
 30
0.0
 11
4561.3434005948583945
 21
478.2493003634380102
 31
0.0
  0
LINE
  5
1E270
  8
0
 10
4561.3334607419292297
 20
478.2513094781849077
 30
0.0
 11
4561.340670771058285
 21
478.2492281220378914
 31
0.0
  0
LINE
  5
1E271
  8
0
 10
4561.3461304187576388
 20
478.2492281220378914
 30
0.0
 11
4561.3618350777860542
 21
478.2537616666169811
 31
0.0
  0
ARC
  5
1E272
  8
0
 10
4561.3419082642058129
 20
478.2540790822221197
 30
0.0
 40
0.0050063164099097
 50
255.6889220987355884
 51
287.3428937126843721
  0
ARC
  5
1E273
  8
0
 10
4561.3448931035509304
 20
478.2540858081451915
 30
0.0
 40
0.0050127899657327
 50
252.6780799925705026
 51
284.290104307074273
  0
LINE
  5
1E274
  8
0
 10
4561.4004872090581557
 20
478.2549797672234035
 30
0.0
 11
4561.4004872090581557
 21
478.2493003634380102
 31
0.0
  0
LINE
  5
1E275
  8
0
 10
4561.3791215207684218
 20
478.2546078327736154
 30
0.0
 11
4561.3977573852580463
 21
478.2492281220378914
 31
0.0
  0
ARC
  5
1E276
  8
0
 10
4561.3989948784046646
 20
478.2540790822221197
 30
0.0
 40
0.0050063164099097
 50
255.6889220987355884
 51
287.3428937126843721
  0
LINE
  5
1E277
  8
0
 10
4561.1721407523591552
 20
478.2060708717679063
 30
0.0
 11
4561.1721407523591552
 21
478.1998619053379116
 31
0.0
  0
LINE
  5
1E278
  8
0
 10
4561.1633985514781671
 20
478.2015252877155262
 30
0.0
 11
4561.1694109285590457
 21
478.1997896639380201
 31
0.0
  0
LINE
  5
1E279
  8
0
 10
4561.1748705762583995
 20
478.1997896639380201
 30
0.0
 11
4561.2006840595586254
 21
478.2072413747379187
 31
0.0
  0
ARC
  5
1E27A
  8
0
 10
4561.1706484217056641
 20
478.2046406241220211
 30
0.0
 40
0.0050063164099097
 50
255.6889220987355884
 51
287.3428937126843721
  0
ARC
  5
1E27B
  8
0
 10
4561.1736332610507816
 20
478.2046473500450929
 30
0.0
 40
0.0050127899657327
 50
252.6780799925705026
 51
284.290104307074273
  0
LINE
  5
1E27C
  8
0
 10
4561.1435974452579103
 20
478.1893167572499124
 30
0.0
 11
4561.1435974452579103
 21
478.1751426763379982
 31
0.0
  0
LINE
  5
1E27D
  8
0
 10
4561.1295769665948683
 20
478.1783297662776135
 30
0.0
 11
4561.1408676214587103
 21
478.175070434937993
 31
0.0
  0
LINE
  5
1E27E
  8
0
 10
4561.1463272691589736
 20
478.175070434937993
 30
0.0
 11
4561.1721407524582901
 21
478.1825221457378916
 31
0.0
  0
ARC
  5
1E27F
  8
0
 10
4561.1421051146053287
 20
478.1799213951221077
 30
0.0
 40
0.0050063164099097
 50
255.6889220987355884
 51
287.3428937126843721
  0
ARC
  5
1E280
  8
0
 10
4561.1450899539504462
 20
478.1799281210451227
 30
0.0
 40
0.0050127899657327
 50
252.6780799925705026
 51
284.290104307074273
  0
LINE
  5
1E281
  8
0
 10
4561.1150541381575749
 20
478.1642899378030052
 30
0.0
 11
4561.1150541381575749
 21
478.1504234473380279
 31
0.0
  0
LINE
  5
1E282
  8
0
 10
4561.1049983658576821
 20
478.1524660251250793
 30
0.0
 11
4561.112324314358375
 21
478.1503512059379091
 31
0.0
  0
LINE
  5
1E283
  8
0
 10
4561.1177839620586383
 20
478.1503512059379091
 30
0.0
 11
4561.1435974453588642
 21
478.1578029167379782
 31
0.0
  0
ARC
  5
1E284
  8
0
 10
4561.1135618075059028
 20
478.1552021661220238
 30
0.0
 40
0.0050063164099097
 50
255.6889220987355884
 51
287.3428937126843721
  0
ARC
  5
1E285
  8
0
 10
4561.1165466468492014
 20
478.1552088920450956
 30
0.0
 40
0.0050127899657327
 50
252.6780799925705026
 51
284.290104307074273
  0
LINE
  5
1E286
  8
0
 10
4561.1672194925586155
 20
478.2004222770380011
 30
0.0
 11
4561.1672194925586155
 21
478.1890650007380259
 31
0.0
  0
ARC
  5
1E287
  8
0
 10
4561.1739967943467491
 20
478.1899620575146059
 30
0.0
 40
0.0068364120999805
 50
187.5399515570524045
 51
254.2468371480950964
  0
LINE
  5
1E288
  8
0
 10
4561.1386761854591896
 20
478.1757030479378727
 30
0.0
 11
4561.1386761854591896
 21
478.1643457716378975
 31
0.0
  0
ARC
  5
1E289
  8
0
 10
4561.1454534872482327
 20
478.1652428284145913
 30
0.0
 40
0.0068364120999805
 50
187.5399515570524045
 51
254.2468371480950964
  0
LINE
  5
1E28A
  8
0
 10
4561.1101328783588542
 20
478.1509838189379025
 30
0.0
 11
4561.1101328783588542
 21
478.1396265426379273
 31
0.0
  0
ARC
  5
1E28B
  8
0
 10
4561.1169101801478973
 20
478.140523599414621
 30
0.0
 40
0.0068364120999805
 50
187.5399515570524045
 51
254.2468371480950964
  0
LINE
  5
1E28C
  8
0
 10
4561.0895684155129857
 20
478.1257265931606071
 30
0.0
 11
4561.1150541382576193
 21
478.1330836876379067
 31
0.0
  0
LINE
  5
1E28D
  8
0
 10
4561.1101328783588542
 20
478.1015453608379744
 30
0.0
 11
4561.1101328783588542
 21
478.0901880845378855
 31
0.0
  0
ARC
  5
1E28E
  8
0
 10
4561.1169101801478973
 20
478.0910851413145792
 30
0.0
 40
0.0068364120999805
 50
187.5399515570524045
 51
254.2468371480950964
  0
LINE
  5
1E28F
  8
0
 10
4561.0910013616812648
 20
478.0767017909905121
 30
0.0
 11
4561.1150541382576193
 21
478.0836452295379218
 31
0.0
  0
LINE
  5
1E290
  8
0
 10
4561.1386761854591896
 20
478.0768261317379029
 30
0.0
 11
4561.1386761854591896
 21
478.0654688554379277
 31
0.0
  0
ARC
  5
1E291
  8
0
 10
4561.1454534872482327
 20
478.0663659122146214
 30
0.0
 40
0.0068364120999805
 50
187.5399515570524045
 51
254.2468371480950964
  0
LINE
  5
1E292
  8
0
 10
4561.1177839620586383
 20
478.0514742896380085
 30
0.0
 11
4561.1435974453588642
 21
478.0589260004379071
 31
0.0
  0
LINE
  5
1E293
  8
0
 10
4561.1672194925586155
 20
478.0521069027378758
 30
0.0
 11
4561.1672194925586155
 21
478.0407496264380143
 31
0.0
  0
ARC
  5
1E294
  8
0
 10
4561.1739967943467491
 20
478.0416466832145943
 30
0.0
 40
0.0068364120999805
 50
187.5399515570524045
 51
254.2468371480950964
  0
LINE
  5
1E295
  8
0
 10
4561.1391550957578147
 20
478.0246846325379124
 30
0.0
 11
4561.1721407524582901
 21
478.03420677143788
 31
0.0
  0
LINE
  5
1E296
  8
0
 10
4561.1957627996580413
 20
478.0273876736379179
 30
0.0
 11
4561.1957627996580413
 21
478.0160303973379996
 31
0.0
  0
ARC
  5
1E297
  8
0
 10
4561.2025401014470845
 20
478.0169274541145796
 30
0.0
 40
0.0068364120999805
 50
187.5399515570524045
 51
254.2468371480950964
  0
LINE
  5
1E298
  8
0
 10
4561.1771048046939541
 20
478.0026807977353087
 30
0.0
 11
4561.2006840595586254
 21
478.009487542337979
 31
0.0
  0
LINE
  5
1E299
  8
0
 10
4561.2813927209590474
 20
478.0026684446378908
 30
0.0
 11
4561.2813927209590474
 21
477.9913111683379157
 31
0.0
  0
ARC
  5
1E29A
  8
0
 10
4561.2881700227480906
 20
477.9922082251146094
 30
0.0
 40
0.0068364120999805
 50
187.5399515570524045
 51
254.2468371480950964
  0
LINE
  5
1E29B
  8
0
 10
4561.2535144107587257
 20
477.9752998930379135
 30
0.0
 11
4561.2863139808587221
 21
477.9847683133380087
 31
0.0
  0
LINE
  5
1E29C
  8
0
 10
4561.2450367948586063
 20
478.0058115882379184
 30
0.0
 11
4561.2450367948586063
 21
477.9811221097378962
 31
0.0
  0
ARC
  5
1E29D
  8
0
 10
4561.2523638801485504
 20
477.9803529331762206
 30
0.0
 40
0.0051823677331645
 50
253.1240486209485141
 51
282.8270397607157065
  0
ARC
  5
1E29E
  8
0
 10
4561.2531832063186812
 20
477.9845177231795219
 30
0.0
 40
0.0094152510306433
 50
223.6681698736641977
 51
255.7112236514174981
  0
ARC
  5
1E29F
  8
0
 10
4561.2492887772395989
 20
477.9811111582699823
 30
0.0
 40
0.0042519964851659
 50
179.8524284790341028
 51
226.6999350452813928
  0
LINE
  5
1E2A0
  8
0
 10
4561.234148626458591
 20
478.0026684447519187
 30
0.0
 11
4561.234148626458591
 21
477.9839611121379903
 31
0.0
  0
LINE
  5
1E2A1
  8
0
 10
4561.2243061067583767
 20
478.0026684447378784
 30
0.0
 11
4561.2243061067583767
 21
477.9870547236379252
 31
0.0
  0
ARC
  5
1E2A2
  8
0
 10
4561.2310079502713052
 20
477.9881052056290969
 30
0.0
 40
0.0067836729637027
 50
188.9083553185456026
 51
269.195908059238775
  0
ARC
  5
1E2A3
  8
0
 10
4561.2313928548992408
 20
477.9840368864697098
 30
0.0
 40
0.0027568131319709
 50
259.9706991425811111
 51
358.4249580749562938
  0
LINE
  5
1E2A4
  8
0
 10
4561.200684059458581
 20
478.0103478160380064
 30
0.0
 11
4561.2006840595586254
 21
478.0094875424380234
 31
0.0
  0
LINE
  5
1E2A5
  8
0
 10
4561.171016891358704
 20
478.0338823406378879
 30
0.0
 11
4561.171016891358704
 21
478.0091928621379793
 31
0.0
  0
ARC
  5
1E2A6
  8
0
 10
4561.1784396003276925
 20
478.0097694299528825
 30
0.0
 40
0.0074450680912849
 50
184.4415997343963909
 51
238.9079594248611045
  0
ARC
  5
1E2A7
  8
0
 10
4561.1771594104866381
 20
478.0076465682935236
 30
0.0
 40
0.0049660707837506
 50
238.9079594248611045
 51
269.3699731243946758
  0
LINE
  5
1E2A8
  8
0
 10
4561.1721407524582901
 20
478.0350670450379198
 30
0.0
 11
4561.1721407524582901
 21
478.03420677143788
 31
0.0
  0
LINE
  5
1E2A9
  8
0
 10
4561.1343193556576807
 20
478.0562476467379156
 30
0.0
 11
4561.1343193556576807
 21
478.0315581682380071
 31
0.0
  0
ARC
  5
1E2AA
  8
0
 10
4561.1389878304953527
 20
478.0265576179058939
 30
0.0
 40
0.0018804392722854
 50
228.9283497306961976
 51
275.1032100685478099
  0
ARC
  5
1E2AB
  8
0
 10
4561.1493362819992399
 20
478.0384321261253717
 30
0.0
 40
0.0176314517465297
 50
221.7825087222553861
 51
228.9283497306961976
  0
ARC
  5
1E2AC
  8
0
 10
4561.1416704909133841
 20
478.0315823277368281
 30
0.0
 40
0.0073511749545216
 50
180.1883018455741876
 51
221.7825087222553861
  0
LINE
  5
1E2AD
  8
0
 10
4561.1435974453588642
 20
478.0597862741378776
 30
0.0
 11
4561.1435974453588642
 21
478.0589260005378947
 31
0.0
  0
LINE
  5
1E2AE
  8
0
 10
4561.1065350688577382
 20
478.0811859859380206
 30
0.0
 11
4561.1065350688577382
 21
478.0564965075378723
 31
0.0
  0
ARC
  5
1E2AF
  8
0
 10
4561.116244779450426
 20
478.0566729391583749
 30
0.0
 40
0.0097113133958579
 50
181.0409862175011995
 51
213.3141965903265032
  0
ARC
  5
1E2B0
  8
0
 10
4561.1141097710660688
 20
478.0552697433918752
 30
0.0
 40
0.0071564710997256
 50
213.3141965903238031
 51
236.7901585550530115
  0
LINE
  5
1E2B1
  8
0
 10
4561.0877399010587396
 20
478.1080096566378757
 30
0.0
 11
4561.0877399010587396
 21
478.0863653671170823
 31
0.0
  0
LINE
  5
1E2B2
  8
0
 10
4561.3197785476577337
 20
477.9779492156230845
 30
0.0
 11
4561.3197785476577337
 21
477.9659447157379759
 31
0.0
  0
LINE
  5
1E2B3
  8
0
 10
4561.3099360280593828
 20
477.9779492156379774
 30
0.0
 11
4561.3099360280593828
 21
477.9673031955379088
 31
0.0
  0
ARC
  5
1E2B4
  8
0
 10
4561.3151318847831135
 20
477.9679403390280754
 30
0.0
 40
0.0052347759195093
 50
186.9910103817568938
 51
266.9930958926656785
  0
ARC
  5
1E2B5
  8
0
 10
4561.3155763051900067
 20
477.9669806837209194
 30
0.0
 40
0.0043280563098996
 50
260.437150996552873
 51
346.1511695380482934
  0
LINE
  5
1E2B6
  8
0
 10
4561.3768651618584045
 20
477.9779492156230845
 30
0.0
 11
4561.3768651618584045
 21
477.9612368216378968
 31
0.0
  0
LINE
  5
1E2B7
  8
0
 10
4561.3670226421581901
 20
477.9779492156379774
 30
0.0
 11
4561.3670226421581901
 21
477.9616750465380051
 31
0.0
  0
ARC
  5
1E2B8
  8
0
 10
4561.3716610594810845
 20
477.962193421730376
 30
0.0
 40
0.0046672934447445
 50
186.3767395255200938
 51
273.4743094134831267
  0
ARC
  5
1E2B9
  8
0
 10
4561.3726834255230642
 20
477.9616736485186834
 30
0.0
 40
0.0042044900406831
 50
259.8696046085544822
 51
354.0364744577622105
  0
LINE
  5
1E2BA
  8
0
 10
4561.3719439020587743
 20
478.125704218137912
 30
0.0
 11
4561.4004872091591096
 21
478.1339439612380033
 31
0.0
  0
LINE
  5
1E2BB
  8
0
 10
4561.3719439019587298
 20
478.1083644585380057
 30
0.0
 11
4561.3977573853590002
 21
478.1009127478379241
 31
0.0
  0
ARC
  5
1E2BC
  8
0
 10
4561.3989946350247919
 20
478.1057729151743843
 30
0.0
 40
0.005015178289522
 50
255.7176181797684933
 51
287.3141934366818759
  0
ARC
  5
1E2BD
  8
0
 10
4561.6581888498021726
 20
478.1305130795656169
 30
0.0
 40
0.2379330448910223
 50
305.3610660944443111
 51
322.7177348503927874
  0
LINE
  5
1E2BE
  8
0
 10
4561.8709596363623859
 20
478.1118808858921057
 30
0.0
 11
4561.8709602726594312
 21
478.071435565937918
 31
0.0
  0
ARC
  5
1E2BF
  8
0
 10
4561.7459124407159834
 20
478.070773079908804
 30
0.0
 40
0.1250489643184459
 50
334.0756805073791043
 51
25.3701933554431989
  0
ARC
  5
1E2C0
  8
0
 10
4561.8525416219399631
 20
478.0189407892402187
 30
0.0
 40
0.0064894069458541
 50
258.332585393110719
 51
334.075680507382117
  0
ARC
  5
1E2C1
  8
0
 10
4561.7935024200351108
 20
478.1168126452548108
 30
0.0
 40
0.0067937945800205
 50
207.8947218559544865
 51
279.697014783803013
  0
ARC
  5
1E2C2
  8
0
 10
4561.7928508839622737
 20
478.1160586585602914
 30
0.0
 40
0.005876343425825
 50
180.0904483902527033
 51
204.3671965358138038
  0
ARC
  5
1E2C3
  8
0
 10
4561.6970045183934417
 20
478.0707533587549278
 30
0.0
 40
0.1001390827932926
 50
0.3903360566732144
 51
25.3541828885046101
  0
ARC
  5
1E2C4
  8
0
 10
4561.6971593987782398
 20
478.0707544139169727
 30
0.0
 40
0.0999841988156139
 50
333.9346453294166963
 51
0.3903360566732144
  0
LINE
  5
1E2C5
  8
0
 10
4561.8589014719591432
 20
478.1374609849606827
 30
0.0
 11
4561.8589014719591432
 21
478.1243522014380005
 31
0.0
  0
ARC
  5
1E2C6
  8
0
 10
4561.8505111345139085
 20
478.1250348444094129
 30
0.0
 40
0.008418061764539
 50
274.8937624799693253
 51
355.3486257152198959
  0
LINE
  5
1E2C7
  8
0
 10
4561.851229266358132
 20
478.116647469938016
 30
0.0
 11
4561.7946467533583927
 21
478.1101159187379039
 31
0.0
  0
LINE
  5
1E2C8
  8
0
 10
4561.7869745478583354
 20
478.1603735171379981
 30
0.0
 11
4561.7869745478583354
 21
478.1160493820378861
 31
0.0
  0
LINE
  5
1E2C9
  8
0
 10
4561.7869745478583354
 20
478.1208197560379176
 30
0.0
 11
4561.7540173086590585
 21
478.1208197560379176
 31
0.0
  0
LINE
  5
1E2CA
  8
0
 10
4561.7869745478583354
 20
478.1603735171379981
 30
0.0
 11
4561.8357827018589887
 21
478.1660076422380143
 31
0.0
  0
ARC
  5
1E2CB
  8
0
 10
4561.61760074608992
 20
478.0722506199999202
 30
0.0
 40
0.1909270272264122
 50
27.4873499966278487
 51
58.4486159456760035
  0
LINE
  5
1E2CC
  8
0
 10
4561.7658784751083658
 20
478.192528817537891
 30
0.0
 11
4561.7540173086590585
 21
478.192528817537891
 31
0.0
  0
LINE
  5
1E2CD
  8
0
 10
4561.7540173086590585
 20
478.192528817537891
 30
0.0
 11
4561.7540173086590585
 21
478.1788906221379989
 31
0.0
  0
LINE
  5
1E2CE
  8
0
 10
4561.7540173086590585
 20
478.1788906221379989
 30
0.0
 11
4561.7759706916904179
 21
478.1788906221379989
 31
0.0
  0
ARC
  5
1E2CF
  8
0
 10
4561.6483857808871107
 20
478.1573220025994146
 30
0.0
 40
0.1113442386365102
 50
18.4331453463584296
 51
32.0827968506726506
  0
ARC
  5
1E2D0
  8
0
 10
4561.6272765033263568
 20
478.1333940903120947
 30
0.0
 40
0.1346594450626686
 50
19.7467695176602511
 51
48.4614234445901602
  0
ARC
  5
1E2D1
  8
0
 10
4561.7096372992764373
 20
478.243599173686107
 30
0.0
 40
0.0116904738733557
 50
302.8492915866432895
 51
349.2349292049253222
  0
LINE
  5
1E2D2
  8
0
 10
4561.7159785764588378
 20
478.2337780035379069
 30
0.0
 11
4561.6763743410583629
 21
478.212542832137899
 31
0.0
  0
ARC
  5
1E2D3
  8
0
 10
4561.6743904864915748
 20
478.2157412445224054
 30
0.0
 40
0.0037637110303527
 50
249.0854020360202128
 51
301.8097665617556231
  0
ARC
  5
1E2D4
  8
0
 10
4561.4357663395048803
 20
477.6816107899231838
 30
0.0
 40
0.5812521499476007
 50
65.9067344073836239
 51
81.9095288468580378
  0
ARC
  5
1E2D5
  8
0
 10
4561.5177684493792185
 20
478.257871786448618
 30
0.0
 40
0.00081848202265
 50
201.2682019094928876
 51
255.9522491926126975
  0
ARC
  5
1E2D6
  8
0
 10
4561.5164470227737183
 20
478.2593001283269132
 30
0.0
 40
0.0026325439753868
 50
310.1781793557399283
 51
331.4577818556314242
  0
ARC
  5
1E2D7
  8
0
 10
4561.5175686005086391
 20
478.2579718945735863
 30
0.0
 40
0.0008941132121576
 50
270.0755100392545955
 51
310.1781793557336186
  0
ARC
  5
1E2D8
  8
0
 10
4561.5247036936343648
 20
478.2605767487627872
 30
0.0
 40
0.0082625690333658
 50
176.3941554368281004
 51
201.3034630833020913
  0
LINE
  5
1E2D9
  8
0
 10
4561.5164574818591063
 20
478.2944755956625045
 30
0.0
 11
4561.5164574818591063
 21
478.2610964009379018
 31
0.0
  0
LINE
  5
1E2DA
  8
0
 10
4561.5187596212590506
 20
478.2580422825379856
 30
0.0
 11
4561.5357378993576276
 21
478.2858090051378781
 31
0.0
  0
ARC
  5
1E2DB
  8
0
 10
4561.5179029215787523
 20
478.2947414010491229
 30
0.0
 40
0.0199467824247994
 50
333.3966499772236034
 51
350.6834914161789811
  0
LINE
  5
1E2DC
  8
0
 10
4561.7390698863600846
 20
478.1362169937380031
 30
0.0
 11
4561.7390698863600846
 21
478.1106453775379919
 31
0.0
  0
ARC
  5
1E2DD
  8
0
 10
4561.6454153433833199
 20
478.1350970361087889
 30
0.0
 40
0.0936612391822202
 50
0.6851326676491415
 51
31.2730895235912705
  0
ARC
  5
1E2DE
  8
0
 10
4561.5959926636105592
 20
478.1052111019442918
 30
0.0
 40
0.1514172994186994
 50
31.230482172897819
 51
50.153206057907127
  0
ARC
  5
1E2DF
  8
0
 10
4561.6296440080495813
 20
478.1126269838857183
 30
0.0
 40
0.1094438194112522
 50
322.3118650576087134
 51
358.9625372591310111
  0
LINE
  5
1E2E0
  8
0
 10
4561.8512292668583541
 20
478.0125854665379848
 30
0.0
 11
4561.7946467531583039
 21
478.0191170177379831
 31
0.0
  0
LINE
  5
1E2E1
  8
0
 10
4561.7869745478583354
 20
478.0711458843379091
 30
0.0
 11
4561.7869745478583354
 21
478.0268217494379996
 31
0.0
  0
ARC
  5
1E2E2
  8
0
 10
4561.7953648853608684
 20
478.0275043922205214
 30
0.0
 40
0.0084180618060493
 50
184.6513729718228092
 51
265.1062351053520842
  0
ARC
  5
1E2E3
  8
0
 10
4561.5845906094937163
 20
478.1876666576497996
 30
0.0
 40
0.2335301888864497
 50
291.7175968697645771
 51
330.0691924536545798
  0
ARC
  5
1E2E4
  8
0
 10
4561.5821938967837923
 20
478.2590796497996735
 30
0.0
 40
0.3446976879829875
 50
293.8097405684263208
 51
315.0302249409352271
  0
LINE
  5
1E2E5
  8
0
 10
4561.6710042752583831
 20
477.9707126821379006
 30
0.0
 11
4561.7213486423579525
 21
477.9437188201379172
 31
0.0
  0
LINE
  5
1E2E6
  8
0
 10
4561.7213486423579525
 20
477.9437188201379172
 30
0.0
 11
4561.7213486423579525
 21
477.899394685437926
 31
0.0
  0
LINE
  5
1E2E7
  8
0
 10
4561.6710042752583831
 20
477.9707126821379006
 30
0.0
 11
4561.6710042752583831
 21
477.9263885471380036
 31
0.0
  0
LINE
  5
1E2E8
  8
0
 10
4561.7159785766589266
 20
477.8954549328378789
 30
0.0
 11
4561.6763743412584518
 21
477.916690104337988
 31
0.0
  0
ARC
  5
1E2E9
  8
0
 10
4561.6829178394491464
 20
477.9266491998279776
 30
0.0
 40
0.0119164152139832
 50
181.253354295122989
 51
236.693589374364592
  0
ARC
  5
1E2EA
  8
0
 10
4561.4351218986776075
 20
478.4535192647092003
 30
0.0
 40
0.577500899556625
 50
278.0964920553719253
 51
294.1077353213116794
  0
ARC
  5
1E2EB
  8
0
 10
4561.440922106106882
 20
478.516889447091728
 30
0.0
 40
0.6812289842893328
 50
278.1016678661646893
 51
294.1200263037944751
  0
LINE
  5
1E2EC
  8
0
 10
4561.5187596211590062
 20
477.8711906540380028
 30
0.0
 11
4561.535737899457672
 21
477.8434239310379894
 31
0.0
  0
ARC
  5
1E2ED
  8
0
 10
4561.5372473894540235
 20
477.8440699259472808
 30
0.0
 40
0.0016419103106489
 50
203.1687814779207883
 51
258.773948108022978
  0
ARC
  5
1E2EE
  8
0
 10
4561.5413549725635676
 20
477.8816477692051876
 30
0.0
 40
0.024897814416857
 50
179.7078291970975101
 51
204.8346714534309001
  0
LINE
  5
1E2EF
  8
0
 10
4561.5164574818591063
 20
477.9260988658379006
 30
0.0
 11
4561.5164574818591063
 21
477.8817747311379094
 31
0.0
  0
ARC
  5
1E2F0
  8
0
 10
4561.7180714929672831
 20
477.8978560944028118
 30
0.0
 40
0.0029856523012223
 50
261.1558111704143244
 51
342.4722588828599896
  0
ARC
  5
1E2F1
  8
0
 10
4561.7182885467409506
 20
477.8996239126366277
 30
0.0
 40
0.004766167679414
 50
241.0098112864434938
 51
261.8449566668397779
  0
ARC
  5
1E2F2
  8
0
 10
4561.714772076463305
 20
477.8992982146826876
 30
0.0
 40
0.0065772734156727
 50
339.1471900417271854
 51
0.8404037620604
  0
ARC
  5
1E2F3
  8
0
 10
4561.6422763413384018
 20
478.1587269865697749
 30
0.0
 40
0.1179957707049977
 50
322.6530639143052781
 51
341.2609050749499033
  0
ARC
  5
1E2F4
  8
0
 10
4561.6241041329658401
 20
478.196340605929322
 30
0.0
 40
0.1703103318671041
 50
306.417386620520972
 51
333.6770133692493232
  0
LINE
  5
1E2F5
  8
0
 10
4561.7190038401586207
 20
478.0494386146011152
 30
0.0
 11
4561.7190038401586207
 21
478.0316591768379908
 31
0.0
  0
LINE
  5
1E2F6
  8
0
 10
4561.7190038401586207
 20
478.0316591768379908
 30
0.0
 11
4561.7088583609865964
 21
478.0367319164237756
 31
0.0
  0
ARC
  5
1E2F7
  8
0
 10
4561.5270428751709915
 20
478.3189484488020753
 30
0.0
 40
0.3455200976280346
 50
296.0265929634846884
 51
303.7500566070470995
  0
ARC
  5
1E2F8
  8
0
 10
4561.5550142316078563
 20
478.1708677883038945
 30
0.0
 40
0.2041089127634202
 50
300.2080672700013793
 51
322.1819031616943221
  0
ARC
  5
1E2F9
  8
0
 10
4561.4451044710967835
 20
478.3665326113583092
 30
0.0
 40
0.4285173959039832
 50
279.773558218386313
 51
299.7450793517793954
  0
ARC
  5
1E2FA
  8
0
 10
4561.6318267776159701
 20
478.0970071824505112
 30
0.0
 40
0.0846029410428386
 50
325.4074637958254925
 51
34.5925362041745075
  0
ARC
  5
1E2FB
  8
0
 10
4561.62434191041757
 20
478.1109844956138204
 30
0.0
 40
0.0922388044102427
 50
323.3685406834475202
 51
354.9658114277901859
  0
ARC
  5
1E2FC
  8
0
 10
4561.5682532895043551
 20
478.138505295767402
 30
0.0
 40
0.1605089071325778
 50
303.2965040200024873
 51
326.0968887863509735
  0
ARC
  5
1E2FD
  8
0
 10
4561.4610016056667519
 20
478.3052409239537042
 30
0.0
 40
0.3587564768368304
 50
282.8783870066250188
 51
302.995005056861487
  0
ARC
  5
1E2FE
  8
0
 10
4561.551534546701987
 20
478.0398121858215745
 30
0.0
 40
0.1831781539784446
 50
35.061309684036857
 51
62.9212557881137684
  0
ARC
  5
1E2FF
  8
0
 10
4561.4440692566995494
 20
477.8427909342746034
 30
0.0
 40
0.4075661908374293
 50
62.0779996876498998
 51
79.0630048153305438
  0
ARC
  5
1E300
  8
0
 10
4561.6632665110882954
 20
478.1496278248766885
 30
0.0
 40
0.0915484181368146
 50
324.623394770535981
 51
15.7599394032854292
  0
ARC
  5
1E301
  8
0
 10
4561.6270001019511255
 20
478.1352077010075163
 30
0.0
 40
0.1304303241185193
 50
17.5295718334034696
 51
48.2999427841300601
  0
ARC
  5
1E302
  8
0
 10
4561.566798393643694
 20
478.1526652995869995
 30
0.0
 40
0.1632888044200754
 50
306.6585680412787838
 51
323.6793601132466165
  0
ARC
  5
1E303
  8
0
 10
4561.4984194525259227
 20
478.2459101763694207
 30
0.0
 40
0.2789170690086737
 50
291.833778239151286
 51
306.4906759421111815
  0
ARC
  5
1E304
  8
0
 10
4561.4235886142605523
 20
478.4326812102846134
 30
0.0
 40
0.4801211282747059
 50
283.4485020899908818
 51
291.833778239151286
  0
LINE
  5
1E305
  8
0
 10
4561.6239124060575705
 20
478.1509838190170854
 30
0.0
 11
4561.6239124060575705
 21
478.1396265426379273
 31
0.0
  0
LINE
  5
1E306
  8
0
 10
4561.6002903588587287
 20
478.1586631902379736
 30
0.0
 11
4561.6002903588587287
 21
478.1257042182378996
 31
0.0
  0
ARC
  5
1E307
  8
0
 10
4561.6305620047260163
 20
478.1404130052678738
 30
0.0
 40
0.0066959454823001
 50
186.7451629251156078
 51
255.041625779999606
  0
LINE
  5
1E308
  8
0
 10
4561.5766683115580236
 20
478.1509838189379025
 30
0.0
 11
4561.5766683115580236
 21
478.1396265426379273
 31
0.0
  0
ARC
  5
1E309
  8
0
 10
4561.5698910097698899
 20
478.140523599414621
 30
0.0
 40
0.0068364120999805
 50
285.7531628519049036
 51
352.4600484429475955
  0
LINE
  5
1E30A
  8
0
 10
4561.6288336658590197
 20
478.1330836876379067
 30
0.0
 11
4561.6030201826579287
 21
478.1256319768380081
 31
0.0
  0
LINE
  5
1E30B
  8
0
 10
4561.5975605349576654
 20
478.1256319768380081
 30
0.0
 11
4561.5717470516583489
 21
478.1330836876379067
 31
0.0
  0
ARC
  5
1E30C
  8
0
 10
4561.6017826895122198
 20
478.1304829370220091
 30
0.0
 40
0.0050063164099097
 50
252.6571062873155995
 51
284.3110779012644116
  0
ARC
  5
1E30D
  8
0
 10
4561.5987978501671023
 20
478.1304896629451946
 30
0.0
 40
0.0050127899657327
 50
255.7098956929256985
 51
287.3219200074295259
  0
LINE
  5
1E30E
  8
0
 10
4561.5668257919587631
 20
478.1509838190170854
 30
0.0
 11
4561.5668257919587631
 21
478.1396265426379273
 31
0.0
  0
LINE
  5
1E30F
  8
0
 10
4561.5432037447590119
 20
478.1586631902379736
 30
0.0
 11
4561.5432037447590119
 21
478.1257042182378996
 31
0.0
  0
ARC
  5
1E310
  8
0
 10
4561.57347539062539
 20
478.1404130052678738
 30
0.0
 40
0.0066959454823001
 50
186.7451629251156078
 51
255.041625779999606
  0
LINE
  5
1E311
  8
0
 10
4561.5195816974583067
 20
478.1509838189379025
 30
0.0
 11
4561.5195816974583067
 21
478.1396265426379273
 31
0.0
  0
ARC
  5
1E312
  8
0
 10
4561.5128043956692636
 20
478.140523599414621
 30
0.0
 40
0.0068364120999805
 50
285.7531628519049036
 51
352.4600484429475955
  0
LINE
  5
1E313
  8
0
 10
4561.5717470517583934
 20
478.1330836876379067
 30
0.0
 11
4561.5459335685591213
 21
478.1256319768380081
 31
0.0
  0
LINE
  5
1E314
  8
0
 10
4561.540473920858858
 20
478.1256319768380081
 30
0.0
 11
4561.5146604375577226
 21
478.1330836876379067
 31
0.0
  0
ARC
  5
1E315
  8
0
 10
4561.5446960754115935
 20
478.1304829370220091
 30
0.0
 40
0.0050063164099097
 50
252.6571062873155995
 51
284.3110779012644116
  0
ARC
  5
1E316
  8
0
 10
4561.5417112360673855
 20
478.1304896629451946
 30
0.0
 40
0.0050127899657327
 50
255.7098956929256985
 51
287.3219200074295259
  0
LINE
  5
1E317
  8
0
 10
4561.5953690990590985
 20
478.1262645899170138
 30
0.0
 11
4561.5953690990590985
 21
478.1149073135379126
 31
0.0
  0
LINE
  5
1E318
  8
0
 10
4561.5717470518584378
 20
478.1339439611379021
 30
0.0
 11
4561.5717470518584378
 21
478.1009849891379986
 31
0.0
  0
ARC
  5
1E319
  8
0
 10
4561.6020186977248159
 20
478.1156937761679728
 30
0.0
 40
0.0066959454823001
 50
186.7451629251156078
 51
255.041625779999606
  0
LINE
  5
1E31A
  8
0
 10
4561.5481250045577326
 20
478.1262645898380015
 30
0.0
 11
4561.5481250045577326
 21
478.1149073135379126
 31
0.0
  0
ARC
  5
1E31B
  8
0
 10
4561.5413477027686895
 20
478.1158043703146063
 30
0.0
 40
0.0068364120999805
 50
285.7531628519049036
 51
352.4600484429475955
  0
LINE
  5
1E31C
  8
0
 10
4561.6002903588587287
 20
478.108364458537892
 30
0.0
 11
4561.5744768756576377
 21
478.1009127477378797
 31
0.0
  0
LINE
  5
1E31D
  8
0
 10
4561.5690172279591934
 20
478.1009127477378797
 30
0.0
 11
4561.543203744658058
 21
478.108364458537892
 31
0.0
  0
ARC
  5
1E31E
  8
0
 10
4561.5732393825119289
 20
478.1057637079221081
 30
0.0
 40
0.0050063164099097
 50
252.6571062873155995
 51
284.3110779012644116
  0
ARC
  5
1E31F
  8
0
 10
4561.5702545431659019
 20
478.1057704338451799
 30
0.0
 40
0.0050127899657327
 50
255.7098956929256985
 51
287.3219200074295259
  0
LINE
  5
1E320
  8
0
 10
4561.6524557131588153
 20
478.1262645899170138
 30
0.0
 11
4561.6524557131588153
 21
478.1149073135379126
 31
0.0
  0
LINE
  5
1E321
  8
0
 10
4561.6288336659590641
 20
478.1339439611379021
 30
0.0
 11
4561.6288336659590641
 21
478.1009849891379986
 31
0.0
  0
ARC
  5
1E322
  8
0
 10
4561.6591053118254422
 20
478.1156937761679728
 30
0.0
 40
0.0066959454823001
 50
186.7451629251156078
 51
255.041625779999606
  0
LINE
  5
1E323
  8
0
 10
4561.6052116186583589
 20
478.1262645898380015
 30
0.0
 11
4561.6052116186583589
 21
478.1149073135379126
 31
0.0
  0
ARC
  5
1E324
  8
0
 10
4561.5984343168693158
 20
478.1158043703146063
 30
0.0
 40
0.0068364120999805
 50
285.7531628519049036
 51
352.4600484429475955
  0
LINE
  5
1E325
  8
0
 10
4561.6573769729584455
 20
478.108364458537892
 30
0.0
 11
4561.6315634897591735
 21
478.1009127477378797
 31
0.0
  0
LINE
  5
1E326
  8
0
 10
4561.6261038420580007
 20
478.1009127477378797
 30
0.0
 11
4561.6002903587577748
 21
478.108364458537892
 31
0.0
  0
ARC
  5
1E327
  8
0
 10
4561.6303259966116457
 20
478.1057637079221081
 30
0.0
 40
0.0050063164099097
 50
252.6571062873155995
 51
284.3110779012644116
  0
ARC
  5
1E328
  8
0
 10
4561.6273411572656187
 20
478.1057704338451799
 30
0.0
 40
0.0050127899657327
 50
255.7098956929256985
 51
287.3219200074295259
  0
LINE
  5
1E329
  8
0
 10
4561.6809990202591507
 20
478.1015453609169867
 30
0.0
 11
4561.6809990202591507
 21
478.0901880845378855
 31
0.0
  0
LINE
  5
1E32A
  8
0
 10
4561.6573769730575805
 20
478.1092247321379887
 30
0.0
 11
4561.6573769730575805
 21
478.0762657601379146
 31
0.0
  0
ARC
  5
1E32B
  8
0
 10
4561.6876486189248681
 20
478.0909745471680026
 30
0.0
 40
0.0066959454823001
 50
186.7451629251156078
 51
255.041625779999606
  0
LINE
  5
1E32C
  8
0
 10
4561.6337549257577848
 20
478.1015453608379744
 30
0.0
 11
4561.6337549257577848
 21
478.0901880845378855
 31
0.0
  0
ARC
  5
1E32D
  8
0
 10
4561.6269776239687417
 20
478.0910851413145792
 30
0.0
 40
0.0068364120999805
 50
285.7531628519049036
 51
352.4600484429475955
  0
LINE
  5
1E32E
  8
0
 10
4561.6859202800587809
 20
478.0836452295379218
 30
0.0
 11
4561.6601067968585994
 21
478.0761935187380232
 31
0.0
  0
LINE
  5
1E32F
  8
0
 10
4561.6546471491583361
 20
478.0761935187380232
 30
0.0
 11
4561.6288336658590197
 21
478.0836452295379218
 31
0.0
  0
ARC
  5
1E330
  8
0
 10
4561.658869303711981
 20
478.081044478922081
 30
0.0
 40
0.0050063164099097
 50
252.6571062873155995
 51
284.3110779012644116
  0
ARC
  5
1E331
  8
0
 10
4561.6558844643668635
 20
478.081051204845096
 30
0.0
 40
0.0050127899657327
 50
255.7098956929256985
 51
287.3219200074295259
  0
LINE
  5
1E332
  8
0
 10
4561.6239124061576149
 20
478.1015453609169867
 30
0.0
 11
4561.6239124061576149
 21
478.0901880845378855
 31
0.0
  0
LINE
  5
1E333
  8
0
 10
4561.6002903589587731
 20
478.1092247321379887
 30
0.0
 11
4561.6002903589587731
 21
478.0762657601379146
 31
0.0
  0
ARC
  5
1E334
  8
0
 10
4561.6305620048251512
 20
478.0909745471680026
 30
0.0
 40
0.0066959454823001
 50
186.7451629251156078
 51
255.041625779999606
  0
LINE
  5
1E335
  8
0
 10
4561.576668311658068
 20
478.1015453608379744
 30
0.0
 11
4561.576668311658068
 21
478.0901880845378855
 31
0.0
  0
ARC
  5
1E336
  8
0
 10
4561.5698910098690249
 20
478.0910851413145792
 30
0.0
 40
0.0068364120999805
 50
285.7531628519049036
 51
352.4600484429475955
  0
LINE
  5
1E337
  8
0
 10
4561.6288336659590641
 20
478.0836452295379218
 30
0.0
 11
4561.6030201827588826
 21
478.0761935187380232
 31
0.0
  0
LINE
  5
1E338
  8
0
 10
4561.5975605350577098
 20
478.0761935187380232
 30
0.0
 11
4561.5717470517583934
 21
478.0836452295379218
 31
0.0
  0
ARC
  5
1E339
  8
0
 10
4561.6017826896131737
 20
478.081044478922081
 30
0.0
 40
0.0050063164099097
 50
252.6571062873155995
 51
284.3110779012644116
  0
ARC
  5
1E33A
  8
0
 10
4561.5987978502671467
 20
478.081051204845096
 30
0.0
 40
0.0050127899657327
 50
255.7098956929256985
 51
287.3219200074295259
  0
LINE
  5
1E33B
  8
0
 10
4561.6907842961600181
 20
478.0492821369379044
 30
0.0
 11
4561.6658932810578335
 21
478.0564675541378961
 31
0.0
  0
LINE
  5
1E33C
  8
0
 10
4561.6524557131588153
 20
478.0768261319170165
 30
0.0
 11
4561.6524557131588153
 21
478.0654688555379721
 31
0.0
  0
LINE
  5
1E33D
  8
0
 10
4561.6288336659590641
 20
478.0845055031379047
 30
0.0
 11
4561.6288336659590641
 21
478.0515465311378875
 31
0.0
  0
ARC
  5
1E33E
  8
0
 10
4561.6591053118254422
 20
478.0662553181679755
 30
0.0
 40
0.0066959454823001
 50
186.7451629251156078
 51
255.041625779999606
  0
LINE
  5
1E33F
  8
0
 10
4561.6052116186583589
 20
478.0768261318380041
 30
0.0
 11
4561.6052116186583589
 21
478.0654688555379721
 31
0.0
  0
ARC
  5
1E340
  8
0
 10
4561.5984343168693158
 20
478.0663659123144953
 30
0.0
 40
0.0068364120999805
 50
285.7531628519049036
 51
352.4600484429475955
  0
LINE
  5
1E341
  8
0
 10
4561.6573769729584455
 20
478.0589260005378947
 30
0.0
 11
4561.6315634897591735
 21
478.0514742897379961
 31
0.0
  0
LINE
  5
1E342
  8
0
 10
4561.6261038420580007
 20
478.0514742897379961
 30
0.0
 11
4561.6002903587577748
 21
478.0589260005378947
 31
0.0
  0
ARC
  5
1E343
  8
0
 10
4561.6303259966116457
 20
478.0563252499221107
 30
0.0
 40
0.0050063164099097
 50
252.6571062873155995
 51
284.3110779012644116
  0
ARC
  5
1E344
  8
0
 10
4561.6273411572656187
 20
478.0563319758451257
 30
0.0
 40
0.0050127899657327
 50
255.7098956929256985
 51
287.3219200074295259
  0
LINE
  5
1E345
  8
0
 10
4561.6239124061576149
 20
478.0521069028170018
 30
0.0
 11
4561.6239124061576149
 21
478.0407496264380143
 31
0.0
  0
LINE
  5
1E346
  8
0
 10
4561.6002903589587731
 20
478.0597862740378901
 30
0.0
 11
4561.6002903589587731
 21
478.0268273020379866
 31
0.0
  0
ARC
  5
1E347
  8
0
 10
4561.6305620048251512
 20
478.0415360890680176
 30
0.0
 40
0.0066959454823001
 50
186.7451629251156078
 51
255.041625779999606
  0
LINE
  5
1E348
  8
0
 10
4561.576668311658068
 20
478.0521069027378758
 30
0.0
 11
4561.576668311658068
 21
478.0407496264380143
 31
0.0
  0
ARC
  5
1E349
  8
0
 10
4561.5698910098690249
 20
478.0416466832145943
 30
0.0
 40
0.0068364120999805
 50
285.7531628519049036
 51
352.4600484429475955
  0
LINE
  5
1E34A
  8
0
 10
4561.6288336659590641
 20
478.03420677143788
 30
0.0
 11
4561.6030201827588826
 21
478.0267550606379814
 31
0.0
  0
LINE
  5
1E34B
  8
0
 10
4561.5975605350577098
 20
478.0267550606379814
 30
0.0
 11
4561.5717470517583934
 21
478.03420677143788
 31
0.0
  0
ARC
  5
1E34C
  8
0
 10
4561.6017826896131737
 20
478.0316060208219824
 30
0.0
 40
0.0050063164099097
 50
252.6571062873155995
 51
284.3110779012644116
  0
ARC
  5
1E34D
  8
0
 10
4561.5987978502671467
 20
478.0316127467451111
 30
0.0
 40
0.0050127899657327
 50
255.7098956929256985
 51
287.3219200074295259
  0
LINE
  5
1E34E
  8
0
 10
4561.5953690990590985
 20
478.0273876738170884
 30
0.0
 11
4561.5953690990590985
 21
478.0160303974379872
 31
0.0
  0
LINE
  5
1E34F
  8
0
 10
4561.5717470518584378
 20
478.0350670450379198
 30
0.0
 11
4561.5717470518584378
 21
478.0021080730379026
 31
0.0
  0
ARC
  5
1E350
  8
0
 10
4561.6020186977248159
 20
478.0168168600678769
 30
0.0
 40
0.0066959454823001
 50
186.7451629251156078
 51
255.041625779999606
  0
LINE
  5
1E351
  8
0
 10
4561.5481250045577326
 20
478.0273876737379055
 30
0.0
 11
4561.5481250045577326
 21
478.0160303974379872
 31
0.0
  0
ARC
  5
1E352
  8
0
 10
4561.5413477027686895
 20
478.016927454214624
 30
0.0
 40
0.0068364120999805
 50
285.7531628519049036
 51
352.4600484429475955
  0
LINE
  5
1E353
  8
0
 10
4561.6002903588587287
 20
478.0094875424380234
 30
0.0
 11
4561.5744768756576377
 21
478.0020358316378974
 31
0.0
  0
LINE
  5
1E354
  8
0
 10
4561.5690172279591934
 20
478.0020358316378974
 30
0.0
 11
4561.543203744658058
 21
478.0094875424380234
 31
0.0
  0
ARC
  5
1E355
  8
0
 10
4561.5732393825119289
 20
478.0068867918220121
 30
0.0
 40
0.0050063164099097
 50
252.6571062873155995
 51
284.3110779012644116
  0
ARC
  5
1E356
  8
0
 10
4561.5702545431659019
 20
478.006893517745084
 30
0.0
 40
0.0050127899657327
 50
255.7098956929256985
 51
287.3219200074295259
  0
LINE
  5
1E357
  8
0
 10
4561.5668257919587631
 20
478.0521069028170018
 30
0.0
 11
4561.5668257919587631
 21
478.0407496264380143
 31
0.0
  0
LINE
  5
1E358
  8
0
 10
4561.5432037447590119
 20
478.0597862740378901
 30
0.0
 11
4561.5432037447590119
 21
478.0268273020379866
 31
0.0
  0
ARC
  5
1E359
  8
0
 10
4561.57347539062539
 20
478.0415360890680176
 30
0.0
 40
0.0066959454823001
 50
186.7451629251156078
 51
255.041625779999606
  0
LINE
  5
1E35A
  8
0
 10
4561.5195816974583067
 20
478.0521069027378758
 30
0.0
 11
4561.5195816974583067
 21
478.0407496264380143
 31
0.0
  0
ARC
  5
1E35B
  8
0
 10
4561.5128043956692636
 20
478.0416466832145943
 30
0.0
 40
0.0068364120999805
 50
285.7531628519049036
 51
352.4600484429475955
  0
LINE
  5
1E35C
  8
0
 10
4561.5717470517583934
 20
478.03420677143788
 30
0.0
 11
4561.5459335685591213
 21
478.0267550606379814
 31
0.0
  0
LINE
  5
1E35D
  8
0
 10
4561.540473920858858
 20
478.0267550606379814
 30
0.0
 11
4561.5146604375577226
 21
478.03420677143788
 31
0.0
  0
ARC
  5
1E35E
  8
0
 10
4561.5446960754115935
 20
478.0316060208219824
 30
0.0
 40
0.0050063164099097
 50
252.6571062873155995
 51
284.3110779012644116
  0
ARC
  5
1E35F
  8
0
 10
4561.5417112360673855
 20
478.0316127467451111
 30
0.0
 40
0.0050127899657327
 50
255.7098956929256985
 51
287.3219200074295259
  0
LINE
  5
1E360
  8
0
 10
4561.5953690990590985
 20
478.0768261319170165
 30
0.0
 11
4561.5953690990590985
 21
478.0654688555379721
 31
0.0
  0
LINE
  5
1E361
  8
0
 10
4561.5717470518584378
 20
478.0845055031379047
 30
0.0
 11
4561.5717470518584378
 21
478.0515465311378875
 31
0.0
  0
ARC
  5
1E362
  8
0
 10
4561.6020186977248159
 20
478.0662553181679755
 30
0.0
 40
0.0066959454823001
 50
186.7451629251156078
 51
255.041625779999606
  0
LINE
  5
1E363
  8
0
 10
4561.5481250045577326
 20
478.0768261318380041
 30
0.0
 11
4561.5481250045577326
 21
478.0654688555379721
 31
0.0
  0
ARC
  5
1E364
  8
0
 10
4561.5413477027686895
 20
478.0663659123144953
 30
0.0
 40
0.0068364120999805
 50
285.7531628519049036
 51
352.4600484429475955
  0
LINE
  5
1E365
  8
0
 10
4561.6002903588587287
 20
478.0589260005378947
 30
0.0
 11
4561.5744768756576377
 21
478.0514742897379961
 31
0.0
  0
LINE
  5
1E366
  8
0
 10
4561.5690172279591934
 20
478.0514742897379961
 30
0.0
 11
4561.543203744658058
 21
478.0589260005378947
 31
0.0
  0
ARC
  5
1E367
  8
0
 10
4561.5732393825119289
 20
478.0563252499221107
 30
0.0
 40
0.0050063164099097
 50
252.6571062873155995
 51
284.3110779012644116
  0
ARC
  5
1E368
  8
0
 10
4561.5702545431659019
 20
478.0563319758451257
 30
0.0
 40
0.0050127899657327
 50
255.7098956929256985
 51
287.3219200074295259
  0
LINE
  5
1E369
  8
0
 10
4561.5668257919587631
 20
478.1015453609169867
 30
0.0
 11
4561.5668257919587631
 21
478.0901880845378855
 31
0.0
  0
LINE
  5
1E36A
  8
0
 10
4561.5432037447590119
 20
478.1092247321379887
 30
0.0
 11
4561.5432037447590119
 21
478.0762657601379146
 31
0.0
  0
ARC
  5
1E36B
  8
0
 10
4561.57347539062539
 20
478.0909745471680026
 30
0.0
 40
0.0066959454823001
 50
186.7451629251156078
 51
255.041625779999606
  0
LINE
  5
1E36C
  8
0
 10
4561.5195816974583067
 20
478.1015453608379744
 30
0.0
 11
4561.5195816974583067
 21
478.0901880845378855
 31
0.0
  0
ARC
  5
1E36D
  8
0
 10
4561.5128043956692636
 20
478.0910851413145792
 30
0.0
 40
0.0068364120999805
 50
285.7531628519049036
 51
352.4600484429475955
  0
LINE
  5
1E36E
  8
0
 10
4561.5717470517583934
 20
478.0836452295379218
 30
0.0
 11
4561.5459335685591213
 21
478.0761935187380232
 31
0.0
  0
LINE
  5
1E36F
  8
0
 10
4561.540473920858858
 20
478.0761935187380232
 30
0.0
 11
4561.5146604375577226
 21
478.0836452295379218
 31
0.0
  0
ARC
  5
1E370
  8
0
 10
4561.5446960754115935
 20
478.081044478922081
 30
0.0
 40
0.0050063164099097
 50
252.6571062873155995
 51
284.3110779012644116
  0
ARC
  5
1E371
  8
0
 10
4561.5417112360673855
 20
478.081051204845096
 30
0.0
 40
0.0050127899657327
 50
255.7098956929256985
 51
287.3219200074295259
  0
LINE
  5
1E372
  8
0
 10
4561.5382824848593373
 20
478.0768261319170165
 30
0.0
 11
4561.5382824848593373
 21
478.0654688555379721
 31
0.0
  0
LINE
  5
1E373
  8
0
 10
4561.5146604376586765
 20
478.0845055031379047
 30
0.0
 11
4561.5146604376586765
 21
478.0515465311378875
 31
0.0
  0
ARC
  5
1E374
  8
0
 10
4561.5449320835259641
 20
478.0662553181679755
 30
0.0
 40
0.0066959454823001
 50
186.7451629251156078
 51
255.041625779999606
  0
LINE
  5
1E375
  8
0
 10
4561.4910383903588809
 20
478.0768261318380041
 30
0.0
 11
4561.4910383903588809
 21
478.0654688555379721
 31
0.0
  0
ARC
  5
1E376
  8
0
 10
4561.4842610885698377
 20
478.0663659123144953
 30
0.0
 40
0.0068364120999805
 50
285.7531628519049036
 51
352.4600484429475955
  0
LINE
  5
1E377
  8
0
 10
4561.543203744658058
 20
478.0589260005378947
 30
0.0
 11
4561.5173902614578765
 21
478.0514742897379961
 31
0.0
  0
LINE
  5
1E378
  8
0
 10
4561.5119306137576132
 20
478.0514742897379961
 30
0.0
 11
4561.4861171304582967
 21
478.0589260005378947
 31
0.0
  0
ARC
  5
1E379
  8
0
 10
4561.5161527683112581
 20
478.0563252499221107
 30
0.0
 40
0.0050063164099097
 50
252.6571062873155995
 51
284.3110779012644116
  0
ARC
  5
1E37A
  8
0
 10
4561.5131679289670501
 20
478.0563319758451257
 30
0.0
 40
0.0050127899657327
 50
255.7098956929256985
 51
287.3219200074295259
  0
LINE
  5
1E37B
  8
0
 10
4561.5668257919587631
 20
478.1015453609169867
 30
0.0
 11
4561.5668257919587631
 21
478.0901880845378855
 31
0.0
  0
LINE
  5
1E37C
  8
0
 10
4561.5432037447590119
 20
478.1092247321379887
 30
0.0
 11
4561.5432037447590119
 21
478.0762657601379146
 31
0.0
  0
ARC
  5
1E37D
  8
0
 10
4561.57347539062539
 20
478.0909745471680026
 30
0.0
 40
0.0066959454823001
 50
186.7451629251156078
 51
255.041625779999606
  0
LINE
  5
1E37E
  8
0
 10
4561.5195816974583067
 20
478.1015453608379744
 30
0.0
 11
4561.5195816974583067
 21
478.0901880845378855
 31
0.0
  0
ARC
  5
1E37F
  8
0
 10
4561.5128043956692636
 20
478.0910851413145792
 30
0.0
 40
0.0068364120999805
 50
285.7531628519049036
 51
352.4600484429475955
  0
LINE
  5
1E380
  8
0
 10
4561.5717470517583934
 20
478.0836452295379218
 30
0.0
 11
4561.5459335685591213
 21
478.0761935187380232
 31
0.0
  0
LINE
  5
1E381
  8
0
 10
4561.540473920858858
 20
478.0761935187380232
 30
0.0
 11
4561.5146604375577226
 21
478.0836452295379218
 31
0.0
  0
ARC
  5
1E382
  8
0
 10
4561.5446960754115935
 20
478.081044478922081
 30
0.0
 40
0.0050063164099097
 50
252.6571062873155995
 51
284.3110779012644116
  0
ARC
  5
1E383
  8
0
 10
4561.5417112360673855
 20
478.081051204845096
 30
0.0
 40
0.0050127899657327
 50
255.7098956929256985
 51
287.3219200074295259
  0
LINE
  5
1E384
  8
0
 10
4561.5382824848593373
 20
478.1262645899170138
 30
0.0
 11
4561.5382824848593373
 21
478.1149073135379126
 31
0.0
  0
LINE
  5
1E385
  8
0
 10
4561.5146604376586765
 20
478.1339439611379021
 30
0.0
 11
4561.5146604376586765
 21
478.1009849891379986
 31
0.0
  0
ARC
  5
1E386
  8
0
 10
4561.5449320835259641
 20
478.1156937761679728
 30
0.0
 40
0.0066959454823001
 50
186.7451629251156078
 51
255.041625779999606
  0
LINE
  5
1E387
  8
0
 10
4561.4910383903588809
 20
478.1262645898380015
 30
0.0
 11
4561.4910383903588809
 21
478.1149073135379126
 31
0.0
  0
ARC
  5
1E388
  8
0
 10
4561.4842610885698377
 20
478.1158043703146063
 30
0.0
 40
0.0068364120999805
 50
285.7531628519049036
 51
352.4600484429475955
  0
LINE
  5
1E389
  8
0
 10
4561.543203744658058
 20
478.108364458537892
 30
0.0
 11
4561.5173902614578765
 21
478.1009127477378797
 31
0.0
  0
LINE
  5
1E38A
  8
0
 10
4561.5119306137576132
 20
478.1009127477378797
 30
0.0
 11
4561.4861171304582967
 21
478.108364458537892
 31
0.0
  0
ARC
  5
1E38B
  8
0
 10
4561.5161527683112581
 20
478.1057637079221081
 30
0.0
 40
0.0050063164099097
 50
252.6571062873155995
 51
284.3110779012644116
  0
ARC
  5
1E38C
  8
0
 10
4561.5131679289670501
 20
478.1057704338451799
 30
0.0
 40
0.0050127899657327
 50
255.7098956929256985
 51
287.3219200074295259
  0
LINE
  5
1E38D
  8
0
 10
4561.5097391777590019
 20
478.1509838190170854
 30
0.0
 11
4561.5097391777590019
 21
478.1396265426379273
 31
0.0
  0
LINE
  5
1E38E
  8
0
 10
4561.4861171305583412
 20
478.1586631902379736
 30
0.0
 11
4561.4861171305583412
 21
478.1257042182378996
 31
0.0
  0
ARC
  5
1E38F
  8
0
 10
4561.5163887764247193
 20
478.1404130052678738
 30
0.0
 40
0.0066959454823001
 50
186.7451629251156078
 51
255.041625779999606
  0
LINE
  5
1E390
  8
0
 10
4561.462495083257636
 20
478.1509838189379025
 30
0.0
 11
4561.462495083257636
 21
478.1396265426379273
 31
0.0
  0
ARC
  5
1E391
  8
0
 10
4561.4557177814685929
 20
478.140523599414621
 30
0.0
 40
0.0068364120999805
 50
285.7531628519049036
 51
352.4600484429475955
  0
LINE
  5
1E392
  8
0
 10
4561.5146604375577226
 20
478.1330836876379067
 30
0.0
 11
4561.4888469543584506
 21
478.1256319768380081
 31
0.0
  0
LINE
  5
1E393
  8
0
 10
4561.4833873066590968
 20
478.1256319768380081
 30
0.0
 11
4561.4575738233588709
 21
478.1330836876379067
 31
0.0
  0
ARC
  5
1E394
  8
0
 10
4561.4876094612118322
 20
478.1304829370220091
 30
0.0
 40
0.0050063164099097
 50
252.6571062873155995
 51
284.3110779012644116
  0
ARC
  5
1E395
  8
0
 10
4561.4846246218667147
 20
478.1304896629451946
 30
0.0
 40
0.0050127899657327
 50
255.7098956929256985
 51
287.3219200074295259
  0
LINE
  5
1E396
  8
0
 10
4561.5382824848593373
 20
478.1757030480171125
 30
0.0
 11
4561.5382824848593373
 21
478.1643457716378975
 31
0.0
  0
LINE
  5
1E397
  8
0
 10
4561.5146604376586765
 20
478.183382419237887
 30
0.0
 11
4561.5146604376586765
 21
478.1504234472379835
 31
0.0
  0
ARC
  5
1E398
  8
0
 10
4561.5449320835259641
 20
478.1651322342680146
 30
0.0
 40
0.0066959454823001
 50
186.7451629251156078
 51
255.041625779999606
  0
LINE
  5
1E399
  8
0
 10
4561.4910383903588809
 20
478.1757030479378727
 30
0.0
 11
4561.4910383903588809
 21
478.1643457716378975
 31
0.0
  0
ARC
  5
1E39A
  8
0
 10
4561.4842610885698377
 20
478.1652428284145913
 30
0.0
 40
0.0068364120999805
 50
285.7531628519049036
 51
352.4600484429475955
  0
LINE
  5
1E39B
  8
0
 10
4561.543203744658058
 20
478.1578029166379906
 30
0.0
 11
4561.5173902614578765
 21
478.1503512058379215
 31
0.0
  0
LINE
  5
1E39C
  8
0
 10
4561.5119306137576132
 20
478.1503512058379215
 30
0.0
 11
4561.4861171304582967
 21
478.1578029166379906
 31
0.0
  0
ARC
  5
1E39D
  8
0
 10
4561.5161527683112581
 20
478.1552021660219793
 30
0.0
 40
0.0050063164099097
 50
252.6571062873155995
 51
284.3110779012644116
  0
ARC
  5
1E39E
  8
0
 10
4561.5131679289670501
 20
478.155208891945108
 30
0.0
 40
0.0050127899657327
 50
255.7098956929256985
 51
287.3219200074295259
  0
LINE
  5
1E39F
  8
0
 10
4561.5953690990590985
 20
478.1757030480171125
 30
0.0
 11
4561.5953690990590985
 21
478.1643457716378975
 31
0.0
  0
LINE
  5
1E3A0
  8
0
 10
4561.5717470518584378
 20
478.183382419237887
 30
0.0
 11
4561.5717470518584378
 21
478.1504234472379835
 31
0.0
  0
ARC
  5
1E3A1
  8
0
 10
4561.6020186977248159
 20
478.1651322342680146
 30
0.0
 40
0.0066959454823001
 50
186.7451629251156078
 51
255.041625779999606
  0
LINE
  5
1E3A2
  8
0
 10
4561.5481250045577326
 20
478.1757030479378727
 30
0.0
 11
4561.5481250045577326
 21
478.1643457716378975
 31
0.0
  0
ARC
  5
1E3A3
  8
0
 10
4561.5413477027686895
 20
478.1652428284145913
 30
0.0
 40
0.0068364120999805
 50
285.7531628519049036
 51
352.4600484429475955
  0
LINE
  5
1E3A4
  8
0
 10
4561.6002903588587287
 20
478.1578029166379906
 30
0.0
 11
4561.5744768756576377
 21
478.1503512058379215
 31
0.0
  0
LINE
  5
1E3A5
  8
0
 10
4561.5690172279591934
 20
478.1503512058379215
 30
0.0
 11
4561.543203744658058
 21
478.1578029166379906
 31
0.0
  0
ARC
  5
1E3A6
  8
0
 10
4561.5732393825119289
 20
478.1552021660219793
 30
0.0
 40
0.0050063164099097
 50
252.6571062873155995
 51
284.3110779012644116
  0
ARC
  5
1E3A7
  8
0
 10
4561.5702545431659019
 20
478.155208891945108
 30
0.0
 40
0.0050127899657327
 50
255.7098956929256985
 51
287.3219200074295259
  0
LINE
  5
1E3A8
  8
0
 10
4561.6524557131588153
 20
478.1757030480171125
 30
0.0
 11
4561.6524557131588153
 21
478.1643457716378975
 31
0.0
  0
LINE
  5
1E3A9
  8
0
 10
4561.6288336659590641
 20
478.183382419237887
 30
0.0
 11
4561.6288336659590641
 21
478.1504234472379835
 31
0.0
  0
ARC
  5
1E3AA
  8
0
 10
4561.6591053118254422
 20
478.1651322342680146
 30
0.0
 40
0.0066959454823001
 50
186.7451629251156078
 51
255.041625779999606
  0
LINE
  5
1E3AB
  8
0
 10
4561.6052116186583589
 20
478.1757030479378727
 30
0.0
 11
4561.6052116186583589
 21
478.1643457716378975
 31
0.0
  0
ARC
  5
1E3AC
  8
0
 10
4561.5984343168693158
 20
478.1652428284145913
 30
0.0
 40
0.0068364120999805
 50
285.7531628519049036
 51
352.4600484429475955
  0
LINE
  5
1E3AD
  8
0
 10
4561.6573769729584455
 20
478.1578029166379906
 30
0.0
 11
4561.6315634897591735
 21
478.1503512058379215
 31
0.0
  0
LINE
  5
1E3AE
  8
0
 10
4561.6261038420580007
 20
478.1503512058379215
 30
0.0
 11
4561.6002903587577748
 21
478.1578029166379906
 31
0.0
  0
ARC
  5
1E3AF
  8
0
 10
4561.6303259966116457
 20
478.1552021660219793
 30
0.0
 40
0.0050063164099097
 50
252.6571062873155995
 51
284.3110779012644116
  0
ARC
  5
1E3B0
  8
0
 10
4561.6273411572656187
 20
478.155208891945108
 30
0.0
 40
0.0050127899657327
 50
255.7098956929256985
 51
287.3219200074295259
  0
LINE
  5
1E3B1
  8
0
 10
4561.6809990202591507
 20
478.1509838190170854
 30
0.0
 11
4561.6809990202591507
 21
478.1396265426379273
 31
0.0
  0
LINE
  5
1E3B2
  8
0
 10
4561.6573769730575805
 20
478.1586631902379736
 30
0.0
 11
4561.6573769730575805
 21
478.1257042182378996
 31
0.0
  0
ARC
  5
1E3B3
  8
0
 10
4561.6876486189248681
 20
478.1404130052678738
 30
0.0
 40
0.0066959454823001
 50
186.7451629251156078
 51
255.041625779999606
  0
LINE
  5
1E3B4
  8
0
 10
4561.6337549257577848
 20
478.1509838189379025
 30
0.0
 11
4561.6337549257577848
 21
478.1396265426379273
 31
0.0
  0
ARC
  5
1E3B5
  8
0
 10
4561.6269776239687417
 20
478.140523599414621
 30
0.0
 40
0.0068364120999805
 50
285.7531628519049036
 51
352.4600484429475955
  0
LINE
  5
1E3B6
  8
0
 10
4561.6859202800587809
 20
478.1330836876379067
 30
0.0
 11
4561.6601067968585994
 21
478.1256319768380081
 31
0.0
  0
LINE
  5
1E3B7
  8
0
 10
4561.6546471491583361
 20
478.1256319768380081
 30
0.0
 11
4561.6288336658590197
 21
478.1330836876379067
 31
0.0
  0
ARC
  5
1E3B8
  8
0
 10
4561.658869303711981
 20
478.1304829370220091
 30
0.0
 40
0.0050063164099097
 50
252.6571062873155995
 51
284.3110779012644116
  0
ARC
  5
1E3B9
  8
0
 10
4561.6558844643668635
 20
478.1304896629451946
 30
0.0
 40
0.0050127899657327
 50
255.7098956929256985
 51
287.3219200074295259
  0
LINE
  5
1E3BA
  8
0
 10
4561.6859202801588253
 20
478.1339439611379021
 30
0.0
 11
4561.6859202801588253
 21
478.1009849891379986
 31
0.0
  0
LINE
  5
1E3BB
  8
0
 10
4561.6622982328590297
 20
478.1262645898380015
 30
0.0
 11
4561.6622982328590297
 21
478.1149073135379126
 31
0.0
  0
ARC
  5
1E3BC
  8
0
 10
4561.6555209310699865
 20
478.1158043703146063
 30
0.0
 40
0.0068364120999805
 50
285.7531628519049036
 51
352.4600484429475955
  0
LINE
  5
1E3BD
  8
0
 10
4561.7156181163163637
 20
478.1086977424005795
 30
0.0
 11
4561.6886501039589348
 21
478.1009127477378797
 31
0.0
  0
LINE
  5
1E3BE
  8
0
 10
4561.6831904562586715
 20
478.1009127477378797
 30
0.0
 11
4561.6573769729584455
 21
478.108364458537892
 31
0.0
  0
ARC
  5
1E3BF
  8
0
 10
4561.6874126108123164
 20
478.1057637079221081
 30
0.0
 40
0.0050063164099097
 50
252.6571062873155995
 51
284.3110779012644116
  0
ARC
  5
1E3C0
  8
0
 10
4561.6844277714662894
 20
478.1057704338451799
 30
0.0
 40
0.0050127899657327
 50
255.7098956929256985
 51
287.3219200074295259
  0
LINE
  5
1E3C1
  8
0
 10
4561.6239124061576149
 20
478.2004222771170134
 30
0.0
 11
4561.6239124061576149
 21
478.1890650007380259
 31
0.0
  0
LINE
  5
1E3C2
  8
0
 10
4561.6002903589587731
 20
478.2081016483379017
 30
0.0
 11
4561.6002903589587731
 21
478.1751426763379982
 31
0.0
  0
ARC
  5
1E3C3
  8
0
 10
4561.6305620048251512
 20
478.1898514633679724
 30
0.0
 40
0.0066959454823001
 50
186.7451629251156078
 51
255.041625779999606
  0
LINE
  5
1E3C4
  8
0
 10
4561.576668311658068
 20
478.2004222770380011
 30
0.0
 11
4561.576668311658068
 21
478.1890650007380259
 31
0.0
  0
ARC
  5
1E3C5
  8
0
 10
4561.5698910098690249
 20
478.1899620575146059
 30
0.0
 40
0.0068364120999805
 50
285.7531628519049036
 51
352.4600484429475955
  0
LINE
  5
1E3C6
  8
0
 10
4561.6288336659590641
 20
478.1825221457378916
 30
0.0
 11
4561.6030201827588826
 21
478.175070434937993
 31
0.0
  0
LINE
  5
1E3C7
  8
0
 10
4561.5975605350577098
 20
478.175070434937993
 30
0.0
 11
4561.5717470517583934
 21
478.1825221457378916
 31
0.0
  0
ARC
  5
1E3C8
  8
0
 10
4561.6017826896131737
 20
478.1799213951221077
 30
0.0
 40
0.0050063164099097
 50
252.6571062873155995
 51
284.3110779012644116
  0
ARC
  5
1E3C9
  8
0
 10
4561.5987978502671467
 20
478.1799281210451227
 30
0.0
 40
0.0050127899657327
 50
255.7098956929256985
 51
287.3219200074295259
  0
LINE
  5
1E3CA
  8
0
 10
4561.5668257919587631
 20
478.2004222771170134
 30
0.0
 11
4561.5668257919587631
 21
478.1890650007380259
 31
0.0
  0
LINE
  5
1E3CB
  8
0
 10
4561.5432037447590119
 20
478.2081016483379017
 30
0.0
 11
4561.5432037447590119
 21
478.1751426763379982
 31
0.0
  0
ARC
  5
1E3CC
  8
0
 10
4561.57347539062539
 20
478.1898514633679724
 30
0.0
 40
0.0066959454823001
 50
186.7451629251156078
 51
255.041625779999606
  0
LINE
  5
1E3CD
  8
0
 10
4561.5195816974583067
 20
478.2004222770380011
 30
0.0
 11
4561.5195816974583067
 21
478.1890650007380259
 31
0.0
  0
ARC
  5
1E3CE
  8
0
 10
4561.5128043956692636
 20
478.1899620575146059
 30
0.0
 40
0.0068364120999805
 50
285.7531628519049036
 51
352.4600484429475955
  0
LINE
  5
1E3CF
  8
0
 10
4561.5717470517583934
 20
478.1825221457378916
 30
0.0
 11
4561.5459335685591213
 21
478.175070434937993
 31
0.0
  0
LINE
  5
1E3D0
  8
0
 10
4561.540473920858858
 20
478.175070434937993
 30
0.0
 11
4561.5146604375577226
 21
478.1825221457378916
 31
0.0
  0
ARC
  5
1E3D1
  8
0
 10
4561.5446960754115935
 20
478.1799213951221077
 30
0.0
 40
0.0050063164099097
 50
252.6571062873155995
 51
284.3110779012644116
  0
ARC
  5
1E3D2
  8
0
 10
4561.5417112360673855
 20
478.1799281210451227
 30
0.0
 40
0.0050127899657327
 50
255.7098956929256985
 51
287.3219200074295259
  0
LINE
  5
1E3D3
  8
0
 10
4561.5953690990590985
 20
478.2212332120608949
 30
0.0
 11
4561.5953690990590985
 21
478.2137842297378825
 31
0.0
  0
LINE
  5
1E3D4
  8
0
 10
4561.5717470518584378
 20
478.2298420685414158
 30
0.0
 11
4561.5717470518584378
 21
478.1998619053379116
 31
0.0
  0
ARC
  5
1E3D5
  8
0
 10
4561.6020186977248159
 20
478.2145706923679995
 30
0.0
 40
0.0066959454823001
 50
186.7451629251156078
 51
255.041625779999606
  0
LINE
  5
1E3D6
  8
0
 10
4561.5481250045577326
 20
478.2251415060379145
 30
0.0
 11
4561.5481250045577326
 21
478.2137842297378825
 31
0.0
  0
ARC
  5
1E3D7
  8
0
 10
4561.5413477027686895
 20
478.2146812865145762
 30
0.0
 40
0.0068364120999805
 50
285.7531628519049036
 51
352.4600484429475955
  0
LINE
  5
1E3D8
  8
0
 10
4561.6002903588587287
 20
478.2072413747379187
 30
0.0
 11
4561.5744768756576377
 21
478.1997896639380201
 31
0.0
  0
LINE
  5
1E3D9
  8
0
 10
4561.5690172279591934
 20
478.1997896639380201
 30
0.0
 11
4561.543203744658058
 21
478.2072413747379187
 31
0.0
  0
ARC
  5
1E3DA
  8
0
 10
4561.5732393825119289
 20
478.2046406241220211
 30
0.0
 40
0.0050063164099097
 50
252.6571062873155995
 51
284.3110779012644116
  0
ARC
  5
1E3DB
  8
0
 10
4561.5702545431659019
 20
478.2046473500450929
 30
0.0
 40
0.0050127899657327
 50
255.7098956929256985
 51
287.3219200074295259
  0
LINE
  5
1E3DC
  8
0
 10
4561.5382824848593373
 20
478.2251415061169837
 30
0.0
 11
4561.5382824848593373
 21
478.2137842297378825
 31
0.0
  0
LINE
  5
1E3DD
  8
0
 10
4561.5146604376586765
 20
478.2328208773378719
 30
0.0
 11
4561.5146604376586765
 21
478.1998619053379116
 31
0.0
  0
ARC
  5
1E3DE
  8
0
 10
4561.5449320835259641
 20
478.2145706923679995
 30
0.0
 40
0.0066959454823001
 50
186.7451629251156078
 51
255.041625779999606
  0
LINE
  5
1E3DF
  8
0
 10
4561.4910383903588809
 20
478.2251415060379145
 30
0.0
 11
4561.4910383903588809
 21
478.2137842297378825
 31
0.0
  0
ARC
  5
1E3E0
  8
0
 10
4561.4842610885698377
 20
478.2146812865145762
 30
0.0
 40
0.0068364120999805
 50
285.7531628519049036
 51
352.4600484429475955
  0
LINE
  5
1E3E1
  8
0
 10
4561.543203744658058
 20
478.2072413747379187
 30
0.0
 11
4561.5173902614578765
 21
478.1997896639380201
 31
0.0
  0
LINE
  5
1E3E2
  8
0
 10
4561.5119306137576132
 20
478.1997896639380201
 30
0.0
 11
4561.4861171304582967
 21
478.2072413747379187
 31
0.0
  0
ARC
  5
1E3E3
  8
0
 10
4561.5161527683112581
 20
478.2046406241220211
 30
0.0
 40
0.0050063164099097
 50
252.6571062873155995
 51
284.3110779012644116
  0
ARC
  5
1E3E4
  8
0
 10
4561.5131679289670501
 20
478.2046473500450929
 30
0.0
 40
0.0050127899657327
 50
255.7098956929256985
 51
287.3219200074295259
  0
LINE
  5
1E3E5
  8
0
 10
4561.481195870657757
 20
478.2251415061169837
 30
0.0
 11
4561.481195870657757
 21
478.2137842297378825
 31
0.0
  0
LINE
  5
1E3E6
  8
0
 10
4561.4575738234589153
 20
478.2328208773378719
 30
0.0
 11
4561.4575738234589153
 21
478.1998619053379116
 31
0.0
  0
ARC
  5
1E3E7
  8
0
 10
4561.4878454693262029
 20
478.2145706923679995
 30
0.0
 40
0.0066959454823001
 50
186.7451629251156078
 51
255.041625779999606
  0
LINE
  5
1E3E8
  8
0
 10
4561.4339517761591196
 20
478.2251415060379145
 30
0.0
 11
4561.4339517761591196
 21
478.2137842297378825
 31
0.0
  0
ARC
  5
1E3E9
  8
0
 10
4561.4271744743700765
 20
478.2146812865145762
 30
0.0
 40
0.0068364120999805
 50
285.7531628519049036
 51
352.4600484429475955
  0
LINE
  5
1E3EA
  8
0
 10
4561.4861171304582967
 20
478.2072413747379187
 30
0.0
 11
4561.4603036472590247
 21
478.1997896639380201
 31
0.0
  0
LINE
  5
1E3EB
  8
0
 10
4561.4548439995578519
 20
478.1997896639380201
 30
0.0
 11
4561.429030516257626
 21
478.2072413747379187
 31
0.0
  0
ARC
  5
1E3EC
  8
0
 10
4561.4590661541105874
 20
478.2046406241220211
 30
0.0
 40
0.0050063164099097
 50
252.6571062873155995
 51
284.3110779012644116
  0
ARC
  5
1E3ED
  8
0
 10
4561.4560813147672889
 20
478.2046473500450929
 30
0.0
 40
0.0050127899657327
 50
255.7098956929256985
 51
287.3219200074295259
  0
LINE
  5
1E3EE
  8
0
 10
4561.5097391777590019
 20
478.2004222771170134
 30
0.0
 11
4561.5097391777590019
 21
478.1890650007380259
 31
0.0
  0
LINE
  5
1E3EF
  8
0
 10
4561.4861171305583412
 20
478.2081016483379017
 30
0.0
 11
4561.4861171305583412
 21
478.1751426763379982
 31
0.0
  0
ARC
  5
1E3F0
  8
0
 10
4561.5163887764247193
 20
478.1898514633679724
 30
0.0
 40
0.0066959454823001
 50
186.7451629251156078
 51
255.041625779999606
  0
LINE
  5
1E3F1
  8
0
 10
4561.462495083257636
 20
478.2004222770380011
 30
0.0
 11
4561.462495083257636
 21
478.1890650007380259
 31
0.0
  0
ARC
  5
1E3F2
  8
0
 10
4561.4557177814685929
 20
478.1899620575146059
 30
0.0
 40
0.0068364120999805
 50
285.7531628519049036
 51
352.4600484429475955
  0
LINE
  5
1E3F3
  8
0
 10
4561.5146604375577226
 20
478.1825221457378916
 30
0.0
 11
4561.4888469543584506
 21
478.175070434937993
 31
0.0
  0
LINE
  5
1E3F4
  8
0
 10
4561.4833873066590968
 20
478.175070434937993
 30
0.0
 11
4561.4575738233588709
 21
478.1825221457378916
 31
0.0
  0
ARC
  5
1E3F5
  8
0
 10
4561.4876094612118322
 20
478.1799213951221077
 30
0.0
 40
0.0050063164099097
 50
252.6571062873155995
 51
284.3110779012644116
  0
ARC
  5
1E3F6
  8
0
 10
4561.4846246218667147
 20
478.1799281210451227
 30
0.0
 40
0.0050127899657327
 50
255.7098956929256985
 51
287.3219200074295259
  0
LINE
  5
1E3F7
  8
0
 10
4561.481195870657757
 20
478.1757030480171125
 30
0.0
 11
4561.481195870657757
 21
478.1643457716378975
 31
0.0
  0
LINE
  5
1E3F8
  8
0
 10
4561.4575738234589153
 20
478.183382419237887
 30
0.0
 11
4561.4575738234589153
 21
478.1504234472379835
 31
0.0
  0
ARC
  5
1E3F9
  8
0
 10
4561.4878454693262029
 20
478.1651322342680146
 30
0.0
 40
0.0066959454823001
 50
186.7451629251156078
 51
255.041625779999606
  0
LINE
  5
1E3FA
  8
0
 10
4561.4339517761591196
 20
478.1757030479378727
 30
0.0
 11
4561.4339517761591196
 21
478.1643457716378975
 31
0.0
  0
ARC
  5
1E3FB
  8
0
 10
4561.4271744743700765
 20
478.1652428284145913
 30
0.0
 40
0.0068364120999805
 50
285.7531628519049036
 51
352.4600484429475955
  0
LINE
  5
1E3FC
  8
0
 10
4561.4861171304582967
 20
478.1578029166379906
 30
0.0
 11
4561.4603036472590247
 21
478.1503512058379215
 31
0.0
  0
LINE
  5
1E3FD
  8
0
 10
4561.4548439995578519
 20
478.1503512058379215
 30
0.0
 11
4561.429030516257626
 21
478.1578029166379906
 31
0.0
  0
ARC
  5
1E3FE
  8
0
 10
4561.4590661541105874
 20
478.1552021660219793
 30
0.0
 40
0.0050063164099097
 50
252.6571062873155995
 51
284.3110779012644116
  0
ARC
  5
1E3FF
  8
0
 10
4561.4560813147672889
 20
478.155208891945108
 30
0.0
 40
0.0050127899657327
 50
255.7098956929256985
 51
287.3219200074295259
  0
LINE
  5
1E400
  8
0
 10
4561.4526525635583312
 20
478.2004222771170134
 30
0.0
 11
4561.4526525635583312
 21
478.1890650007380259
 31
0.0
  0
LINE
  5
1E401
  8
0
 10
4561.4290305163576704
 20
478.2081016483379017
 30
0.0
 11
4561.4290305163576704
 21
478.1751426763379982
 31
0.0
  0
ARC
  5
1E402
  8
0
 10
4561.4593021622258675
 20
478.1898514633679724
 30
0.0
 40
0.0066959454823001
 50
186.7451629251156078
 51
255.041625779999606
  0
LINE
  5
1E403
  8
0
 10
4561.4054084690587842
 20
478.2004222770380011
 30
0.0
 11
4561.4054084690587842
 21
478.1890650007380259
 31
0.0
  0
ARC
  5
1E404
  8
0
 10
4561.3986311672697411
 20
478.1899620575146059
 30
0.0
 40
0.0068364120999805
 50
285.7531628519049036
 51
352.4600484429475955
  0
LINE
  5
1E405
  8
0
 10
4561.4575738233588709
 20
478.1825221457378916
 30
0.0
 11
4561.4317603401577799
 21
478.175070434937993
 31
0.0
  0
LINE
  5
1E406
  8
0
 10
4561.4263006924593356
 20
478.175070434937993
 30
0.0
 11
4561.4004872091591096
 21
478.1825221457378916
 31
0.0
  0
ARC
  5
1E407
  8
0
 10
4561.430522847012071
 20
478.1799213951221077
 30
0.0
 40
0.0050063164099097
 50
252.6571062873155995
 51
284.3110779012644116
  0
ARC
  5
1E408
  8
0
 10
4561.427538007666044
 20
478.1799281210451227
 30
0.0
 40
0.0050127899657327
 50
255.7098956929256985
 51
287.3219200074295259
  0
LINE
  5
1E409
  8
0
 10
4561.4526525635583312
 20
478.2498607352171121
 30
0.0
 11
4561.4526525635583312
 21
478.2385034588378971
 31
0.0
  0
LINE
  5
1E40A
  8
0
 10
4561.4290305163576704
 20
478.2543157996450987
 30
0.0
 11
4561.4290305163576704
 21
478.2245811344379263
 31
0.0
  0
ARC
  5
1E40B
  8
0
 10
4561.4593021622258675
 20
478.2392899214680142
 30
0.0
 40
0.0066959454823001
 50
186.7451629251156078
 51
255.041625779999606
  0
LINE
  5
1E40C
  8
0
 10
4561.4054084690587842
 20
478.249860735137986
 30
0.0
 11
4561.4054084690587842
 21
478.2385034588378971
 31
0.0
  0
ARC
  5
1E40D
  8
0
 10
4561.3986311672697411
 20
478.2394005156145909
 30
0.0
 40
0.0068364120999805
 50
285.7531628519049036
 51
352.4600484429475955
  0
LINE
  5
1E40E
  8
0
 10
4561.4575738233588709
 20
478.2319606038378765
 30
0.0
 11
4561.4317603401577799
 21
478.2245088930379779
 31
0.0
  0
LINE
  5
1E40F
  8
0
 10
4561.4263006924593356
 20
478.2245088930379779
 30
0.0
 11
4561.4004872091591096
 21
478.2319606038378765
 31
0.0
  0
ARC
  5
1E410
  8
0
 10
4561.430522847012071
 20
478.2293598532220926
 30
0.0
 40
0.0050063164099097
 50
252.6571062873155995
 51
284.3110779012644116
  0
ARC
  5
1E411
  8
0
 10
4561.427538007666044
 20
478.2293665791451076
 30
0.0
 40
0.0050127899657327
 50
255.7098956929256985
 51
287.3219200074295259
  0
LINE
  5
1E412
  8
0
 10
4561.5097391777590019
 20
478.2451792769903136
 30
0.0
 11
4561.5097391777590019
 21
478.2385034588378971
 31
0.0
  0
LINE
  5
1E413
  8
0
 10
4561.4861171305583412
 20
478.2489778860243064
 30
0.0
 11
4561.4861171305583412
 21
478.2245811344379263
 31
0.0
  0
ARC
  5
1E414
  8
0
 10
4561.5163887764247193
 20
478.2392899214680142
 30
0.0
 40
0.0066959454823001
 50
186.7451629251156078
 51
255.041625779999606
  0
LINE
  5
1E415
  8
0
 10
4561.462495083257636
 20
478.249860735137986
 30
0.0
 11
4561.462495083257636
 21
478.2385034588378971
 31
0.0
  0
ARC
  5
1E416
  8
0
 10
4561.4557177814685929
 20
478.2394005156145909
 30
0.0
 40
0.0068364120999805
 50
285.7531628519049036
 51
352.4600484429475955
  0
LINE
  5
1E417
  8
0
 10
4561.5146604375577226
 20
478.2319606038378765
 30
0.0
 11
4561.4888469543584506
 21
478.2245088930379779
 31
0.0
  0
LINE
  5
1E418
  8
0
 10
4561.4833873066590968
 20
478.2245088930379779
 30
0.0
 11
4561.4575738233588709
 21
478.2319606038378765
 31
0.0
  0
ARC
  5
1E419
  8
0
 10
4561.4876094612118322
 20
478.2293598532220926
 30
0.0
 40
0.0050063164099097
 50
252.6571062873155995
 51
284.3110779012644116
  0
ARC
  5
1E41A
  8
0
 10
4561.4846246218667147
 20
478.2293665791451076
 30
0.0
 40
0.0050127899657327
 50
255.7098956929256985
 51
287.3219200074295259
  0
LINE
  5
1E41B
  8
0
 10
4561.5432037447590119
 20
478.2381168165427994
 30
0.0
 11
4561.5432037447590119
 21
478.2245811344379263
 31
0.0
  0
LINE
  5
1E41C
  8
0
 10
4561.5195816974583067
 20
478.2433160316580825
 30
0.0
 11
4561.5195816974583067
 21
478.2385034588378971
 31
0.0
  0
ARC
  5
1E41D
  8
0
 10
4561.5128043956692636
 20
478.2394005156145909
 30
0.0
 40
0.0068364120999805
 50
285.7531628519049036
 51
352.4600484429475955
  0
LINE
  5
1E41E
  8
0
 10
4561.5682945169937739
 20
478.230963942891492
 30
0.0
 11
4561.5459335685591213
 21
478.2245088930379779
 31
0.0
  0
LINE
  5
1E41F
  8
0
 10
4561.540473920858858
 20
478.2245088930379779
 30
0.0
 11
4561.5146604375577226
 21
478.2319606038378765
 31
0.0
  0
ARC
  5
1E420
  8
0
 10
4561.5446960754115935
 20
478.2293598532220926
 30
0.0
 40
0.0050063164099097
 50
252.6571062873155995
 51
284.3110779012644116
  0
ARC
  5
1E421
  8
0
 10
4561.5417112360673855
 20
478.2293665791451076
 30
0.0
 40
0.0050127899657327
 50
255.7098956929256985
 51
287.3219200074295259
  0
LINE
  5
1E422
  8
0
 10
4561.481195870657757
 20
478.1262645899170138
 30
0.0
 11
4561.481195870657757
 21
478.1149073135379126
 31
0.0
  0
LINE
  5
1E423
  8
0
 10
4561.4575738234589153
 20
478.1339439611379021
 30
0.0
 11
4561.4575738234589153
 21
478.1009849891379986
 31
0.0
  0
ARC
  5
1E424
  8
0
 10
4561.4878454693262029
 20
478.1156937761679728
 30
0.0
 40
0.0066959454823001
 50
186.7451629251156078
 51
255.041625779999606
  0
LINE
  5
1E425
  8
0
 10
4561.4339517761591196
 20
478.1262645898380015
 30
0.0
 11
4561.4339517761591196
 21
478.1149073135379126
 31
0.0
  0
ARC
  5
1E426
  8
0
 10
4561.4271744743700765
 20
478.1158043703146063
 30
0.0
 40
0.0068364120999805
 50
285.7531628519049036
 51
352.4600484429475955
  0
LINE
  5
1E427
  8
0
 10
4561.4861171304582967
 20
478.108364458537892
 30
0.0
 11
4561.4603036472590247
 21
478.1009127477378797
 31
0.0
  0
LINE
  5
1E428
  8
0
 10
4561.4548439995578519
 20
478.1009127477378797
 30
0.0
 11
4561.429030516257626
 21
478.108364458537892
 31
0.0
  0
ARC
  5
1E429
  8
0
 10
4561.4590661541105874
 20
478.1057637079221081
 30
0.0
 40
0.0050063164099097
 50
252.6571062873155995
 51
284.3110779012644116
  0
ARC
  5
1E42A
  8
0
 10
4561.4560813147672889
 20
478.1057704338451799
 30
0.0
 40
0.0050127899657327
 50
255.7098956929256985
 51
287.3219200074295259
  0
LINE
  5
1E42B
  8
0
 10
4561.5097391777590019
 20
478.1015453609169867
 30
0.0
 11
4561.5097391777590019
 21
478.0901880845378855
 31
0.0
  0
LINE
  5
1E42C
  8
0
 10
4561.4861171305583412
 20
478.1092247321379887
 30
0.0
 11
4561.4861171305583412
 21
478.0762657601379146
 31
0.0
  0
ARC
  5
1E42D
  8
0
 10
4561.5163887764247193
 20
478.0909745471680026
 30
0.0
 40
0.0066959454823001
 50
186.7451629251156078
 51
255.041625779999606
  0
LINE
  5
1E42E
  8
0
 10
4561.462495083257636
 20
478.1015453608379744
 30
0.0
 11
4561.462495083257636
 21
478.0901880845378855
 31
0.0
  0
ARC
  5
1E42F
  8
0
 10
4561.4557177814685929
 20
478.0910851413145792
 30
0.0
 40
0.0068364120999805
 50
285.7531628519049036
 51
352.4600484429475955
  0
LINE
  5
1E430
  8
0
 10
4561.5146604375577226
 20
478.0836452295379218
 30
0.0
 11
4561.4888469543584506
 21
478.0761935187380232
 31
0.0
  0
LINE
  5
1E431
  8
0
 10
4561.4833873066590968
 20
478.0761935187380232
 30
0.0
 11
4561.4575738233588709
 21
478.0836452295379218
 31
0.0
  0
ARC
  5
1E432
  8
0
 10
4561.4876094612118322
 20
478.081044478922081
 30
0.0
 40
0.0050063164099097
 50
252.6571062873155995
 51
284.3110779012644116
  0
ARC
  5
1E433
  8
0
 10
4561.4846246218667147
 20
478.081051204845096
 30
0.0
 40
0.0050127899657327
 50
255.7098956929256985
 51
287.3219200074295259
  0
LINE
  5
1E434
  8
0
 10
4561.481195870657757
 20
478.0768261319170165
 30
0.0
 11
4561.481195870657757
 21
478.0654688555379721
 31
0.0
  0
LINE
  5
1E435
  8
0
 10
4561.4575738234589153
 20
478.0845055031379047
 30
0.0
 11
4561.4575738234589153
 21
478.0515465311378875
 31
0.0
  0
ARC
  5
1E436
  8
0
 10
4561.4878454693262029
 20
478.0662553181679755
 30
0.0
 40
0.0066959454823001
 50
186.7451629251156078
 51
255.041625779999606
  0
LINE
  5
1E437
  8
0
 10
4561.4339517761591196
 20
478.0768261318380041
 30
0.0
 11
4561.4339517761591196
 21
478.0654688555379721
 31
0.0
  0
ARC
  5
1E438
  8
0
 10
4561.4271744743700765
 20
478.0663659123144953
 30
0.0
 40
0.0068364120999805
 50
285.7531628519049036
 51
352.4600484429475955
  0
LINE
  5
1E439
  8
0
 10
4561.4861171304582967
 20
478.0589260005378947
 30
0.0
 11
4561.4603036472590247
 21
478.0514742897379961
 31
0.0
  0
LINE
  5
1E43A
  8
0
 10
4561.4548439995578519
 20
478.0514742897379961
 30
0.0
 11
4561.429030516257626
 21
478.0589260005378947
 31
0.0
  0
ARC
  5
1E43B
  8
0
 10
4561.4590661541105874
 20
478.0563252499221107
 30
0.0
 40
0.0050063164099097
 50
252.6571062873155995
 51
284.3110779012644116
  0
ARC
  5
1E43C
  8
0
 10
4561.4560813147672889
 20
478.0563319758451257
 30
0.0
 40
0.0050127899657327
 50
255.7098956929256985
 51
287.3219200074295259
  0
LINE
  5
1E43D
  8
0
 10
4561.5097391777590019
 20
478.0521069028170018
 30
0.0
 11
4561.5097391777590019
 21
478.0407496264380143
 31
0.0
  0
LINE
  5
1E43E
  8
0
 10
4561.4861171305583412
 20
478.0597862740378901
 30
0.0
 11
4561.4861171305583412
 21
478.0268273020379866
 31
0.0
  0
ARC
  5
1E43F
  8
0
 10
4561.5163887764247193
 20
478.0415360890680176
 30
0.0
 40
0.0066959454823001
 50
186.7451629251156078
 51
255.041625779999606
  0
LINE
  5
1E440
  8
0
 10
4561.462495083257636
 20
478.0521069027378758
 30
0.0
 11
4561.462495083257636
 21
478.0407496264380143
 31
0.0
  0
ARC
  5
1E441
  8
0
 10
4561.4557177814685929
 20
478.0416466832145943
 30
0.0
 40
0.0068364120999805
 50
285.7531628519049036
 51
352.4600484429475955
  0
LINE
  5
1E442
  8
0
 10
4561.5146604375577226
 20
478.03420677143788
 30
0.0
 11
4561.4888469543584506
 21
478.0267550606379814
 31
0.0
  0
LINE
  5
1E443
  8
0
 10
4561.4833873066590968
 20
478.0267550606379814
 30
0.0
 11
4561.4575738233588709
 21
478.03420677143788
 31
0.0
  0
ARC
  5
1E444
  8
0
 10
4561.4876094612118322
 20
478.0316060208219824
 30
0.0
 40
0.0050063164099097
 50
252.6571062873155995
 51
284.3110779012644116
  0
ARC
  5
1E445
  8
0
 10
4561.4846246218667147
 20
478.0316127467451111
 30
0.0
 40
0.0050127899657327
 50
255.7098956929256985
 51
287.3219200074295259
  0
LINE
  5
1E446
  8
0
 10
4561.5382824848593373
 20
478.0273876738170884
 30
0.0
 11
4561.5382824848593373
 21
478.0160303974379872
 31
0.0
  0
LINE
  5
1E447
  8
0
 10
4561.5146604376586765
 20
478.0350670450379198
 30
0.0
 11
4561.5146604376586765
 21
478.0021080730379026
 31
0.0
  0
ARC
  5
1E448
  8
0
 10
4561.5449320835259641
 20
478.0168168600678769
 30
0.0
 40
0.0066959454823001
 50
186.7451629251156078
 51
255.041625779999606
  0
LINE
  5
1E449
  8
0
 10
4561.4910383903588809
 20
478.0273876737379055
 30
0.0
 11
4561.4910383903588809
 21
478.0160303974379872
 31
0.0
  0
ARC
  5
1E44A
  8
0
 10
4561.4842610885698377
 20
478.016927454214624
 30
0.0
 40
0.0068364120999805
 50
285.7531628519049036
 51
352.4600484429475955
  0
LINE
  5
1E44B
  8
0
 10
4561.543203744658058
 20
478.0094875424380234
 30
0.0
 11
4561.5173902614578765
 21
478.0020358316378974
 31
0.0
  0
LINE
  5
1E44C
  8
0
 10
4561.5119306137576132
 20
478.0020358316378974
 30
0.0
 11
4561.4861171304582967
 21
478.0094875424380234
 31
0.0
  0
ARC
  5
1E44D
  8
0
 10
4561.5161527683112581
 20
478.0068867918220121
 30
0.0
 40
0.0050063164099097
 50
252.6571062873155995
 51
284.3110779012644116
  0
ARC
  5
1E44E
  8
0
 10
4561.5131679289670501
 20
478.006893517745084
 30
0.0
 40
0.0050127899657327
 50
255.7098956929256985
 51
287.3219200074295259
  0
LINE
  5
1E44F
  8
0
 10
4561.5097391777590019
 20
478.0026684447170737
 30
0.0
 11
4561.5097391777590019
 21
477.9913111683379157
 31
0.0
  0
LINE
  5
1E450
  8
0
 10
4561.4861171305583412
 20
478.0103478159380188
 30
0.0
 11
4561.4861171305583412
 21
477.9773888439380016
 31
0.0
  0
ARC
  5
1E451
  8
0
 10
4561.5163887764247193
 20
477.9920976309679759
 30
0.0
 40
0.0066959454823001
 50
186.7451629251156078
 51
255.041625779999606
  0
LINE
  5
1E452
  8
0
 10
4561.462495083257636
 20
478.0026684446378908
 30
0.0
 11
4561.462495083257636
 21
477.9913111683379157
 31
0.0
  0
ARC
  5
1E453
  8
0
 10
4561.4557177814685929
 20
477.9922082251146094
 30
0.0
 40
0.0068364120999805
 50
285.7531628519049036
 51
352.4600484429475955
  0
LINE
  5
1E454
  8
0
 10
4561.5146604375577226
 20
477.9847683133380087
 30
0.0
 11
4561.4888469543584506
 21
477.9773166025378828
 31
0.0
  0
LINE
  5
1E455
  8
0
 10
4561.4833873066590968
 20
477.9773166025378828
 30
0.0
 11
4561.4575738233588709
 21
477.9847683133380087
 31
0.0
  0
ARC
  5
1E456
  8
0
 10
4561.4876094612118322
 20
477.9821675627219975
 30
0.0
 40
0.0050063164099097
 50
252.6571062873155995
 51
284.3110779012644116
  0
ARC
  5
1E457
  8
0
 10
4561.4846246218667147
 20
477.982174288645183
 30
0.0
 40
0.0050127899657327
 50
255.7098956929256985
 51
287.3219200074295259
  0
LINE
  5
1E458
  8
0
 10
4561.481195870657757
 20
478.0273876738170884
 30
0.0
 11
4561.481195870657757
 21
478.0160303974379872
 31
0.0
  0
LINE
  5
1E459
  8
0
 10
4561.4575738234589153
 20
478.0350670450379198
 30
0.0
 11
4561.4575738234589153
 21
478.0021080730379026
 31
0.0
  0
ARC
  5
1E45A
  8
0
 10
4561.4878454693262029
 20
478.0168168600678769
 30
0.0
 40
0.0066959454823001
 50
186.7451629251156078
 51
255.041625779999606
  0
LINE
  5
1E45B
  8
0
 10
4561.4339517761591196
 20
478.0273876737379055
 30
0.0
 11
4561.4339517761591196
 21
478.0160303974379872
 31
0.0
  0
ARC
  5
1E45C
  8
0
 10
4561.4271744743700765
 20
478.016927454214624
 30
0.0
 40
0.0068364120999805
 50
285.7531628519049036
 51
352.4600484429475955
  0
LINE
  5
1E45D
  8
0
 10
4561.4861171304582967
 20
478.0094875424380234
 30
0.0
 11
4561.4603036472590247
 21
478.0020358316378974
 31
0.0
  0
LINE
  5
1E45E
  8
0
 10
4561.4548439995578519
 20
478.0020358316378974
 30
0.0
 11
4561.429030516257626
 21
478.0094875424380234
 31
0.0
  0
ARC
  5
1E45F
  8
0
 10
4561.4590661541105874
 20
478.0068867918220121
 30
0.0
 40
0.0050063164099097
 50
252.6571062873155995
 51
284.3110779012644116
  0
ARC
  5
1E460
  8
0
 10
4561.4560813147672889
 20
478.006893517745084
 30
0.0
 40
0.0050127899657327
 50
255.7098956929256985
 51
287.3219200074295259
  0
LINE
  5
1E461
  8
0
 10
4561.4526525635583312
 20
478.0026684447170737
 30
0.0
 11
4561.4526525635583312
 21
477.9913111683379157
 31
0.0
  0
LINE
  5
1E462
  8
0
 10
4561.4290305163576704
 20
478.0103478159380188
 30
0.0
 11
4561.4290305163576704
 21
477.9773888439380016
 31
0.0
  0
ARC
  5
1E463
  8
0
 10
4561.4593021622258675
 20
477.9920976309679759
 30
0.0
 40
0.0066959454823001
 50
186.7451629251156078
 51
255.041625779999606
  0
LINE
  5
1E464
  8
0
 10
4561.4054084690587842
 20
478.0026684446378908
 30
0.0
 11
4561.4054084690587842
 21
477.9913111683379157
 31
0.0
  0
ARC
  5
1E465
  8
0
 10
4561.3986311672697411
 20
477.9922082251146094
 30
0.0
 40
0.0068364120999805
 50
285.7531628519049036
 51
352.4600484429475955
  0
LINE
  5
1E466
  8
0
 10
4561.4575738233588709
 20
477.9847683133380087
 30
0.0
 11
4561.4317603401577799
 21
477.9773166025378828
 31
0.0
  0
LINE
  5
1E467
  8
0
 10
4561.4263006924593356
 20
477.9773166025378828
 30
0.0
 11
4561.4004872091591096
 21
477.9847683133380087
 31
0.0
  0
ARC
  5
1E468
  8
0
 10
4561.430522847012071
 20
477.9821675627219975
 30
0.0
 40
0.0050063164099097
 50
252.6571062873155995
 51
284.3110779012644116
  0
ARC
  5
1E469
  8
0
 10
4561.427538007666044
 20
477.982174288645183
 30
0.0
 40
0.0050127899657327
 50
255.7098956929256985
 51
287.3219200074295259
  0
LINE
  5
1E46A
  8
0
 10
4561.4241092565589497
 20
478.0273876738170884
 30
0.0
 11
4561.4241092565589497
 21
478.0160303974379872
 31
0.0
  0
LINE
  5
1E46B
  8
0
 10
4561.400487209358289
 20
478.0350670450379198
 30
0.0
 11
4561.400487209358289
 21
478.0021080730379026
 31
0.0
  0
ARC
  5
1E46C
  8
0
 10
4561.4307588552255766
 20
478.0168168600678769
 30
0.0
 40
0.0066959454823001
 50
186.7451629251156078
 51
255.041625779999606
  0
LINE
  5
1E46D
  8
0
 10
4561.4290305163576704
 20
478.0094875424380234
 30
0.0
 11
4561.4032170331583984
 21
478.0020358316378974
 31
0.0
  0
ARC
  5
1E46E
  8
0
 10
4561.4019795400108706
 20
478.0068867918220121
 30
0.0
 40
0.0050063164099097
 50
252.6571062873155995
 51
284.3110779012644116
  0
LINE
  5
1E46F
  8
0
 10
4561.4526525635583312
 20
478.0521069028170018
 30
0.0
 11
4561.4526525635583312
 21
478.0407496264380143
 31
0.0
  0
LINE
  5
1E470
  8
0
 10
4561.4290305163576704
 20
478.0597862740378901
 30
0.0
 11
4561.4290305163576704
 21
478.0268273020379866
 31
0.0
  0
ARC
  5
1E471
  8
0
 10
4561.4593021622258675
 20
478.0415360890680176
 30
0.0
 40
0.0066959454823001
 50
186.7451629251156078
 51
255.041625779999606
  0
LINE
  5
1E472
  8
0
 10
4561.4054084690587842
 20
478.0521069027378758
 30
0.0
 11
4561.4054084690587842
 21
478.0407496264380143
 31
0.0
  0
ARC
  5
1E473
  8
0
 10
4561.3986311672697411
 20
478.0416466832145943
 30
0.0
 40
0.0068364120999805
 50
285.7531628519049036
 51
352.4600484429475955
  0
LINE
  5
1E474
  8
0
 10
4561.4575738233588709
 20
478.03420677143788
 30
0.0
 11
4561.4317603401577799
 21
478.0267550606379814
 31
0.0
  0
LINE
  5
1E475
  8
0
 10
4561.4263006924593356
 20
478.0267550606379814
 30
0.0
 11
4561.4004872091591096
 21
478.03420677143788
 31
0.0
  0
ARC
  5
1E476
  8
0
 10
4561.430522847012071
 20
478.0316060208219824
 30
0.0
 40
0.0050063164099097
 50
252.6571062873155995
 51
284.3110779012644116
  0
ARC
  5
1E477
  8
0
 10
4561.427538007666044
 20
478.0316127467451111
 30
0.0
 40
0.0050127899657327
 50
255.7098956929256985
 51
287.3219200074295259
  0
LINE
  5
1E478
  8
0
 10
4561.4241092565589497
 20
478.0768261319170165
 30
0.0
 11
4561.4241092565589497
 21
478.0654688555379721
 31
0.0
  0
LINE
  5
1E479
  8
0
 10
4561.400487209358289
 20
478.0845055031379047
 30
0.0
 11
4561.400487209358289
 21
478.0515465311378875
 31
0.0
  0
ARC
  5
1E47A
  8
0
 10
4561.4307588552255766
 20
478.0662553181679755
 30
0.0
 40
0.0066959454823001
 50
186.7451629251156078
 51
255.041625779999606
  0
LINE
  5
1E47B
  8
0
 10
4561.4290305163576704
 20
478.0589260005378947
 30
0.0
 11
4561.4032170331583984
 21
478.0514742897379961
 31
0.0
  0
ARC
  5
1E47C
  8
0
 10
4561.4019795400108706
 20
478.0563252499221107
 30
0.0
 40
0.0050063164099097
 50
252.6571062873155995
 51
284.3110779012644116
  0
LINE
  5
1E47D
  8
0
 10
4561.4526525635583312
 20
478.1015453609169867
 30
0.0
 11
4561.4526525635583312
 21
478.0901880845378855
 31
0.0
  0
LINE
  5
1E47E
  8
0
 10
4561.4290305163576704
 20
478.1092247321379887
 30
0.0
 11
4561.4290305163576704
 21
478.0762657601379146
 31
0.0
  0
ARC
  5
1E47F
  8
0
 10
4561.4593021622258675
 20
478.0909745471680026
 30
0.0
 40
0.0066959454823001
 50
186.7451629251156078
 51
255.041625779999606
  0
LINE
  5
1E480
  8
0
 10
4561.4054084690587842
 20
478.1015453608379744
 30
0.0
 11
4561.4054084690587842
 21
478.0901880845378855
 31
0.0
  0
ARC
  5
1E481
  8
0
 10
4561.3986311672697411
 20
478.0910851413145792
 30
0.0
 40
0.0068364120999805
 50
285.7531628519049036
 51
352.4600484429475955
  0
LINE
  5
1E482
  8
0
 10
4561.4575738233588709
 20
478.0836452295379218
 30
0.0
 11
4561.4317603401577799
 21
478.0761935187380232
 31
0.0
  0
LINE
  5
1E483
  8
0
 10
4561.4263006924593356
 20
478.0761935187380232
 30
0.0
 11
4561.4004872091591096
 21
478.0836452295379218
 31
0.0
  0
ARC
  5
1E484
  8
0
 10
4561.430522847012071
 20
478.081044478922081
 30
0.0
 40
0.0050063164099097
 50
252.6571062873155995
 51
284.3110779012644116
  0
ARC
  5
1E485
  8
0
 10
4561.427538007666044
 20
478.081051204845096
 30
0.0
 40
0.0050127899657327
 50
255.7098956929256985
 51
287.3219200074295259
  0
LINE
  5
1E486
  8
0
 10
4561.4526525635583312
 20
478.1509838190170854
 30
0.0
 11
4561.4526525635583312
 21
478.1396265426379273
 31
0.0
  0
LINE
  5
1E487
  8
0
 10
4561.4290305163576704
 20
478.1586631902379736
 30
0.0
 11
4561.4290305163576704
 21
478.1257042182378996
 31
0.0
  0
ARC
  5
1E488
  8
0
 10
4561.4593021622258675
 20
478.1404130052678738
 30
0.0
 40
0.0066959454823001
 50
186.7451629251156078
 51
255.041625779999606
  0
LINE
  5
1E489
  8
0
 10
4561.4054084690587842
 20
478.1509838189379025
 30
0.0
 11
4561.4054084690587842
 21
478.1396265426379273
 31
0.0
  0
ARC
  5
1E48A
  8
0
 10
4561.3986311672697411
 20
478.140523599414621
 30
0.0
 40
0.0068364120999805
 50
285.7531628519049036
 51
352.4600484429475955
  0
LINE
  5
1E48B
  8
0
 10
4561.4575738233588709
 20
478.1330836876379067
 30
0.0
 11
4561.4317603401577799
 21
478.1256319768380081
 31
0.0
  0
ARC
  5
1E48C
  8
0
 10
4561.430522847012071
 20
478.1304829370220091
 30
0.0
 40
0.0050063164099097
 50
252.6571062873155995
 51
284.3110779012644116
  0
LINE
  5
1E48D
  8
0
 10
4561.4241092564589053
 20
478.1757030480171125
 30
0.0
 11
4561.4241092564589053
 21
478.1643457716378975
 31
0.0
  0
LINE
  5
1E48E
  8
0
 10
4561.400487209259154
 20
478.183382419237887
 30
0.0
 11
4561.400487209259154
 21
478.1504234472379835
 31
0.0
  0
ARC
  5
1E48F
  8
0
 10
4561.4307588551246226
 20
478.1651322342680146
 30
0.0
 40
0.0066959454823001
 50
186.7451629251156078
 51
255.041625779999606
  0
LINE
  5
1E490
  8
0
 10
4561.429030516257626
 20
478.1578029166379906
 30
0.0
 11
4561.403217033058354
 21
478.1503512058379215
 31
0.0
  0
ARC
  5
1E491
  8
0
 10
4561.4019795399108261
 20
478.1552021660219793
 30
0.0
 40
0.0050063164099097
 50
252.6571062873155995
 51
284.3110779012644116
  0
LINE
  5
1E492
  8
0
 10
4561.4241092564589053
 20
478.2251415061169837
 30
0.0
 11
4561.4241092564589053
 21
478.2137842297378825
 31
0.0
  0
LINE
  5
1E493
  8
0
 10
4561.400487209259154
 20
478.2328208773378719
 30
0.0
 11
4561.400487209259154
 21
478.1998619053379116
 31
0.0
  0
ARC
  5
1E494
  8
0
 10
4561.4307588551246226
 20
478.2145706923679995
 30
0.0
 40
0.0066959454823001
 50
186.7451629251156078
 51
255.041625779999606
  0
LINE
  5
1E495
  8
0
 10
4561.429030516257626
 20
478.2072413747379187
 30
0.0
 11
4561.403217033058354
 21
478.1997896639380201
 31
0.0
  0
ARC
  5
1E496
  8
0
 10
4561.4019795399108261
 20
478.2046406241220211
 30
0.0
 40
0.0050063164099097
 50
252.6571062873155995
 51
284.3110779012644116
  0
LINE
  5
1E497
  8
0
 10
4561.4575738234589153
 20
478.2523195479499236
 30
0.0
 11
4561.4575738234589153
 21
478.2493003634380102
 31
0.0
  0
LINE
  5
1E498
  8
0
 10
4561.4675136763880801
 20
478.2513094781849077
 30
0.0
 11
4561.4603036472590247
 21
478.2492281220378914
 31
0.0
  0
LINE
  5
1E499
  8
0
 10
4561.4548439995578519
 20
478.2492281220378914
 30
0.0
 11
4561.4391393405321651
 21
478.2537616666169811
 31
0.0
  0
ARC
  5
1E49A
  8
0
 10
4561.4590661541105874
 20
478.2540790822221197
 30
0.0
 40
0.0050063164099097
 50
252.6571062873155995
 51
284.3110779012644116
  0
ARC
  5
1E49B
  8
0
 10
4561.4560813147672889
 20
478.2540858081451915
 30
0.0
 40
0.0050127899657327
 50
255.7098956929256985
 51
287.3219200074295259
  0
LINE
  5
1E49C
  8
0
 10
4561.4218528975497975
 20
478.2546078327736154
 30
0.0
 11
4561.403217033058354
 21
478.2492281220378914
 31
0.0
  0
ARC
  5
1E49D
  8
0
 10
4561.4019795399108261
 20
478.2540790822221197
 30
0.0
 40
0.0050063164099097
 50
252.6571062873155995
 51
284.3110779012644116
  0
LINE
  5
1E49E
  8
0
 10
4561.6288336659590641
 20
478.2060708717679063
 30
0.0
 11
4561.6288336659590641
 21
478.1998619053379116
 31
0.0
  0
LINE
  5
1E49F
  8
0
 10
4561.6375758668382332
 20
478.2015252877155262
 30
0.0
 11
4561.6315634897591735
 21
478.1997896639380201
 31
0.0
  0
LINE
  5
1E4A0
  8
0
 10
4561.6261038420580007
 20
478.1997896639380201
 30
0.0
 11
4561.6002903587577748
 21
478.2072413747379187
 31
0.0
  0
ARC
  5
1E4A1
  8
0
 10
4561.6303259966116457
 20
478.2046406241220211
 30
0.0
 40
0.0050063164099097
 50
252.6571062873155995
 51
284.3110779012644116
  0
ARC
  5
1E4A2
  8
0
 10
4561.6273411572656187
 20
478.2046473500450929
 30
0.0
 40
0.0050127899657327
 50
255.7098956929256985
 51
287.3219200074295259
  0
LINE
  5
1E4A3
  8
0
 10
4561.6573769730575805
 20
478.1893167572499124
 30
0.0
 11
4561.6573769730575805
 21
478.1751426763379982
 31
0.0
  0
LINE
  5
1E4A4
  8
0
 10
4561.6713974517206225
 20
478.1783297662776135
 30
0.0
 11
4561.6601067968585994
 21
478.175070434937993
 31
0.0
  0
LINE
  5
1E4A5
  8
0
 10
4561.6546471491583361
 20
478.175070434937993
 30
0.0
 11
4561.6288336658590197
 21
478.1825221457378916
 31
0.0
  0
ARC
  5
1E4A6
  8
0
 10
4561.658869303711981
 20
478.1799213951221077
 30
0.0
 40
0.0050063164099097
 50
252.6571062873155995
 51
284.3110779012644116
  0
ARC
  5
1E4A7
  8
0
 10
4561.6558844643668635
 20
478.1799281210451227
 30
0.0
 40
0.0050127899657327
 50
255.7098956929256985
 51
287.3219200074295259
  0
LINE
  5
1E4A8
  8
0
 10
4561.6859202801588253
 20
478.1642899378030052
 30
0.0
 11
4561.6859202801588253
 21
478.1504234473380279
 31
0.0
  0
LINE
  5
1E4A9
  8
0
 10
4561.6959760524578087
 20
478.1524660251250793
 30
0.0
 11
4561.6886501039589348
 21
478.1503512059379091
 31
0.0
  0
LINE
  5
1E4AA
  8
0
 10
4561.6831904562586715
 20
478.1503512059379091
 30
0.0
 11
4561.6573769729584455
 21
478.1578029167379782
 31
0.0
  0
ARC
  5
1E4AB
  8
0
 10
4561.6874126108123164
 20
478.1552021661220238
 30
0.0
 40
0.0050063164099097
 50
252.6571062873155995
 51
284.3110779012644116
  0
ARC
  5
1E4AC
  8
0
 10
4561.6844277714662894
 20
478.1552088920450956
 30
0.0
 40
0.0050127899657327
 50
255.7098956929256985
 51
287.3219200074295259
  0
LINE
  5
1E4AD
  8
0
 10
4561.6337549257577848
 20
478.2004222770380011
 30
0.0
 11
4561.6337549257577848
 21
478.1890650007380259
 31
0.0
  0
ARC
  5
1E4AE
  8
0
 10
4561.6269776239687417
 20
478.1899620575146059
 30
0.0
 40
0.0068364120999805
 50
285.7531628519049036
 51
352.4600484429475955
  0
LINE
  5
1E4AF
  8
0
 10
4561.6622982328590297
 20
478.1757030479378727
 30
0.0
 11
4561.6622982328590297
 21
478.1643457716378975
 31
0.0
  0
ARC
  5
1E4B0
  8
0
 10
4561.6555209310699865
 20
478.1652428284145913
 30
0.0
 40
0.0068364120999805
 50
285.7531628519049036
 51
352.4600484429475955
  0
LINE
  5
1E4B1
  8
0
 10
4561.690841539959365
 20
478.1509838189379025
 30
0.0
 11
4561.690841539959365
 21
478.1396265426379273
 31
0.0
  0
ARC
  5
1E4B2
  8
0
 10
4561.6840642381694124
 20
478.140523599414621
 30
0.0
 40
0.0068364120999805
 50
285.7531628519049036
 51
352.4600484429475955
  0
LINE
  5
1E4B3
  8
0
 10
4561.7114060028043241
 20
478.1257265931606071
 30
0.0
 11
4561.6859202800587809
 21
478.1330836876379067
 31
0.0
  0
LINE
  5
1E4B4
  8
0
 10
4561.690841539959365
 20
478.1015453608379744
 30
0.0
 11
4561.690841539959365
 21
478.0901880845378855
 31
0.0
  0
ARC
  5
1E4B5
  8
0
 10
4561.6840642381694124
 20
478.0910851413145792
 30
0.0
 40
0.0068364120999805
 50
285.7531628519049036
 51
352.4600484429475955
  0
LINE
  5
1E4B6
  8
0
 10
4561.7099730566351354
 20
478.0767017909905121
 30
0.0
 11
4561.6859202800587809
 21
478.0836452295379218
 31
0.0
  0
LINE
  5
1E4B7
  8
0
 10
4561.6622982328590297
 20
478.0768261317379029
 30
0.0
 11
4561.6622982328590297
 21
478.0654688554379277
 31
0.0
  0
ARC
  5
1E4B8
  8
0
 10
4561.6555209310699865
 20
478.0663659122146214
 30
0.0
 40
0.0068364120999805
 50
285.7531628519049036
 51
352.4600484429475955
  0
LINE
  5
1E4B9
  8
0
 10
4561.6831904562586715
 20
478.0514742896380085
 30
0.0
 11
4561.6573769729584455
 21
478.0589260004379071
 31
0.0
  0
LINE
  5
1E4BA
  8
0
 10
4561.6337549257577848
 20
478.0521069027378758
 30
0.0
 11
4561.6337549257577848
 21
478.0407496264380143
 31
0.0
  0
ARC
  5
1E4BB
  8
0
 10
4561.6269776239687417
 20
478.0416466832145943
 30
0.0
 40
0.0068364120999805
 50
285.7531628519049036
 51
352.4600484429475955
  0
LINE
  5
1E4BC
  8
0
 10
4561.6618193225576761
 20
478.0246846325379124
 30
0.0
 11
4561.6288336658590197
 21
478.03420677143788
 31
0.0
  0
LINE
  5
1E4BD
  8
0
 10
4561.6052116186583589
 20
478.0273876736379179
 30
0.0
 11
4561.6052116186583589
 21
478.0160303973379996
 31
0.0
  0
ARC
  5
1E4BE
  8
0
 10
4561.5984343168693158
 20
478.0169274541145796
 30
0.0
 40
0.0068364120999805
 50
285.7531628519049036
 51
352.4600484429475955
  0
LINE
  5
1E4BF
  8
0
 10
4561.6238696136224462
 20
478.0026807977353087
 30
0.0
 11
4561.6002903587577748
 21
478.009487542337979
 31
0.0
  0
LINE
  5
1E4C0
  8
0
 10
4561.5195816973591718
 20
478.0026684446378908
 30
0.0
 11
4561.5195816973591718
 21
477.9913111683379157
 31
0.0
  0
ARC
  5
1E4C1
  8
0
 10
4561.5128043955692192
 20
477.9922082251146094
 30
0.0
 40
0.0068364120999805
 50
285.7531628519049036
 51
352.4600484429475955
  0
LINE
  5
1E4C2
  8
0
 10
4561.547460007558584
 20
477.9752998930379135
 30
0.0
 11
4561.5146604374585877
 21
477.9847683133380087
 31
0.0
  0
LINE
  5
1E4C3
  8
0
 10
4561.5559376234587035
 20
478.0058115882379184
 30
0.0
 11
4561.5559376234587035
 21
477.9811221097378962
 31
0.0
  0
ARC
  5
1E4C4
  8
0
 10
4561.5486105381669404
 20
477.9803529331762206
 30
0.0
 40
0.0051823677331645
 50
257.1729602392842935
 51
286.875951379051628
  0
ARC
  5
1E4C5
  8
0
 10
4561.5477912119986286
 20
477.9845177231795219
 30
0.0
 40
0.0094152510306433
 50
284.2887763485824735
 51
316.3318301263357739
  0
ARC
  5
1E4C6
  8
0
 10
4561.5516856410758919
 20
477.9811111582699823
 30
0.0
 40
0.0042519964851659
 50
313.3000649547184935
 51
0.1475715209658425
  0
LINE
  5
1E4C7
  8
0
 10
4561.5668257918578092
 20
478.0026684447519187
 30
0.0
 11
4561.5668257918578092
 21
477.9839611121379903
 31
0.0
  0
LINE
  5
1E4C8
  8
0
 10
4561.5766683115580236
 20
478.0026684447378784
 30
0.0
 11
4561.5766683115580236
 21
477.9870547236379252
 31
0.0
  0
ARC
  5
1E4C9
  8
0
 10
4561.5699664680460046
 20
477.9881052056290969
 30
0.0
 40
0.0067836729637027
 50
270.804091940761225
 51
351.0916446814542837
  0
ARC
  5
1E4CA
  8
0
 10
4561.569581563419888
 20
477.9840368864697098
 30
0.0
 40
0.0027568131319709
 50
181.5750419250435925
 51
280.0293008574190026
  0
LINE
  5
1E4CB
  8
0
 10
4561.6002903588587287
 20
478.0103478160380064
 30
0.0
 11
4561.6002903587577748
 21
478.0094875424380234
 31
0.0
  0
LINE
  5
1E4CC
  8
0
 10
4561.6299575269576962
 20
478.0338823406378879
 30
0.0
 11
4561.6299575269576962
 21
478.0091928621379793
 31
0.0
  0
ARC
  5
1E4CD
  8
0
 10
4561.6225348179887078
 20
478.0097694299528825
 30
0.0
 40
0.0074450680912849
 50
301.0920405751389239
 51
355.5584002656034954
  0
ARC
  5
1E4CE
  8
0
 10
4561.6238150078297622
 20
478.0076465682935236
 30
0.0
 40
0.0049660707837506
 50
270.6300268756053242
 51
301.0920405751389239
  0
LINE
  5
1E4CF
  8
0
 10
4561.6288336658590197
 20
478.0350670450379198
 30
0.0
 11
4561.6288336658590197
 21
478.03420677143788
 31
0.0
  0
LINE
  5
1E4D0
  8
0
 10
4561.6666550626587195
 20
478.0562476467379156
 30
0.0
 11
4561.6666550626587195
 21
478.0315581682380071
 31
0.0
  0
ARC
  5
1E4D1
  8
0
 10
4561.6619865878219571
 20
478.0265576179058939
 30
0.0
 40
0.0018804392722854
 50
264.8967899314523038
 51
311.0716502693038024
  0
ARC
  5
1E4D2
  8
0
 10
4561.6516381363189794
 20
478.0384321261253717
 30
0.0
 40
0.0176314517465297
 50
311.0716502693038024
 51
318.2174912777446139
  0
ARC
  5
1E4D3
  8
0
 10
4561.6593039274039256
 20
478.0315823277368281
 30
0.0
 40
0.0073511749545216
 50
318.2174912777446139
 51
359.8116981544225155
  0
LINE
  5
1E4D4
  8
0
 10
4561.6573769729584455
 20
478.0597862741378776
 30
0.0
 11
4561.6573769729584455
 21
478.0589260005378947
 31
0.0
  0
LINE
  5
1E4D5
  8
0
 10
4561.6944393494577525
 20
478.0811859859380206
 30
0.0
 11
4561.6944393494577525
 21
478.0564965075378723
 31
0.0
  0
ARC
  5
1E4D6
  8
0
 10
4561.6847296388677933
 20
478.0566729391583749
 30
0.0
 40
0.0097113133958579
 50
326.6858034096733832
 51
358.9590137824988005
  0
ARC
  5
1E4D7
  8
0
 10
4561.6868646472521505
 20
478.0552697433918752
 30
0.0
 40
0.0071564710997256
 50
303.209841444947017
 51
326.6858034096762253
  0
LINE
  5
1E4D8
  8
0
 10
4561.7132345172585701
 20
478.1080096566378757
 30
0.0
 11
4561.7132345172585701
 21
478.0863653671170823
 31
0.0
  0
LINE
  5
1E4D9
  8
0
 10
4561.481195870657757
 20
477.9779492156230845
 30
0.0
 11
4561.481195870657757
 21
477.9659447157379759
 31
0.0
  0
LINE
  5
1E4DA
  8
0
 10
4561.4910383902588364
 20
477.9779492156379774
 30
0.0
 11
4561.4910383902588364
 21
477.9673031955379088
 31
0.0
  0
ARC
  5
1E4DB
  8
0
 10
4561.4858425335341963
 20
477.9679403390280754
 30
0.0
 40
0.0052347759195093
 50
273.0069041073342078
 51
353.0089896182429925
  0
ARC
  5
1E4DC
  8
0
 10
4561.4853981131263936
 20
477.9669806837209194
 30
0.0
 40
0.0043280563098996
 50
193.8488304619517066
 51
279.562849003447127
  0
LINE
  5
1E4DD
  8
0
 10
4561.4241092564589053
 20
477.9779492156230845
 30
0.0
 11
4561.4241092564589053
 21
477.9612368216378968
 31
0.0
  0
LINE
  5
1E4DE
  8
0
 10
4561.4339517761591196
 20
477.9779492156379774
 30
0.0
 11
4561.4339517761591196
 21
477.9616750465380051
 31
0.0
  0
ARC
  5
1E4DF
  8
0
 10
4561.4293133588362252
 20
477.962193421730376
 30
0.0
 40
0.0046672934447445
 50
266.5256905865168733
 51
353.6232604744798209
  0
ARC
  5
1E4E0
  8
0
 10
4561.4282909927942455
 20
477.9616736485186834
 30
0.0
 40
0.0042044900406831
 50
185.9635255422377043
 51
280.1303953914455178
  0
LINE
  5
1E4E1
  8
0
 10
4561.429030516257626
 20
478.125704218137912
 30
0.0
 11
4561.4004872091591096
 21
478.1339439612380033
 31
0.0
  0
LINE
  5
1E4E2
  8
0
 10
4561.4290305163576704
 20
478.1083644585380057
 30
0.0
 11
4561.4032170329592191
 21
478.1009127478379241
 31
0.0
  0
ARC
  5
1E4E3
  8
0
 10
4561.4019797832916083
 20
478.1057729151743843
 30
0.0
 40
0.005015178289522
 50
252.6858065633180956
 51
284.282381820231592
  0
ARC
  5
1E4E4
  8
0
 10
4561.4555145258582343
 20
478.4592933046259873
 30
0.0
 40
0.6238541059884123
 50
274.6719881872107862
 51
303.0654377081062876
  0
ARC
  5
1E4E5
  8
0
 10
4561.3466934715215757
 20
479.0691315128382826
 30
0.0
 40
0.0135881606014807
 50
318.816541895764999
 51
11.7111131006672906
  0
ARC
  5
1E4E6
  8
0
 10
4561.3479495213678092
 20
479.0696618493199139
 30
0.0
 40
0.0130498002286045
 50
214.4061975002562974
 51
313.4248631432726029
  0
ARC
  5
1E4E7
  8
0
 10
4561.28736291804762
 20
479.0760368301449716
 30
0.0
 40
0.0238684701294335
 50
217.9976132139159972
 51
290.5235258296692109
  0
ARC
  5
1E4E8
  8
0
 10
4561.291484175034384
 20
479.0650278100267769
 30
0.0
 40
0.012113331546526
 50
290.5235258296692109
 51
17.722908758255091
  0
ARC
  5
1E4E9
  8
0
 10
4561.2119919035667408
 20
479.0754901084005724
 30
0.0
 40
0.0326943793990036
 50
221.5617355764516105
 51
305.0744575455753989
  0
ARC
  5
1E4EA
  8
0
 10
4561.2223542894953425
 20
479.0557170125655944
 30
0.0
 40
0.0109435613995677
 50
320.342280387420999
 51
28.5378996853713609
  0
ARC
  5
1E4EB
  8
0
 10
4561.1425618224193386
 20
479.0659817788684904
 30
0.0
 40
0.0369007862315116
 50
227.7760019485594114
 51
286.0429777020148094
  0
ARC
  5
1E4EC
  8
0
 10
4561.1494543748040087
 20
479.0420124640227755
 30
0.0
 40
0.0119601500618842
 50
286.0429777020148094
 51
353.1831734769593254
  0
ARC
  5
1E4ED
  8
0
 10
4561.0776605570081301
 20
479.0509303124512144
 30
0.0
 40
0.0396918818330912
 50
231.8904306607122123
 51
277.58144439271382
  0
ARC
  5
1E4EE
  8
0
 10
4561.0815187742491617
 20
479.0219427112501194
 30
0.0
 40
0.010448645629291
 50
277.58144439271382
 51
341.2569644721331201
  0
ARC
  5
1E4EF
  8
0
 10
4561.0161140003110631
 20
479.0365701571989803
 30
0.0
 40
0.0472469139242081
 50
238.7843866043959054
 51
276.0459373359698247
  0
ARC
  5
1E4F0
  8
0
 10
4561.0195736654131906
 20
479.0039055887605741
 30
0.0
 40
0.0143996413755211
 50
276.0459373359698247
 51
309.7282697899793789
  0
ARC
  5
1E4F1
  8
0
 10
4560.9513192581862313
 20
479.0120256070950973
 30
0.0
 40
0.051524353286131
 50
245.2628705707701897
 51
284.0347013520799919
  0
ARC
  5
1E4F2
  8
0
 10
4560.9607113193469559
 20
478.9744530646045177
 30
0.0
 40
0.012795723539506
 50
284.0347013520799919
 51
307.155106857488704
  0
ARC
  5
1E4F3
  8
0
 10
4560.8975452594868329
 20
478.9868748772775007
 30
0.0
 40
0.0597421659796832
 50
250.4531412666900962
 51
280.024892762784873
  0
ARC
  5
1E4F4
  8
0
 10
4560.8627224064048278
 20
478.9693339297883767
 30
0.0
 40
0.070254513028339
 50
254.6913648605504932
 51
274.3357119165173117
  0
ARC
  5
1E4F5
  8
0
 10
4560.8326883028630618
 20
478.9486465977154239
 30
0.0
 40
0.0799214563256918
 50
258.4884841344050983
 51
271.4078602139891245
  0
ARC
  5
1E4F6
  8
0
 10
4560.8072990754480998
 20
478.9220381498079746
 30
0.0
 40
0.0868007339567416
 50
262.1377614074165194
 51
269.801260486418812
  0
ARC
  5
1E4F7
  8
0
 10
4560.7928642048618713
 20
478.9152123954906983
 30
0.0
 40
0.1092314051431666
 50
265.1789455915721874
 51
268.6271756604317034
  0
ARC
  5
1E4F8
  8
0
 10
4561.4542809467957341
 20
479.0691315128382826
 30
0.0
 40
0.0135881606014807
 50
168.2888868993327094
 51
221.183458104235001
  0
ARC
  5
1E4F9
  8
0
 10
4561.4530248969476816
 20
479.0696618493199139
 30
0.0
 40
0.0130498002286045
 50
226.5751368567273971
 51
325.5938024997436742
  0
ARC
  5
1E4FA
  8
0
 10
4561.5136115002687802
 20
479.0760368301449716
 30
0.0
 40
0.0238684701294335
 50
249.4764741703307038
 51
322.0023867860838891
  0
ARC
  5
1E4FB
  8
0
 10
4561.5094902432829258
 20
479.0650278100267769
 30
0.0
 40
0.012113331546526
 50
162.2770912417448983
 51
249.4764741703307038
  0
ARC
  5
1E4FC
  8
0
 10
4561.5889825147496595
 20
479.0754901084005724
 30
0.0
 40
0.0326943793990036
 50
234.9255424544244875
 51
318.4382644235483895
  0
ARC
  5
1E4FD
  8
0
 10
4561.5786201288219672
 20
479.0557170125655944
 30
0.0
 40
0.0109435613995677
 50
151.4621003146286
 51
219.6577196125788873
  0
ARC
  5
1E4FE
  8
0
 10
4561.6584125958979712
 20
479.0659817788684904
 30
0.0
 40
0.0369007862315116
 50
253.9570222979853042
 51
312.223998051440617
  0
ARC
  5
1E4FF
  8
0
 10
4561.6515200435142106
 20
479.0420124640227755
 30
0.0
 40
0.0119601500618842
 50
186.816826523040703
 51
253.9570222979853042
  0
ARC
  5
1E500
  8
0
 10
4561.7233138613100891
 20
479.0509303124512144
 30
0.0
 40
0.0396918818330912
 50
262.41855560728618
 51
308.1095693392878161
  0
ARC
  5
1E501
  8
0
 10
4561.7194556440681481
 20
479.0219427112501194
 30
0.0
 40
0.010448645629291
 50
198.7430355278667946
 51
262.41855560728618
  0
ARC
  5
1E502
  8
0
 10
4561.7848604180062466
 20
479.0365701571989803
 30
0.0
 40
0.0472469139242081
 50
263.9540626640301753
 51
301.2156133956040094
  0
ARC
  5
1E503
  8
0
 10
4561.7814007529041191
 20
479.0039055887605741
 30
0.0
 40
0.0143996413755211
 50
230.2717302100205927
 51
263.9540626640301753
  0
ARC
  5
1E504
  8
0
 10
4561.8496551601310784
 20
479.0120256070950973
 30
0.0
 40
0.051524353286131
 50
255.9652986479198944
 51
294.7371294292298103
  0
ARC
  5
1E505
  8
0
 10
4561.9034291588313863
 20
478.9868748772775007
 30
0.0
 40
0.0597421659796832
 50
259.975107237215127
 51
289.5468587333098753
  0
ARC
  5
1E506
  8
0
 10
4561.9382520119115725
 20
478.9693339297883767
 30
0.0
 40
0.070254513028339
 50
265.6642880834826883
 51
285.3086351394495068
  0
ARC
  5
1E507
  8
0
 10
4561.9682861154542479
 20
478.9486465977154239
 30
0.0
 40
0.0799214563256918
 50
268.5921397860108755
 51
281.511515865594788
  0
ARC
  5
1E508
  8
0
 10
4561.99367534286921
 20
478.9220381498079746
 30
0.0
 40
0.0868007339567416
 50
270.198739513581188
 51
277.8622385925835943
  0
ARC
  5
1E509
  8
0
 10
4562.0081102134554385
 20
478.9152123954906983
 30
0.0
 40
0.1092314051431666
 50
271.3728243395681829
 51
274.8210544084278126
  0
ENDSEC
  0
EOF
