  0
SECTION
  2
HEADER
  9
$ACADVER
  1
AC1009
  9
$INSBASE
 10
4446.9599757302758007
 20
470.4681844042208922
 30
0.0
  9
$EXTMIN
 10
4440.1351724231408298
 20
464.0051799496362719
 30
0.0
  9
$EXTMAX
 10
4453.7847790374116812
 20
470.4731669884247935
 30
0.0
  9
$LIMMIN
 10
0.0
 20
0.0
  9
$LIMMAX
 10
11.6929133858000007
 20
8.2677165353999982
  9
$ORTHOMODE
 70
     0
  9
$REGENMODE
 70
     1
  9
$FILLMODE
 70
     1
  9
$QTEXTMODE
 70
     0
  9
$MIRRTEXT
 70
     0
  9
$DRAGMODE
 70
     2
  9
$LTSCALE
 40
0.6431102362
  9
$OSMODE
 70
  4095
  9
$ATTMODE
 70
     1
  9
$TEXTSIZE
 40
0.2
  9
$TRACEWID
 40
0.05
  9
$TEXTSTYLE
  7
STANDARD
  9
$CLAYER
  8
0
  9
$CELTYPE
  6
BYLAYER
  9
$CECOLOR
 62
   256
  9
$DIMSCALE
 40
1.0
  9
$DIMASZ
 40
0.1875
  9
$DIMEXO
 40
0.0625
  9
$DIMDLI
 40
0.4443307087
  9
$DIMRND
 40
0.0
  9
$DIMDLE
 40
0.0
  9
$DIMEXE
 40
0.125
  9
$DIMTP
 40
0.01
  9
$DIMTM
 40
0.01
  9
$DIMTXT
 40
2.0
  9
$DIMCEN
 40
0.1052362205
  9
$DIMTSZ
 40
0.0
  9
$DIMTOL
 70
     1
  9
$DIMLIM
 70
     0
  9
$DIMTIH
 70
     1
  9
$DIMTOH
 70
     1
  9
$DIMSE1
 70
     0
  9
$DIMSE2
 70
     0
  9
$DIMTAD
 70
     0
  9
$DIMZIN
 70
     0
  9
$DIMBLK
  1

  9
$DIMASO
 70
     1
  9
$DIMSHO
 70
     1
  9
$DIMPOST
  1
\X
  9
$DIMAPOST
  1

  9
$DIMALT
 70
     1
  9
$DIMALTD
 70
     2
  9
$DIMALTF
 40
25.3999999999999986
  9
$DIMLFAC
 40
1.0
  9
$DIMTOFL
 70
     0
  9
$DIMTVP
 40
0.0
  9
$DIMTIX
 70
     0
  9
$DIMSOXD
 70
     0
  9
$DIMSAH
 70
     0
  9
$DIMBLK1
  1

  9
$DIMBLK2
  1

  9
$DIMSTYLE
  2
STANDARD
  9
$DIMCLRD
 70
     0
  9
$DIMCLRE
 70
     0
  9
$DIMCLRT
 70
     0
  9
$DIMTFAC
 40
1.0
  9
$DIMGAP
 40
0.09
  9
$LUNITS
 70
     2
  9
$LUPREC
 70
     4
  9
$SKETCHINC
 40
0.1
  9
$FILLETRAD
 40
0.0
  9
$AUNITS
 70
     0
  9
$AUPREC
 70
     0
  9
$MENU
  1
.
  9
$ELEVATION
 40
0.0
  9
$PELEVATION
 40
0.0
  9
$THICKNESS
 40
0.0
  9
$LIMCHECK
 70
     0
  9
$BLIPMODE
 70
     0
  9
$CHAMFERA
 40
0.0
  9
$CHAMFERB
 40
0.0
  9
$SKPOLY
 70
     0
  9
$TDCREATE
 40
2458060.468368056230247
  9
$TDUPDATE
 40
2459387.4171990738250315
  9
$TDINDWG
 40
1.4653828356
  9
$TDUSRTIMER
 40
1.4653828356
  9
$USRTIMER
 70
     1
  9
$ANGBASE
 50
0.0
  9
$ANGDIR
 70
     0
  9
$PDMODE
 70
     0
  9
$PDSIZE
 40
0.3125
  9
$PLINEWID
 40
0.0
  9
$COORDS
 70
     1
  9
$SPLFRAME
 70
     0
  9
$SPLINETYPE
 70
     6
  9
$SPLINESEGS
 70
     8
  9
$ATTDIA
 70
     1
  9
$ATTREQ
 70
     1
  9
$HANDLING
 70
     1
  9
$HANDSEED
  5
1D3A5
  9
$SURFTAB1
 70
     6
  9
$SURFTAB2
 70
     6
  9
$SURFTYPE
 70
     6
  9
$SURFU
 70
     6
  9
$SURFV
 70
     6
  9
$UCSNAME
  2

  9
$UCSORG
 10
0.0
 20
0.0
 30
0.0
  9
$UCSXDIR
 10
1.0
 20
0.0
 30
0.0
  9
$UCSYDIR
 10
0.0
 20
1.0
 30
0.0
  9
$PUCSNAME
  2

  9
$PUCSORG
 10
0.0
 20
0.0
 30
0.0
  9
$PUCSXDIR
 10
1.0
 20
0.0
 30
0.0
  9
$PUCSYDIR
 10
0.0
 20
1.0
 30
0.0
  9
$USERI1
 70
     0
  9
$USERI2
 70
     0
  9
$USERI3
 70
     0
  9
$USERI4
 70
     0
  9
$USERI5
 70
     0
  9
$USERR1
 40
0.0
  9
$USERR2
 40
0.0
  9
$USERR3
 40
0.0
  9
$USERR4
 40
0.0
  9
$USERR5
 40
0.0
  9
$WORLDVIEW
 70
     1
  9
$SHADEDGE
 70
     3
  9
$SHADEDIF
 70
    70
  9
$TILEMODE
 70
     1
  9
$MAXACTVP
 70
    64
  9
$PLIMCHECK
 70
     0
  9
$PEXTMIN
 10
1.0000000000000000E+20
 20
1.0000000000000000E+20
 30
1.0000000000000000E+20
  9
$PEXTMAX
 10
-1.0000000000000000E+20
 20
-1.0000000000000000E+20
 30
-1.0000000000000000E+20
  9
$PLIMMIN
 10
0.0
 20
0.0
  9
$PLIMMAX
 10
12.0
 20
9.0
  9
$UNITMODE
 70
     0
  9
$VISRETAIN
 70
     1
  9
$PLINEGEN
 70
     0
  9
$PSLTSCALE
 70
     1
  0
ENDSEC
  0
SECTION
  2
TABLES
  0
TABLE
  2
VPORT
 70
     1
  0
VPORT
  2
*ACTIVE
 70
     0
 10
0.0
 20
0.0
 11
1.0
 21
1.0
 12
539.6484507953597358
 22
334.673751052890907
 13
0.0
 23
0.0
 14
1.0
 24
1.0
 15
0.0
 25
0.0
 16
0.0
 26
0.0
 36
60.4960186965801583
 17
3911.3653564453120453
 27
132.5796051025390057
 37
0.0
 40
8.5488009562556666
 41
2.5612648221343872
 42
50.0
 43
0.0
 44
0.0
 50
0.0
 51
0.0
 71
     0
 72
   100
 73
     1
 74
     1
 75
     0
 76
     0
 77
     0
 78
     0
  0
ENDTAB
  0
TABLE
  2
LTYPE
 70
     2
  0
LTYPE
  2
CONTINUOUS
 70
     0
  3
Solid line
 72
    65
 73
     0
 40
0.0
  0
LTYPE
  2
PHANTOM2
 70
     0
  3
___ _ _ ___ _ _ ___ _ _ ___ _ _
 72
    65
 73
     6
 40
1.25
 49
0.625
 49
-0.125
 49
0.125
 49
-0.125
 49
0.125
 49
-0.125
  0
ENDTAB
  0
TABLE
  2
LAYER
 70
     2
  0
LAYER
  2
0
 70
     0
 62
   255
  6
CONTINUOUS
  0
LAYER
  2
DEFPOINTS
 70
     0
 62
     7
  6
CONTINUOUS
  0
ENDTAB
  0
TABLE
  2
STYLE
 70
     1
  0
STYLE
  2
STANDARD
 70
     0
 40
0.0
 41
0.8
 50
0.0
 71
     0
 42
0.2
  3
txt
  4

  0
ENDTAB
  0
TABLE
  2
VIEW
 70
     0
  0
ENDTAB
  0
TABLE
  2
UCS
 70
     0
  0
ENDTAB
  0
TABLE
  2
APPID
 70
    11
  0
APPID
  2
ACAD
 70
     0
  0
APPID
  2
ACAD_MLEADERVER
 70
     0
  0
APPID
  2
ACAD_EXEMPT_FROM_CAD_STANDARDS
 70
     0
  0
APPID
  2
ACAD_NAV_VCDISPLAY
 70
     0
  0
APPID
  2
ACAECLAYERSTANDARD
 70
     0
  0
APPID
  2
ACCMTRANSPARENCY
 70
     0
  0
APPID
  2
ACAD_DSTYLE_DIMJAG
 70
     0
  0
APPID
  2
ACAD_DSTYLE_DIMTALN
 70
     0
  0
APPID
  2
ACDBATTR
 70
     0
  0
APPID
  2
ACADANNOTATIVE
 70
     0
  0
APPID
  2
DCO15
 70
     0
  0
ENDTAB
  0
TABLE
  2
DIMSTYLE
 70
     1
  0
DIMSTYLE
  2
STANDARD
 70
     0
  3

  4

  5

  6

  7

 40
1.0
 41
0.1875
 42
0.0625
 43
0.38
 44
0.125
 45
0.0
 46
0.0
 47
0.01
 48
0.01
140
0.15625
141
0.09
142
0.0
143
25.3999999999999986
144
1.0
145
0.0
146
1.0
147
0.09
 71
     1
 72
     0
 73
     1
 74
     1
 75
     0
 76
     0
 77
     0
 78
     4
170
     0
171
     2
172
     0
173
     0
174
     0
175
     0
176
     0
177
     0
178
     0
  0
ENDTAB
  0
ENDSEC
  0
SECTION
  2
BLOCKS
  0
BLOCK
  8
0
  2
$MODEL_SPACE
 70
     0
 10
0.0
 20
0.0
 30
0.0
  3
$MODEL_SPACE
  1

  0
ENDBLK
  5
21
  8
0
  0
BLOCK
 67
     1
  8
0
  2
$PAPER_SPACE
 70
     0
 10
0.0
 20
0.0
 30
0.0
  3
$PAPER_SPACE
  1

  0
ENDBLK
  5
1D
 67
     1
  8
0
  0
BLOCK
  8
0
  2
_FILLED
 70
     0
 10
0.0
 20
0.0
 30
0.0
  3
_FILLED
  1

  0
SOLID
  5
1A847
  8
0
  6
BYBLOCK
 62
     0
 10
0.0
 20
0.0
 30
0.0
 11
-1.0
 21
0.1666666667
 31
0.0
 12
-1.0
 22
-0.1666666667
 32
0.0
 13
-1.0
 23
-0.1666666667
 33
0.0
  0
ENDBLK
  5
1A848
  8
0
  6
BYBLOCK
 62
     0
  0
ENDSEC
  0
SECTION
  2
ENTITIES
  0
ATTDEF
  5
1BE56
  8
DEFPOINTS
 10
4446.9608247229743938
 20
470.4721669884248172
 30
0.0
 40
0.001
  1
P24910-BAF
  3

  2
MODELNUMBER
 70
     0
1001
ACDBATTR
1070
     0
1070
     1
  0
ATTDEF
  5
1BE57
  8
DEFPOINTS
 10
4446.9608247229743938
 20
470.4705001480456872
 30
0.0
 40
0.001
  1
PINNA PALETTA
  3

  2
TRADENAME
 70
     0
1001
ACDBATTR
1070
     0
1070
     1
  0
ATTDEF
  5
1BE58
  8
DEFPOINTS
 10
4446.9608247229743938
 20
470.4688336550914869
 30
0.0
 40
0.001
  1
BATHROOM SINK FAUCET
  3

  2
PRODUCT
 70
     0
1001
ACDBATTR
1070
     0
1070
     1
  0
ARC
  5
1CED5
  8
0
 10
4446.9600444485831758
 20
464.5667220409325751
 30
0.0
 40
0.561542095500966
 50
236.2601604565022058
 51
269.9929884705197765
  0
ARC
  5
1CED6
  8
0
 10
4446.8416462969762506
 20
464.4429035048622154
 30
0.0
 40
0.3834846682821586
 50
180.0166356231690941
 51
189.13725764711549
  0
ARC
  5
1CED7
  8
0
 10
4446.8578162449239244
 20
464.4459062592076179
 30
0.0
 40
0.3999264664175502
 50
189.194114404409504
 51
201.2106425563196979
  0
ARC
  5
1CED8
  8
0
 10
4446.8602995933442799
 20
464.4468700172914168
 30
0.0
 40
0.4025902699052017
 50
201.2106425563167136
 51
216.9154107259062982
  0
ARC
  5
1CED9
  8
0
 10
4446.9160071007227089
 20
464.4887198319183881
 30
0.0
 40
0.4722661865668654
 50
216.9154107259062982
 51
235.4467794579643964
  0
ARC
  5
1CEDA
  8
0
 10
4446.9601170104178891
 20
464.8547567898032753
 30
0.0
 40
0.5716840193788429
 50
250.0285650845301006
 51
252.5560259610450089
  0
ARC
  5
1CEDB
  8
0
 10
4446.9601170104178891
 20
464.8547567898032753
 30
0.0
 40
0.5716840193788429
 50
256.2775785941250888
 51
259.111004339256624
  0
ARC
  5
1CEDC
  8
0
 10
4446.9601170104178891
 20
464.8547567898032753
 30
0.0
 40
0.5716840193788429
 50
262.1119768689886769
 51
264.5460906407922721
  0
ARC
  5
1CEDD
  8
0
 10
4446.9217421839693998
 20
464.771916813947314
 30
0.0
 40
0.4804195476865246
 50
214.8613623361084137
 51
217.2522473977869026
  0
ARC
  5
1CEDE
  8
0
 10
4446.9217421839693998
 20
464.771916813947314
 30
0.0
 40
0.4804195476865246
 50
220.8317443952182941
 51
224.8915587447814062
  0
ARC
  5
1CEDF
  8
0
 10
4446.9217421839693998
 20
464.771916813947314
 30
0.0
 40
0.4804195476865246
 50
228.9687515961157089
 51
232.7487224965614985
  0
ARC
  5
1CEE0
  8
0
 10
4446.9217421839693998
 20
464.771916813947314
 30
0.0
 40
0.4804195476865246
 50
236.2635876896129901
 51
239.8395762734816117
  0
ARC
  5
1CEE1
  8
0
 10
4446.9217429428263131
 20
464.7719183813592849
 30
0.0
 40
0.4804212889298358
 50
243.2864756368018959
 51
246.8055630089125998
  0
ARC
  5
1CEE2
  8
0
 10
4446.6887419759359545
 20
464.6584737465832973
 30
0.0
 40
0.2194211449726562
 50
199.0180311431936104
 51
205.2132739452115118
  0
ARC
  5
1CEE3
  8
0
 10
4446.8413551122694116
 20
464.7159185689695846
 30
0.0
 40
0.3824507529754335
 50
207.3691597507020958
 51
210.5801825884022946
  0
ARC
  5
1CEE4
  8
0
 10
4446.871065830243424
 20
464.7242378875400277
 30
0.0
 40
0.4133042426317308
 50
182.5211507055448976
 51
183.8712769230228048
  0
ARC
  5
1CEE5
  8
0
 10
4446.8710658576646892
 20
464.7242378917777046
 30
0.0
 40
0.4133042703760342
 50
185.8691311519575891
 51
189.7563825000295026
  0
ARC
  5
1CEE6
  8
0
 10
4446.871065830243424
 20
464.7242378875400277
 30
0.0
 40
0.4133042426317308
 50
192.8769888407651933
 51
195.6428142943655928
  0
ARC
  5
1CEE7
  8
0
 10
4446.8491776919272525
 20
464.7290413320138782
 30
0.0
 40
0.3912415547352656
 50
181.9454347088039015
 51
201.1573015766441017
  0
ARC
  5
1CEE8
  8
0
 10
4446.8757099234826455
 20
464.740036374349927
 30
0.0
 40
0.4199543128620151
 50
201.2497529798978064
 51
221.7037408878358065
  0
ARC
  5
1CEE9
  8
0
 10
4446.9242526024127073
 20
464.7832920092953941
 30
0.0
 40
0.4849730919359052
 50
221.7037408878358065
 51
240.4140780360519045
  0
ARC
  5
1CEEA
  8
0
 10
4446.9600441865841276
 20
464.8541106022451004
 30
0.0
 40
0.5642424754618175
 50
240.8040319531299076
 51
269.9930486311820914
  0
ARC
  5
1CEEB
  8
0
 10
4446.889126234392279
 20
464.2877197955579049
 30
0.0
 40
0.0385628352073502
 50
354.469757803329685
 51
4.6892595345236971
  0
ARC
  5
1CEEC
  8
0
 10
4446.8171318745589815
 20
464.1899122388091996
 30
0.0
 40
0.1450392830714195
 50
35.1084462238184329
 51
40.4458545160436529
  0
ARC
  5
1CEED
  8
0
 10
4446.9738311202136174
 20
464.2999429574807095
 30
0.0
 40
0.046432516687349
 50
214.973310981511986
 51
252.6897722262119999
  0
ARC
  5
1CEEE
  8
0
 10
4451.135400807125734
 20
467.8300540053808731
 30
0.0
 40
5.5183925781692258
 50
219.963015100487695
 51
220.8319349752277105
  0
ARC
  5
1CEEF
  8
0
 10
4446.9446718919916748
 20
464.2815815936759236
 30
0.0
 40
0.0391039314121492
 50
163.9463050324330879
 51
174.0588089370482976
  0
ARC
  5
1CEF0
  8
0
 10
4446.8541678912697535
 20
464.2943159105143991
 30
0.0
 40
0.0281048095547657
 50
348.0194948251944993
 51
1.927761542798466
  0
ARC
  5
1CEF1
  8
0
 10
4449.4559921772306552
 20
466.3428699540476146
 30
0.0
 40
3.293583689221165
 50
218.5908373722681972
 51
220.7267246692728122
  0
ARC
  5
1CEF2
  8
0
 10
4446.960015785428368
 20
464.1184174536007276
 30
0.0
 40
0.0227633114290368
 50
224.2230046162129042
 51
269.8991802084329947
  0
ARC
  5
1CEF3
  8
0
 10
4446.8805841589974079
 20
464.2868896157842755
 30
0.0
 40
0.029189688451666
 50
153.6456647734059118
 51
167.1811050739906079
  0
ARC
  5
1CEF4
  8
0
 10
4446.802581035844014
 20
464.307230676605684
 30
0.0
 40
0.0232817822148844
 50
340.3214658970888991
 51
357.1405464972773984
  0
ARC
  5
1CEF5
  8
0
 10
4446.8121016399491054
 20
464.3002755332761922
 30
0.0
 40
0.0250658861618434
 50
142.7836206267012926
 51
158.7405620342964028
  0
ARC
  5
1CEF6
  8
0
 10
4446.7424427237510827
 20
464.3291962733297851
 30
0.0
 40
0.0253050064247109
 50
332.3477561800934268
 51
347.8261794292238847
  0
ARC
  5
1CEF7
  8
0
 10
4446.7567373014826444
 20
464.3170708594062717
 30
0.0
 40
0.0276016321383728
 50
136.741850515199701
 51
151.2952390371933973
  0
ARC
  5
1CEF8
  8
0
 10
4446.6803977961817509
 20
464.3613051737556248
 30
0.0
 40
0.0314260247998629
 50
323.8675865044091893
 51
336.3580381128231807
  0
ARC
  5
1CEF9
  8
0
 10
4446.7079525210847351
 20
464.3365955460021155
 30
0.0
 40
0.0340364956675706
 50
132.8436386214166873
 51
144.1376597662990946
  0
ARC
  5
1CEFA
  8
0
 10
4446.6317216877760075
 20
464.3943816274461938
 30
0.0
 40
0.0319664717451618
 50
316.5541215149169147
 51
327.9336156359771053
  0
ARC
  5
1CEFB
  8
0
 10
4446.6561018255497402
 20
464.3656218363619246
 30
0.0
 40
0.0346951727414881
 50
126.2713723174833973
 51
136.4909872930521999
  0
ARC
  5
1CEFC
  8
0
 10
4446.5880876515548152
 20
464.431711830339907
 30
0.0
 40
0.0287535230371159
 50
309.4580806520264105
 51
320.8838952146232941
  0
ARC
  5
1CEFD
  8
0
 10
4446.6007162488440372
 20
464.4082274240406036
 30
0.0
 40
0.0313021026204862
 50
118.1842109741727995
 51
128.1228130498141979
  0
ARC
  5
1CEFE
  8
0
 10
4446.5401151210753596
 20
464.4869521375467798
 30
0.0
 40
0.0343282829382346
 50
301.8713782413763056
 51
309.9854546001662925
  0
ARC
  5
1CEFF
  8
0
 10
4446.5579581133579268
 20
464.4494566545907901
 30
0.0
 40
0.0367207336082325
 50
113.2618507614547951
 51
120.4678870770027004
  0
ARC
  5
1CF00
  8
0
 10
4446.5113648674778233
 20
464.531067498367122
 30
0.0
 40
0.0374303457405317
 50
295.603282796365022
 51
302.4880409116922806
  0
ARC
  5
1CF01
  8
0
 10
4446.5288816787933683
 20
464.4859195625933808
 30
0.0
 40
0.03920464168044
 50
108.9026837261946952
 51
115.3499734797587024
  0
ARC
  5
1CF02
  8
0
 10
4446.4884568359530022
 20
464.5777004802541796
 30
0.0
 40
0.0398716542284686
 50
289.4215021980456868
 51
295.3897208462669823
  0
ARC
  5
1CF03
  8
0
 10
4446.5038714931533832
 20
464.5260116733762175
 30
0.0
 40
0.0413100557428162
 50
104.5204781830315
 51
109.288960491619207
  0
ARC
  5
1CF04
  8
0
 10
4446.4715259609147324
 20
464.6269411702157868
 30
0.0
 40
0.0411464169363042
 50
283.738266963364083
 51
288.0990626001790815
  0
ARC
  5
1CF05
  8
0
 10
4446.4828590911392894
 20
464.5717966442476836
 30
0.0
 40
0.0421506179170796
 50
100.159905369630394
 51
103.4292818274962968
  0
ARC
  5
1CF06
  8
0
 10
4446.4604116830450948
 20
464.6815654979333772
 30
0.0
 40
0.0500389106339257
 50
278.9030664066368104
 51
281.0686719873232846
  0
ARC
  5
1CF07
  8
0
 10
4446.4709532513588783
 20
464.6042963718199985
 30
0.0
 40
0.0504220201147337
 50
96.6398777204776422
 51
98.2258129531740565
  0
ARC
  5
1CF08
  8
0
 10
4446.4613197260496236
 20
464.6449524047936848
 30
0.0
 40
0.0568230187320036
 50
92.4361535247569037
 51
92.9689430214471884
  0
ARC
  5
1CF09
  8
0
 10
4436.4640526596176642
 20
455.7741782882865778
 30
0.0
 40
13.4346024317926904
 50
38.6780134781834519
 51
39.3549541456447827
  0
ARC
  5
1CF0A
  8
0
 10
4450.7321812357522504
 20
467.3103279205204785
 30
0.0
 40
4.933121871261501
 50
217.6149065630181951
 51
220.0229158431648955
  0
ARC
  5
1CF0B
  8
0
 10
4448.0327727911826514
 20
465.0799859503987932
 30
0.0
 40
1.463376791394128
 50
211.7763633960477136
 51
221.908110444260501
  0
ARC
  5
1CF0C
  8
0
 10
4448.1959970962670923
 20
465.1823850773012055
 30
0.0
 40
1.6722050758307629
 50
211.1473617525736017
 51
221.6898567905803077
  0
ARC
  5
1CF0D
  8
0
 10
4448.2098649810559436
 20
465.1861639654052283
 30
0.0
 40
1.7073314950066141
 50
210.0841389562131951
 51
222.5740363097328043
  0
ARC
  5
1CF0E
  8
0
 10
4449.5030110516499917
 20
466.0645502482241795
 30
0.0
 40
3.28466389061263
 50
211.6134758554904067
 51
218.5051461307415934
  0
ARC
  5
1CF0F
  8
0
 10
4448.4526119646179723
 20
465.3007371017890819
 30
0.0
 40
2.0080746621105119
 50
208.0474386758504863
 51
219.5693226433699863
  0
ARC
  5
1CF10
  8
0
 10
4448.0742909950968169
 20
465.0262820435876279
 30
0.0
 40
1.5627373309657779
 50
204.7349650766061018
 51
219.8302675501437022
  0
ARC
  5
1CF11
  8
0
 10
4448.1373617326489693
 20
465.0404131945398944
 30
0.0
 40
1.641032527765919
 50
203.3685119022152037
 51
217.9702708555153947
  0
ARC
  5
1CF12
  8
0
 10
4447.9541267141930803
 20
464.9238081496494033
 30
0.0
 40
1.4425580379264371
 50
200.8864531037773986
 51
217.9259881112982953
  0
ARC
  5
1CF13
  8
0
 10
4447.992742567712412
 20
464.9248676998657857
 30
0.0
 40
1.49465368831324
 50
199.2192213114470007
 51
215.9777370071342091
  0
ARC
  5
1CF14
  8
0
 10
4447.7861395965146585
 20
464.8221032045576067
 30
0.0
 40
1.2808014736631921
 50
196.5250367192790009
 51
216.9736156672665004
  0
ARC
  5
1CF15
  8
0
 10
4447.6714439072047753
 20
464.760756574009406
 30
0.0
 40
1.1661330521789699
 50
193.8752991818695079
 51
216.6454188578844935
  0
ARC
  5
1CF16
  8
0
 10
4447.6476343876183819
 20
464.7388331725294961
 30
0.0
 40
1.1458376150468941
 50
192.168117205077408
 51
215.4125171504337004
  0
ARC
  5
1CF17
  8
0
 10
4447.6140026890134322
 20
464.7227106362394125
 30
0.0
 40
1.1201535615515781
 50
190.3559193059938082
 51
215.3888834527107861
  0
ARC
  5
1CF18
  8
0
 10
4447.6741723402947173
 20
464.7284757548430889
 30
0.0
 40
1.1874944627377719
 50
189.1276739280590107
 51
211.8636839664596039
  0
ARC
  5
1CF19
  8
0
 10
4447.6528857340999821
 20
464.7139015571651157
 30
0.0
 40
1.172156053179821
 50
187.2979910395796992
 51
211.4387784070974021
  0
ARC
  5
1CF1A
  8
0
 10
4447.6155313812178065
 20
464.6855927653751905
 30
0.0
 40
1.1385131164964979
 50
184.9693309676733008
 51
208.9503612366397078
  0
ARC
  5
1CF1B
  8
0
 10
4447.5935472488981759
 20
464.6742756261089085
 30
0.0
 40
1.1221628968316291
 50
183.1406842619439885
 51
208.6662363154466959
  0
ARC
  5
1CF1C
  8
0
 10
4447.6777387211559471
 20
464.676192357171999
 30
0.0
 40
1.210385151940278
 50
182.0862574428664971
 51
204.5780440874910084
  0
ARC
  5
1CF1D
  8
0
 10
4447.6382320309694478
 20
464.6577477218845047
 30
0.0
 40
1.1744982610404231
 50
180.1730868540822996
 51
204.1612196961397956
  0
ARC
  5
1CF1E
  8
0
 10
4448.433699917791273
 20
464.7293405071235952
 30
0.0
 40
1.9743400606232431
 50
181.374695135006391
 51
189.6303891938389938
  0
ARC
  5
1CF1F
  8
0
 10
4447.3172962702183213
 20
464.5399058390373739
 30
0.0
 40
0.8419785468891795
 50
189.6303891938389938
 51
202.9749035239487966
  0
ARC
  5
1CF20
  8
0
 10
4446.6267779081190383
 20
464.2681029894425251
 30
0.0
 40
0.1063090781110868
 50
197.277472031202592
 51
211.6474633523014859
  0
ARC
  5
1CF21
  8
0
 10
4447.3385468790847881
 20
464.5410775059302182
 30
0.0
 40
0.868432980447038
 50
189.3354105538035128
 51
200.5293477400416009
  0
ARC
  5
1CF22
  8
0
 10
4448.390090778359081
 20
464.6968126047374881
 30
0.0
 40
1.931386193344856
 50
180.0142100480059923
 51
188.8339858150933992
  0
ARC
  5
1CF23
  8
0
 10
4444.7051714611789066
 20
463.7175775996274751
 30
0.0
 40
1.8852523960769709
 50
16.6069435659585309
 51
17.494078960560369
  0
ARC
  5
1CF24
  8
0
 10
4447.6241981308376126
 20
464.5957556055686268
 30
0.0
 40
1.163435252783505
 50
181.3495897764858
 51
195.5277492430161885
  0
ARC
  5
1CF25
  8
0
 10
4446.7291852833050143
 20
464.346830990727085
 30
0.0
 40
0.2393804728530403
 50
195.4600678530829043
 51
201.2267919995194063
  0
ARC
  5
1CF26
  8
0
 10
4447.5068254094430813
 20
464.5619061399000884
 30
0.0
 40
1.046214709591448
 50
181.6294777543373016
 51
195.4600678530829043
  0
ARC
  5
1CF27
  8
0
 10
4453.1769818388820568
 20
464.7232074722265907
 30
0.0
 40
6.718664978576026
 50
180.1791749213385003
 51
181.6294777543373016
  0
ARC
  5
1CF28
  8
0
 10
4447.4831091963005747
 20
464.539302853259187
 30
0.0
 40
1.0222032759249149
 50
187.6967356619649081
 51
193.3968932024444882
  0
ARC
  5
1CF29
  8
0
 10
4447.6134738684013428
 20
464.5569212854242096
 30
0.0
 40
1.153753102543881
 50
178.9871643776957058
 51
187.6967356619649081
  0
ARC
  5
1CF2A
  8
0
 10
4447.5838715349027552
 20
464.5425411445100963
 30
0.0
 40
1.1249506137700429
 50
180.7032924025662908
 51
191.8985598387747871
  0
ARC
  5
1CF2B
  8
0
 10
4447.8083688002288909
 20
464.5406215278949276
 30
0.0
 40
1.3505067799394139
 50
181.206940849726692
 51
187.6882110263622963
  0
ARC
  5
1CF2C
  8
0
 10
4447.367097604987066
 20
464.4862390240102741
 30
0.0
 40
0.9080641034713162
 50
181.9528418697748009
 51
187.6952118188777092
  0
ARC
  5
1CF2D
  8
0
 10
4425.0161715028289109
 20
463.7241456509348154
 30
0.0
 40
21.4558506686204495
 50
1.952841869774812
 51
2.0595768843410278
  0
ARC
  5
1CF2E
  8
0
 10
4447.7349449057692254
 20
464.4883419920449228
 30
0.0
 40
1.2766639145367811
 50
181.9555779831796087
 51
183.6180791527941949
  0
ARC
  5
1CF2F
  8
0
 10
4445.7252246120278869
 20
464.4277361155283756
 30
0.0
 40
0.7339977531478697
 50
1.330273179730598
 51
3.0806547082282552
  0
ARC
  5
1CF30
  8
0
 10
4446.5286311736581411
 20
464.4187208605857222
 30
0.0
 40
0.0692915776881697
 50
182.7643200157741887
 51
191.4828233270897044
  0
ARC
  5
1CF31
  8
0
 10
4458.8472078340928419
 20
464.9978589994184972
 30
0.0
 40
12.4014742943565501
 50
182.5653091259619032
 51
182.6920931302155964
  0
ARC
  5
1CF32
  8
0
 10
4446.4480456652017892
 20
464.4067944197994962
 30
0.0
 40
0.0128176487121866
 50
351.6213246715469722
 51
4.3990301099663469
  0
ARC
  5
1CF33
  8
0
 10
4446.5066065857072317
 20
464.3685901731744252
 30
0.0
 40
0.0395923462696366
 50
185.7170012997746937
 51
204.1788540554302074
  0
ARC
  5
1CF34
  8
0
 10
4446.4406417614145539
 20
464.3542628579173197
 30
0.0
 40
0.0299055915613548
 50
356.3781487840316231
 51
10.9581106067419398
  0
ARC
  5
1CF35
  8
0
 10
4446.5156043307897562
 20
464.3187238792216931
 30
0.0
 40
0.0335126583372801
 50
194.0302120152128111
 51
216.6573863966088993
  0
ARC
  5
1CF36
  8
0
 10
4446.4820004355451601
 20
464.3005929084354761
 30
0.0
 40
0.0069766243404731
 50
344.3923749401577084
 51
15.5509375092945703
  0
ARC
  5
1CF37
  8
0
 10
4446.5298331206304283
 20
464.2707425484306896
 30
0.0
 40
0.0260349084134632
 50
203.9817374958876997
 51
223.8317588615263105
  0
ARC
  5
1CF38
  8
0
 10
4446.5084800610993625
 20
464.2551380819159021
 30
0.0
 40
0.0035355760227535
 50
316.6762205938799752
 51
20.7589791465266309
  0
ARC
  5
1CF39
  8
0
 10
4446.5444614369653209
 20
464.2165808662658151
 30
0.0
 40
0.0092248070079829
 50
207.4844721036905071
 51
254.3692187890563901
  0
ARC
  5
1CF3A
  8
0
 10
4446.5357171510031549
 20
464.2097102801175765
 30
0.0
 40
0.0065745545031192
 50
342.1701755200419939
 51
13.6169503293272491
  0
ARC
  5
1CF3B
  8
0
 10
4446.594330399170758
 20
464.1915490143758234
 30
0.0
 40
0.0312861777469858
 50
207.6728040119998866
 51
233.9288787421062921
  0
ARC
  5
1CF3C
  8
0
 10
4446.5608246534047794
 20
464.1635990171678827
 30
0.0
 40
0.0186037135212053
 50
12.4223140915332095
 51
29.4791421267156686
  0
ARC
  5
1CF3D
  8
0
 10
4446.5773200432131489
 20
464.1672324991582173
 30
0.0
 40
0.0017128853503662
 50
214.5608589265970068
 51
12.42231409150458
  0
ARC
  5
1CF3E
  8
0
 10
4446.635818267734976
 20
464.1561436435169981
 30
0.0
 40
0.0336175589277455
 50
216.883412915988913
 51
237.8735609201546879
  0
ARC
  5
1CF3F
  8
0
 10
4446.606337816231644
 20
464.1247014240253748
 30
0.0
 40
0.0162351885904055
 50
5.6028492656830506
 51
37.0952788931078175
  0
ARC
  5
1CF40
  8
0
 10
4446.6285160433053534
 20
464.1542246407415746
 30
0.0
 40
0.0285794875351184
 50
248.2825968784640907
 51
257.8388719036221914
  0
ARC
  5
1CF41
  8
0
 10
4446.6716572685054416
 20
464.1195086106670828
 30
0.0
 40
0.0253779217349852
 50
222.0228163156286882
 51
253.4502892835477894
  0
ARC
  5
1CF42
  8
0
 10
4446.6618170262427157
 20
464.0989886866352094
 30
0.0
 40
0.0046162957279494
 50
304.4505493997240819
 51
34.4081632204516694
  0
ARC
  5
1CF43
  8
0
 10
4446.716646446771847
 20
464.0911861103173806
 30
0.0
 40
0.0233680883299676
 50
227.3312007765485987
 51
256.3563137137243757
  0
ARC
  5
1CF44
  8
0
 10
4446.7112898476343616
 20
464.072153732894094
 30
0.0
 40
0.0036795856954193
 50
267.5773432517058836
 51
47.5086603789666313
  0
ARC
  5
1CF45
  8
0
 10
4446.7656331252183008
 20
464.0809637416051032
 30
0.0
 40
0.0339575866584657
 50
208.5450317848973896
 51
259.1654183486006104
  0
ARC
  5
1CF46
  8
0
 10
4446.7602156889297476
 20
464.0504389086266883
 30
0.0
 40
0.0029877971547685
 50
251.1423015348175909
 51
26.4292315956189086
  0
ARC
  5
1CF47
  8
0
 10
4446.8109117530566436
 20
464.0641851767992989
 30
0.0
 40
0.03271161492579
 50
212.100103993117898
 51
272.5379291946177887
  0
ARC
  5
1CF48
  8
0
 10
4446.8124107545727384
 20
464.0356191527516785
 30
0.0
 40
0.0041138150023038
 50
269.2965370876224824
 51
21.8448392873350308
  0
ARC
  5
1CF49
  8
0
 10
4446.8660426401520454
 20
464.0449463082185275
 30
0.0
 40
0.0264753635473693
 50
212.3905075244290117
 51
278.9790196735003747
  0
ARC
  5
1CF4A
  8
0
 10
4446.8693448588055617
 20
464.0238081376555215
 30
0.0
 40
0.0050809802417723
 50
279.400104414400289
 51
17.3651358362775987
  0
ARC
  5
1CF4B
  8
0
 10
4446.9227326499358242
 20
464.0331945032788781
 30
0.0
 40
0.0214722054474589
 50
212.7748678245341978
 51
289.7066348370706805
  0
ARC
  5
1CF4C
  8
0
 10
4446.9294679069671474
 20
464.0169943400476882
 30
0.0
 40
0.0040461189118461
 50
277.1735859063267071
 51
39.5006634625067008
  0
ARC
  5
1CF4D
  8
0
 10
4444.8172270893373934
 20
464.5315530610221231
 30
0.0
 40
1.641781000864615
 50
359.9015833274488045
 51
1.8399166025711191
  0
ARC
  5
1CF4E
  8
0
 10
4442.2780848365773636
 20
464.4090914193441222
 30
0.0
 40
4.1860315321757771
 50
2.1804082746010822
 51
2.7604152526537051
  0
ARC
  5
1CF4F
  8
0
 10
4446.9600153430101273
 20
464.0826038505919087
 30
0.0
 40
0.0177830464352986
 50
224.2071078440488918
 51
269.8723703319413971
  0
ARC
  5
1CF50
  8
0
 10
4446.9600153430101273
 20
464.0375900157230262
 30
0.0
 40
0.0098815102467992
 50
221.1941615502813931
 51
269.7703135999212236
  0
ARC
  5
1CF51
  8
0
 10
4446.9600153430101273
 20
464.1430417074938077
 30
0.0
 40
0.007592575526574
 50
222.9634697141395066
 51
269.7010694558468913
  0
ARC
  5
1CF52
  8
0
 10
4446.9600153430101273
 20
464.176633863592599
 30
0.0
 40
0.0103419274148839
 50
219.6063771173556063
 51
269.7805391687995211
  0
LINE
  5
1CF53
  8
0
 10
4442.1723800818263044
 20
469.8841841871611109
 30
0.0
 11
4443.7475715334257984
 21
469.8841841871611109
 31
0.0
  0
ARC
  5
1CF54
  8
0
 10
4443.7475715334257984
 20
469.9038941178652067
 30
0.0
 40
0.0197099307040638
 50
270.0
 51
314.9700203697389043
  0
LINE
  5
1CF55
  8
0
 10
4443.7615012647220283
 20
469.8899498016610892
 30
0.0
 11
4443.8287101839250681
 21
469.9571587208607184
 31
0.0
  0
ARC
  5
1CF56
  8
0
 10
4443.8148575990990139
 20
469.9710335000918917
 30
0.0
 40
0.0196062134309687
 50
314.9541375294958243
 51
0.1304959793579786
  0
LINE
  5
1CF57
  8
0
 10
4443.8344637616783075
 20
469.9710781548611749
 30
0.0
 11
4443.834463761677398
 21
470.0614991477610829
 31
0.0
  0
ARC
  5
1CF58
  8
0
 10
4443.854137454364718
 20
470.0614190789808049
 30
0.0
 40
0.0196738556199338
 50
123.4013669643281048
 51
179.7668166989884924
  0
ARC
  5
1CF59
  8
0
 10
4443.8541688963659908
 20
470.061348141209578
 30
0.0
 40
0.0197503899265044
 50
90.5278409988123656
 51
123.3642272204407959
  0
LINE
  5
1CF5A
  8
0
 10
4443.9849638613268326
 20
470.0810983603611248
 30
0.0
 11
4441.9349877540262241
 21
470.0810983603611248
 31
0.0
  0
LINE
  5
1CF5B
  8
0
 10
4441.8386608470264036
 20
470.4681841871611141
 30
0.0
 11
4444.0812907683257436
 21
470.4681846212807272
 31
0.0
  0
ARC
  5
1CF5C
  8
0
 10
4444.0812909383375882
 20
470.4484999869250146
 30
0.0
 40
0.0196846343564418
 50
359.9975574578372743
 51
90.0004948498942667
  0
LINE
  5
1CF5D
  8
0
 10
4444.1009755726763615
 20
470.4484991477610833
 30
0.0
 11
4444.1009755726763615
 21
470.1884028941254883
 31
0.0
  0
ARC
  5
1CF5E
  8
0
 10
4444.0812450192943288
 20
470.1884228009665208
 30
0.0
 40
0.0197305634248397
 50
312.3593553800643008
 51
359.9421923165047019
  0
LINE
  5
1CF5F
  8
0
 10
4444.0945390461711213
 20
470.173843226814995
 30
0.0
 11
4443.9983408015123132
 21
470.086309559261224
 31
0.0
  0
ARC
  5
1CF60
  8
0
 10
4443.9848472722405859
 20
470.1011722758055953
 30
0.0
 40
0.0200742540157482
 50
270.3327695325210129
 51
312.2356962003262879
  0
LINE
  5
1CF61
  8
0
 10
4442.57643861692668
 20
469.8641841871610723
 30
0.0
 11
4443.343519114726405
 21
469.8641841871610723
 31
0.0
  0
ARC
  5
1CF62
  8
0
 10
4443.3435192808592546
 20
469.8441845882398979
 30
0.0
 40
0.0199995989219072
 50
359.9988509708667266
 51
90.0004759430602093
  0
ARC
  5
1CF63
  8
0
 10
4442.5764325005256978
 20
469.8441841871610904
 30
0.0
 40
0.0199999999999996
 50
90.0
 51
180.0
  0
ARC
  5
1CF64
  8
0
 10
4442.614975807627161
 20
469.8541841871610814
 30
0.0
 40
0.0300000000000003
 50
19.4712206344712691
 51
90.0
  0
ARC
  5
1CF65
  8
0
 10
4443.3049758076267608
 20
469.8541841871610814
 30
0.0
 40
0.0299999999999963
 50
90.0
 51
160.5287793655409985
  0
LINE
  5
1CF66
  8
0
 10
4442.5564324231763749
 20
469.8441844042209254
 30
0.0
 11
4442.5564324231763749
 21
469.0378379475209272
 31
0.0
  0
ARC
  5
1CF67
  8
0
 10
4442.4383221869757108
 20
469.0378379475209272
 30
0.0
 40
0.1181102362000019
 50
269.9999939361957217
 51
0.0
  0
LINE
  5
1CF68
  8
0
 10
4442.4383221744774346
 20
468.9197277113208884
 30
0.0
 11
4442.0643062813769575
 21
468.919727750535003
 31
0.0
  0
LINE
  5
1CF69
  8
0
 10
4442.0643062813769575
 20
468.1126410971208998
 30
0.0
 11
4440.2201259415769528
 21
468.1161158502708872
 31
0.0
  0
LINE
  5
1CF6A
  8
0
 10
4440.2201259415769528
 20
468.9154071888709154
 30
0.0
 11
4440.5267262961651795
 21
468.9161254882549201
 31
0.0
  0
LINE
  5
1CF6B
  8
0
 10
4440.5267262961651795
 20
468.9161254882549201
 30
0.0
 11
4442.0643062813769575
 21
468.919727750535003
 31
0.0
  0
ARC
  5
1CF6C
  8
0
 10
4441.8121615555928656
 20
467.2093976600922929
 30
0.0
 40
1.71617213293269
 50
81.5513628364351604
 51
85.170005759604706
  0
ARC
  5
1CF6D
  8
0
 10
4441.7600105388009979
 20
467.4438736707509747
 30
0.0
 40
1.478300322126052
 50
78.1212285136965647
 51
86.3853719794564938
  0
ARC
  5
1CF6E
  8
0
 10
4441.885952126801385
 20
468.4865695943836954
 30
0.0
 40
0.4186788190119322
 50
64.786480577647481
 51
82.6109435620155352
  0
ARC
  5
1CF6F
  8
0
 10
4441.6359920617906027
 20
466.5591013708087758
 30
0.0
 40
2.3622872638872932
 50
82.6109435620155352
 51
87.4094178453088659
  0
ARC
  5
1CF70
  8
0
 10
4441.7844012444538748
 20
468.2788379386145721
 30
0.0
 40
0.6251289924814833
 50
63.4002204378979997
 51
84.9974046138045622
  0
ARC
  5
1CF71
  8
0
 10
4441.5021549833472818
 20
465.0544306626765092
 30
0.0
 40
3.861865811104745
 50
84.9974046138045622
 51
88.4915837007382038
  0
ARC
  5
1CF72
  8
0
 10
4441.3399687166265721
 20
463.4390775272489122
 30
0.0
 40
5.48223345269282
 50
87.2414419990182637
 51
88.1475586529323181
  0
ARC
  5
1CF73
  8
0
 10
4441.7227646569117496
 20
468.1484216287078084
 30
0.0
 40
0.7497792008703686
 50
62.9014139697097576
 51
82.6223494191020222
  0
ARC
  5
1CF74
  8
0
 10
4441.3585913570941557
 20
465.3358532746051992
 30
0.0
 40
3.5858262630327542
 50
82.6223494191020222
 51
86.3619318538704164
  0
ARC
  5
1CF75
  8
0
 10
4441.3817801127142957
 20
464.9766995650523995
 30
0.0
 40
3.9430523239669242
 50
87.0293710690889242
 51
88.4846892269636527
  0
ARC
  5
1CF76
  8
0
 10
4441.6034741449921057
 20
467.9733190572961234
 30
0.0
 40
0.9232179098075507
 50
60.0556526259528312
 51
83.9717582063260863
  0
ARC
  5
1CF77
  8
0
 10
4440.9036089667742999
 20
460.4953365996020125
 30
0.0
 40
8.4338210351395269
 50
84.5786572178400462
 51
87.0555551041682065
  0
ARC
  5
1CF78
  8
0
 10
4441.5216966355101249
 20
467.8689448009677108
 30
0.0
 40
1.026485065716344
 50
58.0884549268865413
 51
84.6546948964383716
  0
ARC
  5
1CF79
  8
0
 10
4441.0756955348060728
 20
464.2211610285497159
 30
0.0
 40
4.701110282188262
 50
83.384122710887624
 51
87.5253463701595962
  0
ARC
  5
1CF7A
  8
0
 10
4441.4554811410389448
 20
467.7982905537895135
 30
0.0
 40
1.085872090794606
 50
55.8972661292929729
 51
83.3577342230459948
  0
ARC
  5
1CF7B
  8
0
 10
4440.9198462195099637
 20
463.9850116856546265
 30
0.0
 40
4.9363500367974931
 50
82.3019333304223153
 51
87.7345766100251439
  0
ARC
  5
1CF7C
  8
0
 10
4441.2691948967512872
 20
467.2835457660914926
 30
0.0
 40
1.606126153988056
 50
60.3270087149275014
 51
78.9572027280635496
  0
ARC
  5
1CF7D
  8
0
 10
4441.0491623742518641
 20
466.1560735082618976
 30
0.0
 40
2.754868075889044
 50
78.9572027280635496
 51
86.660881910333714
  0
ARC
  5
1CF7E
  8
0
 10
4432.8993234982735885
 20
352.3028509423294281
 30
0.0
 40
116.8991750472457056
 50
85.9234360785726352
 51
86.0006447542461387
  0
ARC
  5
1CF7F
  8
0
 10
4441.0806316369262277
 20
466.8830883953801845
 30
0.0
 40
2.0111293979495581
 50
60.717534753173247
 51
77.550662062823605
  0
ARC
  5
1CF80
  8
0
 10
4441.0047960893180061
 20
466.5395792183867911
 30
0.0
 40
2.362909990023347
 50
77.550662062823605
 51
85.1278673168193336
  0
ARC
  5
1CF81
  8
0
 10
4440.1752673319188034
 20
454.9189931762751939
 30
0.0
 40
14.01287984699551
 50
85.783854334558896
 51
87.344303478245763
  0
ARC
  5
1CF82
  8
0
 10
4440.9862463101653702
 20
466.7317717038981755
 30
0.0
 40
2.1614904047601522
 50
60.0821562838341521
 51
77.8944011940906051
  0
ARC
  5
1CF83
  8
0
 10
4440.7351738179968379
 20
465.1764859926946087
 30
0.0
 40
3.7357155166622049
 50
79.1318495957129784
 51
86.7995974673980157
  0
ARC
  5
1CF84
  8
0
 10
4441.209679378038345
 20
476.66591796384688
 30
0.0
 40
7.7640988849878321
 50
266.4635836974180165
 51
268.0370458690467785
  0
ARC
  5
1CF85
  8
0
 10
4440.7732835366841755
 20
466.288980641805324
 30
0.0
 40
2.6109506637519702
 50
60.3655466032191086
 51
86.6092173245791344
  0
ARC
  5
1CF86
  8
0
 10
4437.5321693946279993
 20
407.2076157945543855
 30
0.0
 40
61.7811260795241566
 50
86.849389896245512
 51
87.2217611318106947
  0
ARC
  5
1CF87
  8
0
 10
4440.6283282367112406
 20
465.9689168983745731
 30
0.0
 40
2.9321117929488252
 50
60.6763801858814418
 51
84.1119207801498447
  0
ARC
  5
1CF88
  8
0
 10
4440.2598678518506858
 20
460.7640512570494025
 30
0.0
 40
8.1490363758534965
 50
85.2891858502348867
 51
90.2794260142795508
  0
ARC
  5
1CF89
  8
0
 10
4442.9227376535418443
 20
470.986954895772385
 30
0.0
 40
2.6291523440968079
 50
243.9256622037351008
 51
249.4591892268161075
  0
ARC
  5
1CF8A
  8
0
 10
4440.5747082653861071
 20
466.0657178466601067
 30
0.0
 40
2.823785592196177
 50
65.0215681102781957
 51
79.2740266056623568
  0
ARC
  5
1CF8B
  8
0
 10
4440.2338235833740328
 20
463.5314712847487044
 30
0.0
 40
5.378935836800216
 50
80.7305603043006386
 51
90.1459057955403154
  0
ARC
  5
1CF8C
  8
0
 10
4442.4469877635983721
 20
470.0599682153177241
 30
0.0
 40
1.621694684695236
 50
244.5159669541986887
 51
250.9511633203680105
  0
ARC
  5
1CF8D
  8
0
 10
4440.4871805770353603
 20
465.9481985247110742
 30
0.0
 40
2.9332470489708888
 50
64.5159669541987171
 51
83.1568619145900101
  0
ARC
  5
1CF8E
  8
0
 10
4440.025643738733379
 20
462.489557801796991
 30
0.0
 40
6.4224073065786209
 50
82.7451746196126265
 51
88.2647140570779953
  0
ARC
  5
1CF8F
  8
0
 10
4440.2676398807743681
 20
465.3363417520973826
 30
0.0
 40
3.5560502580703188
 50
64.0329625575009374
 51
77.2395996288030346
  0
ARC
  5
1CF90
  8
0
 10
4440.0189916813369564
 20
463.5489381675350842
 30
0.0
 40
5.3563942230179258
 50
78.868763793768224
 51
87.8480198262999039
  0
ARC
  5
1CF91
  8
0
 10
4440.2449116567422607
 20
465.3818579627742906
 30
0.0
 40
3.494031872025618
 50
64.6931117790550587
 51
75.2459817594670142
  0
ARC
  5
1CF92
  8
0
 10
4440.0951480798403281
 20
464.6607378205295049
 30
0.0
 40
4.229693720386944
 50
75.7718740009989347
 51
88.3067931492461184
  0
ARC
  5
1CF93
  8
0
 10
4440.0430895129366036
 20
464.74559617437518
 30
0.0
 40
4.1334608378885642
 50
66.7970255611851513
 51
76.9640490128342947
  0
ARC
  5
1CF94
  8
0
 10
4439.9287558832565992
 20
464.0405868573751036
 30
0.0
 40
4.8463246572205234
 50
77.5272414255154132
 51
86.5531924731062645
  0
ARC
  5
1CF95
  8
0
 10
4439.5543644955641867
 20
463.2158611346624184
 30
0.0
 40
5.7146203565175497
 50
68.8598019492637121
 51
75.4130889244184885
  0
ARC
  5
1CF96
  8
0
 10
4440.0323560642145821
 20
464.8831963866567776
 30
0.0
 40
3.9808760954855291
 50
76.0272225500980738
 51
87.2964708047120865
  0
ARC
  5
1CF97
  8
0
 10
4439.7579341944001499
 20
463.8146161720840723
 30
0.0
 40
5.0536633508392459
 50
69.5765606151778968
 51
84.7525802263079555
  0
ARC
  5
1CF98
  8
0
 10
4439.7963817634654333
 20
463.8566008804061767
 30
0.0
 40
4.9852455871586674
 50
70.3379796306927432
 51
85.1239947026292043
  0
ARC
  5
1CF99
  8
0
 10
4439.7124720248139056
 20
463.8328454505181071
 30
0.0
 40
5.0033635727664487
 50
70.6580862722384921
 51
84.1766044347167934
  0
ARC
  5
1CF9A
  8
0
 10
4441.7852798717131009
 20
470.6830788937140255
 30
0.0
 40
2.1832325545043711
 50
252.2792645602553989
 51
257.2723874711816165
  0
ARC
  5
1CF9B
  8
0
 10
4439.7993834978033192
 20
464.3051783383266979
 30
0.0
 40
4.4967820773516038
 50
72.9115499469515811
 51
84.6312543600903098
  0
ARC
  5
1CF9C
  8
0
 10
4439.535467476120175
 20
463.3155137641344936
 30
0.0
 40
5.4911270501208467
 50
72.8324188299824442
 51
82.8374632085746327
  0
ARC
  5
1CF9D
  8
0
 10
4439.4794113583220678
 20
462.7850846241278759
 30
0.0
 40
5.9929056074353841
 50
74.5502557880758161
 51
82.9001676379098456
  0
ARC
  5
1CF9E
  8
0
 10
4439.3566979439274292
 20
462.4105913609105869
 30
0.0
 40
6.3535153462871161
 50
75.5470074694669904
 51
82.1894684135002365
  0
ARC
  5
1CF9F
  8
0
 10
4439.1510367209020842
 20
460.192088447286892
 30
0.0
 40
8.5420800264768921
 50
78.2512107355313731
 51
82.8102579579397968
  0
ARC
  5
1CFA0
  8
0
 10
4439.3339017815960688
 20
462.0526187183922957
 30
0.0
 40
6.6476653946915789
 50
77.5858519547819441
 51
82.3388855551890373
  0
ARC
  5
1CFA1
  8
0
 10
4439.9945610980967103
 20
465.1860665257372034
 30
0.0
 40
3.4252022843293699
 50
78.2482555142756837
 51
86.2240848371364308
  0
ARC
  5
1CFA2
  8
0
 10
4439.6322557444163976
 20
462.9137531336995721
 30
0.0
 40
5.6927336437344511
 50
80.7519146864656534
 51
84.0726832543701619
  0
ARC
  5
1CFA3
  8
0
 10
4439.8491455855200911
 20
464.6150346025261797
 30
0.0
 40
3.9502053186082482
 50
81.5702001478036181
 51
82.4048307020209734
  0
ARC
  5
1CFA4
  8
0
 10
4440.2430838638747446
 20
467.5693646862724222
 30
0.0
 40
0.9697265632936835
 50
82.4048307020209734
 51
91.3565834039359999
  0
ARC
  5
1CFA5
  8
0
 10
4441.8121615555928656
 20
469.8221253792494849
 30
0.0
 40
1.71617213293269
 50
275.129808646124502
 51
278.4486371635649107
  0
ARC
  5
1CFA6
  8
0
 10
4441.7600105388009979
 20
469.5876493685908031
 30
0.0
 40
1.478300322126052
 50
274.0377179404924277
 51
281.8787714863033784
  0
ARC
  5
1CFA7
  8
0
 10
4441.885952126801385
 20
468.5449534449580256
 30
0.0
 40
0.4186788190119322
 50
277.3890564379843795
 51
295.2135194223524763
  0
ARC
  5
1CFA8
  8
0
 10
4441.6359920617906027
 20
470.4724216685328884
 30
0.0
 40
2.3622872638872932
 50
272.9291067353856874
 51
277.3890564379843795
  0
ARC
  5
1CFA9
  8
0
 10
4441.7844012444538748
 20
468.7526851007273194
 30
0.0
 40
0.6251289924814833
 50
275.0025953861954804
 51
296.5997795621020146
  0
ARC
  5
1CFAA
  8
0
 10
4441.5021549833472818
 20
471.9770923766652118
 30
0.0
 40
3.861865811104745
 50
271.5084162992617962
 51
275.0025953861954804
  0
ARC
  5
1CFAB
  8
0
 10
4441.3399687166265721
 20
473.5924455120929792
 30
0.0
 40
5.48223345269282
 50
272.02645537742751
 51
272.7585580009816795
  0
ARC
  5
1CFAC
  8
0
 10
4441.7227646569117496
 20
468.8831014106340263
 30
0.0
 40
0.7497792008703686
 50
277.3776505808979778
 51
297.0985860302886863
  0
ARC
  5
1CFAD
  8
0
 10
4441.3585913570941557
 20
471.6956697647366923
 30
0.0
 40
3.5858262630327542
 50
273.6380681461296263
 51
277.3776505808979778
  0
ARC
  5
1CFAE
  8
0
 10
4441.3817801127142957
 20
472.054823474289492
 30
0.0
 40
3.9430523239669242
 50
271.7899014476475941
 51
272.9706289309111185
  0
ARC
  5
1CFAF
  8
0
 10
4441.6034741449921057
 20
469.0582039820458249
 30
0.0
 40
0.9232179098075507
 50
276.0282417936738852
 51
299.9443473740471973
  0
ARC
  5
1CFB0
  8
0
 10
4440.9036089667742999
 20
476.536186439739879
 30
0.0
 40
8.4338210351395269
 50
273.0090997797598789
 51
275.4213427821600249
  0
ARC
  5
1CFB1
  8
0
 10
4441.5216966355101249
 20
469.1625782383741239
 30
0.0
 40
1.026485065716344
 50
275.3453051035615999
 51
301.9115450731134729
  0
ARC
  5
1CFB2
  8
0
 10
4441.0756955348060728
 20
472.8103620107921756
 30
0.0
 40
4.701110282188262
 50
272.6027858403282949
 51
276.6158772891122908
  0
ARC
  5
1CFB3
  8
0
 10
4441.4554811410389448
 20
469.2332324855523211
 30
0.0
 40
1.085872090794606
 50
276.642265776953991
 51
304.1027338707070271
  0
ARC
  5
1CFB4
  8
0
 10
4440.9198462195099637
 20
473.0465113536872082
 30
0.0
 40
4.9363500367974931
 50
272.3777903138338274
 51
277.6980666695777131
  0
ARC
  5
1CFB5
  8
0
 10
4441.2691948967512872
 20
469.7479772732502852
 30
0.0
 40
1.606126153988056
 50
281.0427972719364789
 51
299.6729912850724986
  0
ARC
  5
1CFB6
  8
0
 10
4441.0491623742518641
 20
470.8754495310798802
 30
0.0
 40
2.754868075889044
 50
273.3391180896662718
 51
281.0427972719364789
  0
ARC
  5
1CFB7
  8
0
 10
4432.8993234982735885
 20
584.7286720970123497
 30
0.0
 40
116.8991750472457056
 50
274.0019666192191039
 51
274.0765639214274074
  0
ARC
  5
1CFB8
  8
0
 10
4441.0806316369262277
 20
470.1484346439615933
 30
0.0
 40
2.0111293979495581
 50
282.4493379371763808
 51
299.2824652468268027
  0
ARC
  5
1CFB9
  8
0
 10
4441.0047960893180061
 20
470.4919438209549867
 30
0.0
 40
2.362909990023347
 50
274.8721326831806095
 51
282.4493379371763808
  0
ARC
  5
1CFBA
  8
0
 10
4440.1752673319188034
 20
482.1125298630665839
 30
0.0
 40
14.01287984699551
 50
272.6791038438307737
 51
274.216145665441104
  0
ARC
  5
1CFBB
  8
0
 10
4440.9862463101653702
 20
470.299751335443716
 30
0.0
 40
2.1614904047601522
 50
282.1055988059093806
 51
299.9178437161658053
  0
ARC
  5
1CFBC
  8
0
 10
4440.7351738179968379
 20
471.8550370466472259
 30
0.0
 40
3.7357155166622049
 50
273.2004025326020269
 51
280.8681504042870074
  0
ARC
  5
1CFBD
  8
0
 10
4441.209679378038345
 20
460.3656050754948978
 30
0.0
 40
7.7640988849878321
 50
91.9629541309532215
 51
93.5091256102917754
  0
ARC
  5
1CFBE
  8
0
 10
4440.7732835366841755
 20
470.7425423975365106
 30
0.0
 40
2.6109506637519702
 50
273.3907826754208941
 51
299.6344533967808843
  0
ARC
  5
1CFBF
  8
0
 10
4437.5321693946279993
 20
529.8239072447869376
 30
0.0
 40
61.7811260795236592
 50
272.7808275152581814
 51
273.1506101037545022
  0
ARC
  5
1CFC0
  8
0
 10
4440.6283282367112406
 20
471.0626061409672047
 30
0.0
 40
2.9321117929488252
 50
275.8880792198502263
 51
299.3236198141186151
  0
ARC
  5
1CFC1
  8
0
 10
4440.2620606523369133
 20
475.5555519098135733
 30
0.0
 40
7.4395542476676857
 50
269.6770378190587962
 51
275.1442758623085183
  0
ARC
  5
1CFC2
  8
0
 10
4442.9227376535418443
 20
466.0445681435692791
 30
0.0
 40
2.6291523440968079
 50
110.5408107731839067
 51
116.0743377962648992
  0
ARC
  5
1CFC3
  8
0
 10
4440.5747082653861071
 20
470.9658051926817279
 30
0.0
 40
2.823785592196177
 50
280.7259733943377
 51
294.9784318897217759
  0
ARC
  5
1CFC4
  8
0
 10
4440.2338235833740328
 20
473.5000517545930165
 30
0.0
 40
5.3789358368002151
 50
269.8540942044597273
 51
279.2694396956993046
  0
ARC
  5
1CFC5
  8
0
 10
4442.4469877635983721
 20
466.9715548240241105
 30
0.0
 40
1.621694684695236
 50
109.0488366796319042
 51
115.4840330458012971
  0
ARC
  5
1CFC6
  8
0
 10
4440.4871805770353603
 20
471.0833245146305899
 30
0.0
 40
2.9332470489708888
 50
276.8431380854099757
 51
295.4840330458013113
  0
ARC
  5
1CFC7
  8
0
 10
4440.025643738733379
 20
474.5419652375446731
 30
0.0
 40
6.4224073065786147
 50
271.7352859429220189
 51
277.254825380387274
  0
ARC
  5
1CFC8
  8
0
 10
4440.2676398807743681
 20
471.6951812872442815
 30
0.0
 40
3.5560502580703188
 50
282.7604003711970222
 51
295.96703744249902
  0
ARC
  5
1CFC9
  8
0
 10
4440.0189916813369564
 20
473.4825848718066936
 30
0.0
 40
5.3563942230179311
 50
272.1519801737001103
 51
281.1312362062317902
  0
ARC
  5
1CFCA
  8
0
 10
4440.2449116567422607
 20
471.6496650765676009
 30
0.0
 40
3.494031872025618
 50
284.7540182405330143
 51
295.3068882209449839
  0
ARC
  5
1CFCB
  8
0
 10
4440.0951480798403281
 20
472.370785218812216
 30
0.0
 40
4.229693720386944
 50
271.6932068507538247
 51
284.2281259990011222
  0
ARC
  5
1CFCC
  8
0
 10
4440.0430895129366036
 20
472.2859268649664841
 30
0.0
 40
4.1334608378885642
 50
283.0359509871656769
 51
293.2029744388149197
  0
ARC
  5
1CFCD
  8
0
 10
4439.9287558832565992
 20
472.9909361819666742
 30
0.0
 40
4.846324657220519
 50
273.4468075268936786
 51
282.4727585744844873
  0
ARC
  5
1CFCE
  8
0
 10
4439.5543644955641867
 20
473.8156619046794731
 30
0.0
 40
5.7146203565175497
 50
284.5869110755814972
 51
291.1401980507362737
  0
ARC
  5
1CFCF
  8
0
 10
4440.0323560642145821
 20
472.1483266526850002
 30
0.0
 40
3.9808760954855038
 50
272.7035291952878993
 51
283.972777449901912
  0
ARC
  5
1CFD0
  8
0
 10
4439.7579341944001499
 20
473.2169068672575918
 30
0.0
 40
5.0536633508392343
 50
275.2474197736920019
 51
290.4234393848220748
  0
ARC
  5
1CFD1
  8
0
 10
4439.7963817634654333
 20
473.1749221589356011
 30
0.0
 40
4.9852455871586647
 50
274.8760052973707957
 51
289.6620203693072995
  0
ARC
  5
1CFD2
  8
0
 10
4439.7124720248139056
 20
473.1986775888237844
 30
0.0
 40
5.0033635727664523
 50
275.8233955652831924
 51
289.3419137277614936
  0
ARC
  5
1CFD3
  8
0
 10
4441.7852798717131009
 20
466.3484441456278091
 30
0.0
 40
2.1832325545043711
 50
102.7276125288183977
 51
107.7207354397446011
  0
ARC
  5
1CFD4
  8
0
 10
4439.7993834978033192
 20
472.7263447010150799
 30
0.0
 40
4.4967820773515799
 50
275.3687456399097186
 51
287.0884500530484047
  0
ARC
  5
1CFD5
  8
0
 10
4439.535467476120175
 20
473.7160092752072273
 30
0.0
 40
5.491127050120844
 50
277.1625367914253957
 51
287.1675811700176268
  0
ARC
  5
1CFD6
  8
0
 10
4439.4794113583220678
 20
474.2464384152139019
 30
0.0
 40
5.9929056074353806
 50
277.099832362090126
 51
285.4497442119242123
  0
ARC
  5
1CFD7
  8
0
 10
4439.3566979439274292
 20
474.6209316784311909
 30
0.0
 40
6.3535153462871232
 50
277.8105315864996783
 51
284.4529925305329812
  0
ARC
  5
1CFD8
  8
0
 10
4439.1510367209020842
 20
476.8394345920547721
 30
0.0
 40
8.5420800264768975
 50
277.1897420420601748
 51
281.7487892644685985
  0
ARC
  5
1CFD9
  8
0
 10
4439.3339017815960688
 20
474.9789043209494821
 30
0.0
 40
6.6476653946915869
 50
277.6611144448108917
 51
282.4141480452179849
  0
ARC
  5
1CFDA
  8
0
 10
4439.9945610980967103
 20
471.8454565136044039
 30
0.0
 40
3.4252022843293179
 50
273.7759151628634982
 51
281.7517444857243163
  0
ARC
  5
1CFDB
  8
0
 10
4439.6322557444163976
 20
474.1177699056422057
 30
0.0
 40
5.692733643734444
 50
275.9273167456299234
 51
279.2480853135343182
  0
ARC
  5
1CFDC
  8
0
 10
4439.8491455855200911
 20
472.4164884368155981
 30
0.0
 40
3.9502053186082482
 50
277.5951692979789982
 51
278.4297998521964246
  0
ARC
  5
1CFDD
  8
0
 10
4440.2430838638747446
 20
469.4621583530695261
 30
0.0
 40
0.9697265632936835
 50
268.6434165960640144
 51
277.5951692979789982
  0
ARC
  5
1CFDE
  8
0
 10
4441.9943715314730071
 20
468.5157615196708889
 30
0.0
 40
0.0109063481135023
 50
302.5231555353096269
 51
57.4768444646903518
  0
ARC
  5
1CFDF
  8
0
 10
4441.9129105532392714
 20
468.5157615196708889
 30
0.0
 40
0.0122901974052961
 50
292.9804166235791172
 51
67.0195833764209397
  0
ARC
  5
1CFE0
  8
0
 10
4441.8035641111991936
 20
468.5157615196708889
 30
0.0
 40
0.0275031245136912
 50
320.1231851561013855
 51
39.8768148438986216
  0
ARC
  5
1CFE1
  8
0
 10
4441.7261524275545526
 20
468.5157615196708889
 30
0.0
 40
0.0277099853556749
 50
296.4465207386382986
 51
63.5534792613617228
  0
ARC
  5
1CFE2
  8
0
 10
4441.646583229906355
 20
468.5157615196708889
 30
0.0
 40
0.0382888344227271
 50
310.8558762555467752
 51
49.1441237444532533
  0
ARC
  5
1CFE3
  8
0
 10
4441.6026461112251127
 20
468.5157615196708889
 30
0.0
 40
0.0326987546723539
 50
292.8611978575603985
 51
67.1388021424395447
  0
ARC
  5
1CFE4
  8
0
 10
4441.5050179662330265
 20
468.5157615196708889
 30
0.0
 40
0.0385164461395762
 50
295.2330775189594192
 51
64.7669224810405524
  0
ARC
  5
1CFE5
  8
0
 10
4441.4663308928984407
 20
468.5157615196708889
 30
0.0
 40
0.0361876532131238
 50
281.8675633860465837
 51
78.1324366139534021
  0
ARC
  5
1CFE6
  8
0
 10
4441.3642140271085736
 20
468.5157615196708889
 30
0.0
 40
0.0384328824856712
 50
278.0705096419939082
 51
81.9294903580060634
  0
ARC
  5
1CFE7
  8
0
 10
4441.295920941379336
 20
468.5157615196708889
 30
0.0
 40
0.0386446298414099
 50
282.4892854280377037
 51
77.5107145719622821
  0
ARC
  5
1CFE8
  8
0
 10
4441.150314414562672
 20
468.5157615196708889
 30
0.0
 40
0.0466070487399395
 50
277.3410906734026184
 51
82.6589093265973247
  0
ARC
  5
1CFE9
  8
0
 10
4441.0629661835728257
 20
468.5157615196708889
 30
0.0
 40
0.0474625077778453
 50
285.7880137926675275
 51
74.2119862073325436
  0
ARC
  5
1CFEA
  8
0
 10
4440.9247773417191638
 20
468.5157615196708889
 30
0.0
 40
0.0504670506570229
 50
290.4911762847319778
 51
69.508823715268008
  0
ARC
  5
1CFEB
  8
0
 10
4440.8843090969057812
 20
468.5157615196708889
 30
0.0
 40
0.0399134943447796
 50
278.754734328665279
 51
81.2452656713347068
  0
ARC
  5
1CFEC
  8
0
 10
4440.7551913477700509
 20
468.5157615196708889
 30
0.0
 40
0.0301229898713572
 50
285.0114321256460244
 51
74.9885678743548567
  0
ARC
  5
1CFED
  8
0
 10
4440.6893566778626337
 20
468.5157615196708889
 30
0.0
 40
0.0238797348960087
 50
276.7837084078840917
 51
83.2162915921158657
  0
ARC
  5
1CFEE
  8
0
 10
4440.543090889668747
 20
468.5157615196708889
 30
0.0
 40
0.0172109058798819
 50
283.5818239283102002
 51
76.4181760716890324
  0
ARC
  5
1CFEF
  8
0
 10
4440.4272518258057971
 20
468.5157615196708889
 30
0.0
 40
0.0068720853927498
 50
278.2333854130341138
 51
81.7666145869659147
  0
LINE
  5
1CFF0
  8
0
 10
4440.2201259415769528
 20
468.9154071888709154
 30
0.0
 11
4440.2201259415769528
 21
468.1161158502708872
 31
0.0
  0
LINE
  5
1CFF1
  8
0
 10
4442.0643062813769575
 20
468.919727750535003
 30
0.0
 11
4442.0643062813769575
 21
468.1126410971208998
 31
0.0
  0
ARC
  5
1CFF2
  8
0
 10
4440.2201259415769528
 20
468.9004071888708722
 30
0.0
 40
0.0150000000000032
 50
90.0
 51
135.0000000000023022
  0
ARC
  5
1CFF3
  8
0
 10
4440.2201259415769528
 20
468.1311158502708736
 30
0.0
 40
0.0150000000000077
 50
225.0
 51
269.9999999951538143
  0
LINE
  5
1CFF4
  8
0
 10
4440.2095193398590709
 20
468.1205092485531054
 30
0.0
 11
4440.1409381952371405
 21
468.1890903931106891
 31
0.0
  0
ARC
  5
1CFF5
  8
0
 10
4440.1548584973652396
 20
468.2030104041505183
 30
0.0
 40
0.0196860742324642
 50
180.0017060595494911
 51
224.9994009355270066
  0
LINE
  5
1CFF6
  8
0
 10
4440.1351724231417393
 20
468.2030098179708943
 30
0.0
 11
4440.1351724231417393
 21
468.8285132210709207
 31
0.0
  0
ARC
  5
1CFF7
  8
0
 10
4440.1548584981856038
 20
468.828512634546712
 30
0.0
 40
0.0196860750534676
 50
135.0006003017560943
 51
179.9982929371562932
  0
LINE
  5
1CFF8
  8
0
 10
4440.1409381951771138
 20
468.8424326458663245
 30
0.0
 11
4440.2095193398590709
 21
468.9110137905886972
 31
0.0
  0
LINE
  5
1CFF9
  8
0
 10
4442.0643062813769575
 20
468.1126410971208998
 30
0.0
 11
4443.245408807277272
 21
468.1126410971208998
 31
0.0
  0
ARC
  5
1CFFA
  8
0
 10
4443.2454089187158388
 20
468.2307510581813972
 30
0.0
 40
0.1181099610605571
 50
269.9999459399322745
 51
0.0001334716537581
  0
LINE
  5
1CFFB
  8
0
 10
4443.3635188797770752
 20
469.8441841871610904
 30
0.0
 11
4443.3635188797770752
 21
468.2307513333208817
 31
0.0
  0
LINE
  5
1CFFC
  8
0
 10
4442.5218387315017026
 20
468.9543213941569206
 30
0.0
 11
4443.3289253540642676
 21
468.147234784746388
 31
0.0
  0
LINE
  5
1CFFD
  8
0
 10
4442.091241167595399
 20
469.9571589471208881
 30
0.0
 11
4443.8287104101864315
 21
469.9571589471208881
 31
0.0
  0
LINE
  5
1CFFE
  8
0
 10
4441.8254123306824113
 20
470.1738434439208731
 30
0.0
 11
4444.0945392847679614
 21
470.1738434439208731
 31
0.0
  0
LINE
  5
1CFFF
  8
0
 10
4446.1723800044255768
 20
469.8841841871611109
 30
0.0
 11
4447.7475714560268898
 21
469.8841841871611109
 31
0.0
  0
LINE
  5
1D000
  8
0
 10
4447.9849637839270144
 20
470.0810983603611248
 30
0.0
 11
4445.934987676626406
 21
470.0810983603611248
 31
0.0
  0
ARC
  5
1D001
  8
0
 10
4445.934987676626406
 20
470.1008729966526971
 30
0.0
 40
0.0197746362915226
 50
227.431622446683491
 51
270.0
  0
LINE
  5
1D002
  8
0
 10
4445.9216107362663024
 20
470.0863095593168737
 30
0.0
 11
4445.8254135471397603
 21
470.1738422665995927
 31
0.0
  0
ARC
  5
1D003
  8
0
 10
4445.8380337586304449
 20
470.1879510955309911
 30
0.0
 40
0.0189295624389974
 50
178.6323715958749858
 51
228.1833558452003103
  0
LINE
  5
1D004
  8
0
 10
4445.8191095885758841
 20
470.1884028940610847
 30
0.0
 11
4445.8191095885758841
 21
470.4484991477610833
 31
0.0
  0
ARC
  5
1D005
  8
0
 10
4445.8385668969185645
 20
470.4487257853651272
 30
0.0
 40
0.0194586282286707
 50
89.7235914707277544
 51
180.6673477514318051
  0
LINE
  5
1D006
  8
0
 10
4445.838660769625676
 20
470.4681841871611141
 30
0.0
 11
4448.0812906909268349
 21
470.4681846212807272
 31
0.0
  0
ARC
  5
1D007
  8
0
 10
4446.1723697099541823
 20
469.9038692461662095
 30
0.0
 40
0.0196850616969755
 50
225.000016017003702
 51
270.0299633225506
  0
LINE
  5
1D008
  8
0
 10
4446.1584502732312103
 20
469.8899498016610892
 30
0.0
 11
4446.09124132604029
 21
469.9571587112752127
 31
0.0
  0
ARC
  5
1D009
  8
0
 10
4446.1050951613788129
 20
469.9710342990401841
 30
0.0
 40
0.019607669147185
 50
179.8718483304456868
 51
225.0449458334566941
  0
LINE
  5
1D00A
  8
0
 10
4446.0854875412769616
 20
469.9710781548611749
 30
0.0
 11
4446.0854875412769616
 21
470.0614991477605145
 31
0.0
  0
ARC
  5
1D00B
  8
0
 10
4446.0658481784112155
 20
470.061478872221187
 30
0.0
 40
0.0196393733319942
 50
0.0591517363906862
 51
87.421451144948648
  0
LINE
  5
1D00C
  8
0
 10
4446.0912410901937619
 20
469.9571589471208881
 30
0.0
 11
4447.8287103327857039
 21
469.9571589471208881
 31
0.0
  0
LINE
  5
1D00D
  8
0
 10
4445.8254122532798647
 20
470.1738434439208731
 30
0.0
 11
4448.0945392073681433
 21
470.1738434439208731
 31
0.0
  0
LINE
  5
1D00E
  8
0
 10
4446.4581616448576824
 20
469.8841841871611109
 30
0.0
 11
4446.4581616448576824
 21
464.4427921614719139
 31
0.0
  0
ARC
  5
1D00F
  8
0
 10
4442.1723800819272583
 20
469.9038941178652067
 30
0.0
 40
0.0197099307040638
 50
225.0299796302610957
 51
270.0
  0
LINE
  5
1D010
  8
0
 10
4442.1584503506310284
 20
469.8899498016610892
 30
0.0
 11
4442.0912414314270791
 21
469.9571587208607184
 31
0.0
  0
ARC
  5
1D011
  8
0
 10
4442.1051600718201371
 20
469.971077637091696
 30
0.0
 40
0.0196841250613415
 50
179.9984928971265106
 51
225.0005677350586097
  0
LINE
  5
1D012
  8
0
 10
4442.085475946765655
 20
469.9710781548611749
 30
0.0
 11
4442.085475946765655
 21
470.0614991477610829
 31
0.0
  0
ARC
  5
1D013
  8
0
 10
4442.0658522362946314
 20
470.0614539801588876
 30
0.0
 40
0.019623762451118
 50
0.1318765459743312
 51
56.6353439685376614
  0
ARC
  5
1D014
  8
0
 10
4442.0657827189870659
 20
470.061348141209578
 30
0.0
 40
0.0197503899265044
 50
56.635772779559197
 51
89.4721590011876344
  0
ARC
  5
1D015
  8
0
 10
4441.8386607884513069
 20
470.4484997178976187
 30
0.0
 40
0.0196849033831794
 50
89.9998295086357274
 51
180.0016594653764912
  0
LINE
  5
1D016
  8
0
 10
4441.8189758850758153
 20
470.4484991477610833
 30
0.0
 11
4441.8189758850758153
 21
470.1884028941254883
 31
0.0
  0
ARC
  5
1D017
  8
0
 10
4441.8387073652138497
 20
470.1884233545745815
 30
0.0
 40
0.0197314907450364
 50
180.0594125203786007
 51
227.6400773831776974
  0
LINE
  5
1D018
  8
0
 10
4441.8254125691819354
 20
470.173843226814995
 30
0.0
 11
4441.9216108138407435
 21
470.086309559261224
 31
0.0
  0
ARC
  5
1D019
  8
0
 10
4441.9351043431115613
 20
470.1011722758055953
 30
0.0
 40
0.0200742540157482
 50
227.7643037996737121
 51
269.6672304674791008
  0
LINE
  5
1D01A
  8
0
 10
4446.4599281061337024
 20
464.681974797039004
 30
0.0
 11
4446.4607652643526308
 21
464.6820760229310281
 31
0.0
  0
ARC
  5
1D01C
  8
0
 10
4446.9599070119702446
 20
464.5667220409325751
 30
0.0
 40
0.561542095500966
 50
270.0070115294802235
 51
303.7398395434976806
  0
ARC
  5
1D01D
  8
0
 10
4447.0783051635771699
 20
464.4429035048622154
 30
0.0
 40
0.3834846682821586
 50
350.8627423528844815
 51
359.9833643768309912
  0
ARC
  5
1D01E
  8
0
 10
4447.0621352156285866
 20
464.4459062592076179
 30
0.0
 40
0.3999264664175502
 50
338.7893574436802737
 51
350.8058855955903823
  0
ARC
  5
1D01F
  8
0
 10
4447.0596518672091406
 20
464.4468700172914168
 30
0.0
 40
0.4025902699052017
 50
323.0845892740936733
 51
338.7893574436834001
  0
ARC
  5
1D020
  8
0
 10
4447.0039443598298021
 20
464.4887198319183881
 30
0.0
 40
0.4722661865668654
 50
304.5532205420354899
 51
323.0845892740936733
  0
ARC
  5
1D021
  8
0
 10
4446.9598344501346219
 20
464.8547567898032753
 30
0.0
 40
0.5716840193788429
 50
287.4439740389548774
 51
289.9714349154697857
  0
ARC
  5
1D022
  8
0
 10
4446.9598344501346219
 20
464.8547567898032753
 30
0.0
 40
0.5716840193788429
 50
280.888995660743376
 51
283.7224214058749112
  0
ARC
  5
1D023
  8
0
 10
4446.9598344501346219
 20
464.8547567898032753
 30
0.0
 40
0.5716840193788429
 50
275.4539093592077279
 51
277.8880231310113231
  0
ARC
  5
1D024
  8
0
 10
4446.9982092765831112
 20
464.771916813947314
 30
0.0
 40
0.4804195476865246
 50
322.7477526022130974
 51
325.1386376638915863
  0
ARC
  5
1D025
  8
0
 10
4446.9982092765831112
 20
464.771916813947314
 30
0.0
 40
0.4804195476865246
 50
315.1084412552186222
 51
319.1682556047816774
  0
ARC
  5
1D026
  8
0
 10
4446.9982092765831112
 20
464.771916813947314
 30
0.0
 40
0.4804195476865246
 50
307.2512775034384731
 51
311.0312484038843763
  0
ARC
  5
1D027
  8
0
 10
4446.9982092765831112
 20
464.771916813947314
 30
0.0
 40
0.4804195476865246
 50
300.1604237265183883
 51
303.7364123103869815
  0
ARC
  5
1D028
  8
0
 10
4446.9982085177271074
 20
464.7719183813592849
 30
0.0
 40
0.4804212889298358
 50
293.1944369910874002
 51
296.7135243631980757
  0
ARC
  5
1D029
  8
0
 10
4447.2312094846156469
 20
464.6584737465832973
 30
0.0
 40
0.2194211449726562
 50
334.7867260547885166
 51
340.981968856806418
  0
ARC
  5
1D02A
  8
0
 10
4447.0785963482830994
 20
464.7159185689695846
 30
0.0
 40
0.3824507529754335
 50
329.4198174115975917
 51
332.6308402492978757
  0
ARC
  5
1D02B
  8
0
 10
4447.0488856303099965
 20
464.7242378875400277
 30
0.0
 40
0.4133042426317308
 50
356.1287230769771099
 51
357.478849294451777
  0
ARC
  5
1D02C
  8
0
 10
4447.0488856028878217
 20
464.7242378917777046
 30
0.0
 40
0.4133042703760342
 50
350.2436174999705258
 51
354.1308688480424962
  0
ARC
  5
1D02D
  8
0
 10
4447.0488856303099965
 20
464.7242378875400277
 30
0.0
 40
0.4133042426317308
 50
344.3571857056311956
 51
347.123011159234693
  0
ARC
  5
1D02E
  8
0
 10
4447.070773768626168
 20
464.7290413320138782
 30
0.0
 40
0.3912415547352656
 50
338.8426984233558983
 51
358.054565291196127
  0
ARC
  5
1D02F
  8
0
 10
4447.0442415370698654
 20
464.740036374349927
 30
0.0
 40
0.4199543128620151
 50
318.2962591121643072
 51
338.750247020102222
  0
ARC
  5
1D030
  8
0
 10
4446.9956988581398036
 20
464.7832920092953941
 30
0.0
 40
0.4849730919359052
 50
299.5859219639481239
 51
318.2962591121643072
  0
ARC
  5
1D031
  8
0
 10
4446.9599072739683834
 20
464.8541106022451004
 30
0.0
 40
0.5642424754618175
 50
270.0069513688179086
 51
299.1959680468701208
  0
ARC
  5
1D032
  8
0
 10
4447.030825226160232
 20
464.2877197955579049
 30
0.0
 40
0.0385628352073502
 50
175.3107404654763002
 51
185.5302421966702013
  0
ARC
  5
1D033
  8
0
 10
4447.10281958599262
 20
464.1899122388091996
 30
0.0
 40
0.1450392830714195
 50
139.5541454839562903
 51
144.8915537761816097
  0
ARC
  5
1D034
  8
0
 10
4446.9461203403388936
 20
464.2999429574807095
 30
0.0
 40
0.046432516687349
 50
287.3102277737879717
 51
325.0266890184881277
  0
ARC
  5
1D035
  8
0
 10
4442.784550653426777
 20
467.8300540053808731
 30
0.0
 40
5.5183925781692258
 50
319.1680650247723179
 51
320.0369848995122766
  0
ARC
  5
1D036
  8
0
 10
4446.9752795685608362
 20
464.2815815936759236
 30
0.0
 40
0.0391039314121492
 50
5.9411910629517442
 51
16.0536949675669085
  0
ARC
  5
1D037
  8
0
 10
4447.065783569281848
 20
464.2943159105143991
 30
0.0
 40
0.0281048095547657
 50
178.0722384572015073
 51
191.980505174805387
  0
ARC
  5
1D038
  8
0
 10
4444.4639592833209463
 20
466.3428699540476146
 30
0.0
 40
3.293583689221165
 50
319.2732753307271878
 51
321.4091626277318028
  0
ARC
  5
1D039
  8
0
 10
4446.9599356751250525
 20
464.1184174536007276
 30
0.0
 40
0.0227633114290368
 50
270.1008197915668916
 51
315.7769953837869821
  0
ARC
  5
1D03A
  8
0
 10
4447.039367301555103
 20
464.2868896157842755
 30
0.0
 40
0.029189688451666
 50
12.8188949260093406
 51
26.3543352265940385
  0
ARC
  5
1D03B
  8
0
 10
4447.1173704247094065
 20
464.307230676605684
 30
0.0
 40
0.0232817822148844
 50
182.8594535027226016
 51
199.678534102908003
  0
ARC
  5
1D03C
  8
0
 10
4447.107849820604315
 20
464.3002755332761922
 30
0.0
 40
0.0250658861618434
 50
21.2594379657035404
 51
37.2163793732987003
  0
ARC
  5
1D03D
  8
0
 10
4447.1775087368023378
 20
464.3291962733297851
 30
0.0
 40
0.0253050064247109
 50
192.1738205707760017
 51
207.6522438199066016
  0
ARC
  5
1D03E
  8
0
 10
4447.1632141590689571
 20
464.3170708594062717
 30
0.0
 40
0.0276016321383728
 50
28.7047609628065601
 51
43.258149484800299
  0
ARC
  5
1D03F
  8
0
 10
4447.2395536643698506
 20
464.3613051737556248
 30
0.0
 40
0.0314260247998629
 50
203.6419618871767909
 51
216.1324134955908107
  0
ARC
  5
1D040
  8
0
 10
4447.2119989394677759
 20
464.3365955460021155
 30
0.0
 40
0.0340364956675706
 50
35.8623402337008983
 51
47.1563613785833198
  0
ARC
  5
1D041
  8
0
 10
4447.288229772777413
 20
464.3943816274461938
 30
0.0
 40
0.0319664717451618
 50
212.0663843640228947
 51
223.4458784850831137
  0
ARC
  5
1D042
  8
0
 10
4447.2638496350018613
 20
464.3656218363619246
 30
0.0
 40
0.0346951727414881
 50
43.5090127069477788
 51
53.7286276825165672
  0
ARC
  5
1D043
  8
0
 10
4447.3318638089967862
 20
464.431711830339907
 30
0.0
 40
0.0287535230371159
 50
219.1161047853765922
 51
230.5419193479735895
  0
ARC
  5
1D044
  8
0
 10
4447.3192352117093833
 20
464.4082274240406036
 30
0.0
 40
0.0313021026204862
 50
51.8771869501857879
 51
61.8157890258271721
  0
ARC
  5
1D045
  8
0
 10
4447.3798363394789703
 20
464.4869521375467798
 30
0.0
 40
0.0343282829382346
 50
230.0145453998316043
 51
238.1286217586236944
  0
ARC
  5
1D046
  8
0
 10
4447.3619933471936747
 20
464.4494566545907901
 30
0.0
 40
0.0367207336082325
 50
59.5321129229972286
 51
66.7381492385452333
  0
ARC
  5
1D047
  8
0
 10
4447.4085865930746877
 20
464.531067498367122
 30
0.0
 40
0.0374303457405317
 50
237.5119590883076057
 51
244.3967172036350064
  0
ARC
  5
1D048
  8
0
 10
4447.3910697817600521
 20
464.4859195625933808
 30
0.0
 40
0.03920464168044
 50
64.650026520241326
 51
71.0973162738052338
  0
ARC
  5
1D049
  8
0
 10
4447.4314946246004183
 20
464.5777004802541796
 30
0.0
 40
0.0398716542284686
 50
244.6102791537329892
 51
250.5784978019543132
  0
ARC
  5
1D04A
  8
0
 10
4447.4160799674000373
 20
464.5260116733762175
 30
0.0
 40
0.0413100557428162
 50
70.711039508380793
 51
75.4795218169684148
  0
ARC
  5
1D04B
  8
0
 10
4447.4484254996386881
 20
464.6269411702157868
 30
0.0
 40
0.0411464169363042
 50
251.9009373998208901
 51
256.261733036635917
  0
ARC
  5
1D04C
  8
0
 10
4447.4370923694150406
 20
464.5717966442476836
 30
0.0
 40
0.0421506179170796
 50
76.5707181725037032
 51
79.8400946303696202
  0
ARC
  5
1D04D
  8
0
 10
4447.4595397775074161
 20
464.6815654979333772
 30
0.0
 40
0.0500389106339257
 50
258.9313280126767154
 51
261.0969335933631896
  0
ARC
  5
1D04E
  8
0
 10
4447.4489982091936326
 20
464.6042963718199985
 30
0.0
 40
0.0504220201147337
 50
81.7741870468259577
 51
83.3601222795223578
  0
ARC
  5
1D04F
  8
0
 10
4447.4586317345028874
 20
464.6449524047936848
 30
0.0
 40
0.0568230187320036
 50
87.0310569785527832
 51
87.5638464752430821
  0
ARC
  5
1D050
  8
0
 10
4457.4558988009348468
 20
455.7741782882865778
 30
0.0
 40
13.4346024317926904
 50
140.6450458543552031
 51
141.3219865218165978
  0
ARC
  5
1D051
  8
0
 10
4443.1877702248011701
 20
467.3103279205204785
 30
0.0
 40
4.933121871261501
 50
319.9770841568350761
 51
322.3850934369817764
  0
ARC
  5
1D052
  8
0
 10
4445.8871786693689501
 20
465.0799859503987932
 30
0.0
 40
1.463376791394128
 50
318.091889555739499
 51
328.2236366039521727
  0
ARC
  5
1D053
  8
0
 10
4445.7239543642863282
 20
465.1823850773012055
 30
0.0
 40
1.6722050758307629
 50
318.3101432094197207
 51
328.8526382474262846
  0
ARC
  5
1D054
  8
0
 10
4445.7100864794956578
 20
465.1861639654052283
 30
0.0
 40
1.7073314950066141
 50
317.4259636902672241
 51
329.9158610437867765
  0
ARC
  5
1D055
  8
0
 10
4444.4169404089043383
 20
466.0645502482241795
 30
0.0
 40
3.28466389061263
 50
321.4948538692584066
 51
328.3865241445067795
  0
ARC
  5
1D056
  8
0
 10
4445.4673394959363577
 20
465.3007371017890819
 30
0.0
 40
2.0080746621105119
 50
320.430677356630099
 51
331.9525613241494284
  0
ARC
  5
1D057
  8
0
 10
4445.8456604654556941
 20
465.0262820435876279
 30
0.0
 40
1.5627373309657779
 50
320.1697324498563262
 51
335.2650349233938982
  0
ARC
  5
1D058
  8
0
 10
4445.7825897279044511
 20
465.0404131945398944
 30
0.0
 40
1.641032527765919
 50
322.0297291444845769
 51
336.6314880977848247
  0
ARC
  5
1D059
  8
0
 10
4445.9658247463621592
 20
464.9238081496494033
 30
0.0
 40
1.4425580379264371
 50
322.0740118887018184
 51
339.1135468962226014
  0
ARC
  5
1D05A
  8
0
 10
4445.927208892841918
 20
464.9248676998657857
 30
0.0
 40
1.49465368831324
 50
324.0222629928658193
 51
340.780778688552914
  0
ARC
  5
1D05B
  8
0
 10
4446.133811864038762
 20
464.8221032045576067
 30
0.0
 40
1.2808014736631921
 50
323.026384332733528
 51
343.4749632807208855
  0
ARC
  5
1D05C
  8
0
 10
4446.2485075533477357
 20
464.760756574009406
 30
0.0
 40
1.1661330521789699
 50
323.3545811421154781
 51
346.1247008181305205
  0
ARC
  5
1D05D
  8
0
 10
4446.2723170729350386
 20
464.7388331725294961
 30
0.0
 40
1.1458376150468941
 50
324.5874828495661859
 51
347.8318827949224783
  0
ARC
  5
1D05E
  8
0
 10
4446.3059487715408977
 20
464.7227106362394125
 30
0.0
 40
1.1201535615515781
 50
324.6111165472892139
 51
349.6440806940062203
  0
ARC
  5
1D05F
  8
0
 10
4446.2457791202577937
 20
464.7284757548430889
 30
0.0
 40
1.1874944627377719
 50
328.1363160335404245
 51
350.8723260719410177
  0
ARC
  5
1D060
  8
0
 10
4446.2670657264552574
 20
464.7139015571651157
 30
0.0
 40
1.172156053179821
 50
328.5612215929024842
 51
352.7020089604201871
  0
ARC
  5
1D061
  8
0
 10
4446.3044200793347045
 20
464.6855927653751905
 30
0.0
 40
1.1385131164964979
 50
331.0496387633601785
 51
355.0306690323267276
  0
ARC
  5
1D062
  8
0
 10
4446.3264042116543351
 20
464.6742756261089085
 30
0.0
 40
1.1221628968316291
 50
331.3337636845532188
 51
356.8593157380560115
  0
ARC
  5
1D063
  8
0
 10
4446.2422127393983828
 20
464.676192357171999
 30
0.0
 40
1.210385151940278
 50
335.42195591250902
 51
357.913742557130206
  0
ARC
  5
1D064
  8
0
 10
4446.2817194295839727
 20
464.6577477218845047
 30
0.0
 40
1.1744982610404231
 50
335.838780303860176
 51
359.826913145917672
  0
ARC
  5
1D065
  8
0
 10
4445.4862515427621474
 20
464.7293405071235952
 30
0.0
 40
1.9743400606232431
 50
350.3696108061610062
 51
358.625304864993609
  0
ARC
  5
1D066
  8
0
 10
4446.6026551903350992
 20
464.5399058390373739
 30
0.0
 40
0.8419785468891795
 50
337.0250964760512034
 51
350.3696108061610062
  0
ARC
  5
1D067
  8
0
 10
4447.2931735524343821
 20
464.2681029894425251
 30
0.0
 40
0.1063090781110868
 50
328.3525366476985141
 51
342.722527968797408
  0
ARC
  5
1D068
  8
0
 10
4446.5814045814677229
 20
464.5410775059302182
 30
0.0
 40
0.868432980447038
 50
339.4706522599552727
 51
350.6645894461963735
  0
ARC
  5
1D069
  8
0
 10
4445.52986068219343
 20
464.6968126047374881
 30
0.0
 40
1.931386193344856
 50
351.1660141849064871
 51
359.9857899519939792
  0
ARC
  5
1D06A
  8
0
 10
4449.2147799993726949
 20
463.7175775996274751
 30
0.0
 40
1.8852523960769709
 50
162.5059210394396132
 51
163.3930564340415117
  0
ARC
  5
1D06B
  8
0
 10
4446.2957533297158079
 20
464.5957556055686268
 30
0.0
 40
1.163435252783505
 50
344.472250756983783
 51
358.6504102235142
  0
ARC
  5
1D06C
  8
0
 10
4447.1907661772484062
 20
464.346830990727085
 30
0.0
 40
0.2393804728530403
 50
338.7732080004806221
 51
344.5399321469171241
  0
ARC
  5
1D06D
  8
0
 10
4446.4131260511094297
 20
464.5619061399000884
 30
0.0
 40
1.046214709591448
 50
344.5399321469171241
 51
358.3705222456626984
  0
ARC
  5
1D06E
  8
0
 10
4440.7429696216722732
 20
464.7232074722265907
 30
0.0
 40
6.718664978576026
 50
358.3705222456626984
 51
359.8208250786614144
  0
ARC
  5
1D06F
  8
0
 10
4446.4368422642519363
 20
464.539302853259187
 30
0.0
 40
1.0222032759249149
 50
346.6031067975554265
 51
352.3032643380349782
  0
ARC
  5
1D070
  8
0
 10
4446.3064775921520777
 20
464.5569212854242096
 30
0.0
 40
1.153753102543881
 50
352.3032643380349782
 51
1.012835622304292
  0
ARC
  5
1D071
  8
0
 10
4446.3360799256488463
 20
464.5425411445100963
 30
0.0
 40
1.1249506137700429
 50
348.1014401612251845
 51
359.296707597433624
  0
ARC
  5
1D072
  8
0
 10
4446.1115826603236201
 20
464.5406215278949276
 30
0.0
 40
1.3505067799394139
 50
352.3117889736377037
 51
358.7930591502732227
  0
ARC
  5
1D073
  8
0
 10
4446.552853855567264
 20
464.4862390240102741
 30
0.0
 40
0.9080641034713162
 50
352.3047881811223192
 51
358.0471581302252275
  0
ARC
  5
1D074
  8
0
 10
4468.9037799577226906
 20
463.7241456509348154
 30
0.0
 40
21.4558506686204495
 50
177.9404231156590015
 51
178.0471581302251991
  0
ARC
  5
1D075
  8
0
 10
4446.185006554784195
 20
464.4883419920449228
 30
0.0
 40
1.2766639145367811
 50
356.3819208472057767
 51
358.0444220168204197
  0
ARC
  5
1D076
  8
0
 10
4448.1947268485246241
 20
464.4277361155283756
 30
0.0
 40
0.7339977531478697
 50
176.9193452917716911
 51
178.6697268202694033
  0
ARC
  5
1D077
  8
0
 10
4447.3913202868943699
 20
464.4187208605857222
 30
0.0
 40
0.0692915776881697
 50
348.5171766729102956
 51
357.235679984225726
  0
ARC
  5
1D078
  8
0
 10
4435.0727436264587595
 20
464.9978589994184972
 30
0.0
 40
12.4014742943565501
 50
357.3079068697844036
 51
357.4346908740380968
  0
ARC
  5
1D079
  8
0
 10
4447.4719057953507217
 20
464.4067944197994962
 30
0.0
 40
0.0128176487121866
 50
175.6009698900336105
 51
188.3786753284529141
  0
ARC
  5
1D07A
  8
0
 10
4447.4133448748461888
 20
464.3685901731744252
 30
0.0
 40
0.0395923462696366
 50
335.821145944569821
 51
354.2829987002252778
  0
ARC
  5
1D07B
  8
0
 10
4447.4793096991388666
 20
464.3542628579173197
 30
0.0
 40
0.0299055915613548
 50
169.0418893932580033
 51
183.6218512159682916
  0
ARC
  5
1D07C
  8
0
 10
4447.4043471297618453
 20
464.3187238792216931
 30
0.0
 40
0.0335126583372801
 50
323.342613603390987
 51
345.9697879847839772
  0
ARC
  5
1D07D
  8
0
 10
4447.4379510250073508
 20
464.3005929084354761
 30
0.0
 40
0.0069766243404731
 50
164.4490624907053871
 51
195.6076250598422916
  0
ARC
  5
1D07E
  8
0
 10
4447.3901183399239017
 20
464.2707425484306896
 30
0.0
 40
0.0260349084134632
 50
316.1682411384737179
 51
336.0182625041122719
  0
ARC
  5
1D07F
  8
0
 10
4447.411471399454058
 20
464.2551380819159021
 30
0.0
 40
0.0035355760227535
 50
159.2410208534734011
 51
223.32377940612011
  0
ARC
  5
1D080
  8
0
 10
4447.3754900235880996
 20
464.2165808662658151
 30
0.0
 40
0.0092248070079829
 50
285.6307812109434963
 51
332.5155278963093792
  0
ARC
  5
1D081
  8
0
 10
4447.3842343095502656
 20
464.2097102801175765
 30
0.0
 40
0.0065745545031192
 50
166.3830496706727047
 51
197.8298244799578924
  0
ARC
  5
1D082
  8
0
 10
4447.325621061381753
 20
464.1915490143758234
 30
0.0
 40
0.0312861777469858
 50
306.0711212578937079
 51
332.327195988000085
  0
ARC
  5
1D083
  8
0
 10
4447.3591268071477316
 20
464.1635990171678827
 30
0.0
 40
0.0186037135212053
 50
150.5208578732843137
 51
167.5776859084668047
  0
ARC
  5
1D084
  8
0
 10
4447.3426314173393621
 20
464.1672324991582173
 30
0.0
 40
0.0017128853503662
 50
167.5776859084953969
 51
325.4391410734028796
  0
ARC
  5
1D085
  8
0
 10
4447.284133192819354
 20
464.1561436435169981
 30
0.0
 40
0.0336175589277455
 50
302.1264390798452837
 51
323.1165870840109733
  0
ARC
  5
1D086
  8
0
 10
4447.313613644320867
 20
464.1247014240253748
 30
0.0
 40
0.0162351885904055
 50
142.9047211068921968
 51
174.3971507343169094
  0
ARC
  5
1D087
  8
0
 10
4447.2914354172471576
 20
464.1542246407415746
 30
0.0
 40
0.0285794875351184
 50
282.1611280963776949
 51
291.7174031215359946
  0
ARC
  5
1D088
  8
0
 10
4447.2482941920479789
 20
464.1195086106670828
 30
0.0
 40
0.0253779217349852
 50
286.5497107164521822
 51
317.9771836843713118
  0
ARC
  5
1D089
  8
0
 10
4447.2581344343088858
 20
464.0989886866352094
 30
0.0
 40
0.0046162957279494
 50
145.591836779548288
 51
235.5494506002758897
  0
ARC
  5
1D08A
  8
0
 10
4447.2033050137815735
 20
464.0911861103173806
 30
0.0
 40
0.0233680883299676
 50
283.6436862862756243
 51
312.6687992234514013
  0
ARC
  5
1D08B
  8
0
 10
4447.2086616129181493
 20
464.072153732894094
 30
0.0
 40
0.0036795856954193
 50
132.4913396210334042
 51
272.4226567482941164
  0
ARC
  5
1D08C
  8
0
 10
4447.1543183353351196
 20
464.0809637416051032
 30
0.0
 40
0.0339575866584657
 50
280.8345816513992759
 51
331.4549682151024967
  0
ARC
  5
1D08D
  8
0
 10
4447.1597357716227634
 20
464.0504389086266883
 30
0.0
 40
0.0029877971547685
 50
153.5707684043811128
 51
288.8576984651824091
  0
ARC
  5
1D08E
  8
0
 10
4447.1090397074967768
 20
464.0641851767992989
 30
0.0
 40
0.03271161492579
 50
267.4620708053822113
 51
327.8998960068819883
  0
ARC
  5
1D08F
  8
0
 10
4447.1075407059806821
 20
464.0356191527516785
 30
0.0
 40
0.0041138150023038
 50
158.1551607126648946
 51
270.7034629123775176
  0
ARC
  5
1D090
  8
0
 10
4447.0539088203995561
 20
464.0449463082185275
 30
0.0
 40
0.0264753635473693
 50
261.0209803264996253
 51
327.6094924755710167
  0
ARC
  5
1D091
  8
0
 10
4447.0506066017469493
 20
464.0238081376555215
 30
0.0
 40
0.0050809802417723
 50
162.6348641637223977
 51
260.599895585599711
  0
ARC
  5
1D092
  8
0
 10
4446.9972188106175963
 20
464.0331945032788781
 30
0.0
 40
0.0214722054474589
 50
250.293365162929291
 51
327.2251321754657738
  0
ARC
  5
1D093
  8
0
 10
4446.990483553586273
 20
464.0169943400476882
 30
0.0
 40
0.0040461189118461
 50
140.4993365374932921
 51
262.8264140936732929
  0
ARC
  5
1D094
  8
0
 10
4449.1027243712160271
 20
464.5315530610221231
 30
0.0
 40
1.641781000864615
 50
178.1600833974287923
 51
180.0984166725511955
  0
ARC
  5
1D095
  8
0
 10
4451.6418666239751474
 20
464.4090914193441222
 30
0.0
 40
4.1860315321757771
 50
177.2395847473462993
 51
177.819591725398908
  0
ARC
  5
1D096
  8
0
 10
4446.9599361175432932
 20
464.0826038505919087
 30
0.0
 40
0.0177830464352986
 50
270.1276296680587166
 51
315.7928921559511082
  0
ARC
  5
1D097
  8
0
 10
4446.9599361175432932
 20
464.0375900157230262
 30
0.0
 40
0.0098815102467992
 50
270.2296864000787764
 51
318.8058384497185784
  0
ARC
  5
1D098
  8
0
 10
4446.9599361175432932
 20
464.1430417074938077
 30
0.0
 40
0.007592575526574
 50
270.2989305441531087
 51
317.0365302858605219
  0
ARC
  5
1D099
  8
0
 10
4446.9599361175432932
 20
464.176633863592599
 30
0.0
 40
0.0103419274148839
 50
270.219460831200422
 51
320.3936228826444221
  0
ARC
  5
1D09A
  8
0
 10
4447.9849637839270144
 20
470.1008729966526971
 30
0.0
 40
0.0197746362915226
 50
270.0
 51
312.568377553316509
  0
LINE
  5
1D09B
  8
0
 10
4447.9983407242880276
 20
470.0863095593168737
 30
0.0
 11
4448.0945379134118411
 21
470.1738422665995927
 31
0.0
  0
ARC
  5
1D09C
  8
0
 10
4448.081917701922066
 20
470.1879510955309911
 30
0.0
 40
0.0189295624389974
 50
311.816644154799576
 51
1.367628404124964
  0
LINE
  5
1D09D
  8
0
 10
4448.1008418719757174
 20
470.1884028940610847
 30
0.0
 11
4448.1008418719757174
 21
470.4484991477610833
 31
0.0
  0
ARC
  5
1D09E
  8
0
 10
4448.0813838335443506
 20
470.4487254893722934
 30
0.0
 40
0.019459354824268
 50
359.3335487428208239
 51
90.2742485188627057
  0
ARC
  5
1D09F
  8
0
 10
4447.7475817505992381
 20
469.9038692461662095
 30
0.0
 40
0.0196850616969755
 50
269.9700366774494
 51
314.999983982996298
  0
LINE
  5
1D0A0
  8
0
 10
4447.7615011873222102
 20
469.8899498016610892
 30
0.0
 11
4447.828710134512221
 21
469.9571587112752127
 31
0.0
  0
ARC
  5
1D0A1
  8
0
 10
4447.8148562991736981
 20
469.9710342990401841
 30
0.0
 40
0.019607669147185
 50
314.9550541665432206
 51
0.1281516695542569
  0
LINE
  5
1D0A2
  8
0
 10
4447.8344639192755494
 20
469.9710781548611749
 30
0.0
 11
4447.8344639192755494
 21
470.0614991477605145
 31
0.0
  0
ARC
  5
1D0A3
  8
0
 10
4447.854103282142205
 20
470.061478872221187
 30
0.0
 40
0.0196393733319942
 50
92.578548855051352
 51
179.940848263609297
  0
LINE
  5
1D0A4
  8
0
 10
4447.4617898156948286
 20
469.8841841871611109
 30
0.0
 11
4447.4617898156948286
 21
464.4427921614719139
 31
0.0
  0
LINE
  5
1D0A5
  8
0
 10
4447.4600233544188086
 20
464.681974797039004
 30
0.0
 11
4447.4591861961998802
 21
464.6820760229310281
 31
0.0
  0
LINE
  5
1D0A6
  8
0
 10
4451.7475713787271161
 20
469.8841841871611109
 30
0.0
 11
4450.1723799271267126
 21
469.8841841871611109
 31
0.0
  0
ARC
  5
1D0A7
  8
0
 10
4450.1723799271267126
 20
469.9038941178652067
 30
0.0
 40
0.0197099307040638
 50
225.0299796302610957
 51
270.0
  0
LINE
  5
1D0A8
  8
0
 10
4450.1584501958313922
 20
469.8899498016610892
 30
0.0
 11
4450.0912412766274429
 21
469.9571587208607184
 31
0.0
  0
ARC
  5
1D0A9
  8
0
 10
4450.1050938614553161
 20
469.9710335000918917
 30
0.0
 40
0.0196062134309687
 50
179.8695040206420117
 51
225.0458624705042041
  0
LINE
  5
1D0AA
  8
0
 10
4450.085487698875113
 20
469.9710781548611749
 30
0.0
 11
4450.0854876988760225
 21
470.0614991477610829
 31
0.0
  0
ARC
  5
1D0AB
  8
0
 10
4450.0658140061887025
 20
470.0614190789808049
 30
0.0
 40
0.0196738556199338
 50
0.2331833010114529
 51
56.598633035671881
  0
ARC
  5
1D0AC
  8
0
 10
4450.0657825641874297
 20
470.061348141209578
 30
0.0
 40
0.0197503899265044
 50
56.635772779559197
 51
89.4721590011876344
  0
LINE
  5
1D0AD
  8
0
 10
4449.9349875992265879
 20
470.0810983603611248
 30
0.0
 11
4451.9849637065262868
 21
470.0810983603611248
 31
0.0
  0
LINE
  5
1D0AE
  8
0
 10
4452.0812906135261073
 20
470.4681841871611141
 30
0.0
 11
4449.8386606922258579
 21
470.4681846212807272
 31
0.0
  0
ARC
  5
1D0AF
  8
0
 10
4449.8386605222149228
 20
470.4484999869250146
 30
0.0
 40
0.0196846343564418
 50
89.9995051501057333
 51
180.0024425421626972
  0
LINE
  5
1D0B0
  8
0
 10
4449.818975887877059
 20
470.4484991477610833
 30
0.0
 11
4449.818975887877059
 21
470.1884028941254883
 31
0.0
  0
ARC
  5
1D0B1
  8
0
 10
4449.8387064412590917
 20
470.1884228009665208
 30
0.0
 40
0.0197305634248397
 50
180.0578076834952128
 51
227.6406446199356992
  0
LINE
  5
1D0B2
  8
0
 10
4449.8254124143813897
 20
470.173843226814995
 30
0.0
 11
4449.9216106590411073
 21
470.086309559261224
 31
0.0
  0
ARC
  5
1D0B3
  8
0
 10
4449.9351041883128346
 20
470.1011722758055953
 30
0.0
 40
0.0200742540157482
 50
227.7643037996737121
 51
269.6672304674791008
  0
LINE
  5
1D0B4
  8
0
 10
4451.3435128436267405
 20
469.8641841871610723
 30
0.0
 11
4450.5764323458270155
 21
469.8641841871610723
 31
0.0
  0
ARC
  5
1D0B5
  8
0
 10
4450.5764321796941658
 20
469.8441845882398979
 30
0.0
 40
0.0199995989219072
 50
89.999524056939805
 51
180.0011490291331882
  0
ARC
  5
1D0B6
  8
0
 10
4451.3435189600259037
 20
469.8441841871610904
 30
0.0
 40
0.0199999999999996
 50
0.0
 51
90.0
  0
ARC
  5
1D0B7
  8
0
 10
4451.3049756529262595
 20
469.8541841871610814
 30
0.0
 40
0.0300000000000003
 50
90.0
 51
160.5287793655286919
  0
ARC
  5
1D0B8
  8
0
 10
4450.6149756529266597
 20
469.8541841871610814
 30
0.0
 40
0.0299999999999963
 50
19.4712206344589909
 51
90.0
  0
LINE
  5
1D0B9
  8
0
 10
4451.3635190373770456
 20
469.8441844042209254
 30
0.0
 11
4451.3635190373770456
 21
469.0378379475209272
 31
0.0
  0
ARC
  5
1D0BA
  8
0
 10
4451.4816292735758907
 20
469.0378379475209272
 30
0.0
 40
0.1181102362000019
 50
180.0
 51
270.0000060638042783
  0
LINE
  5
1D0BB
  8
0
 10
4451.4816292860768954
 20
468.9197277113208884
 30
0.0
 11
4451.8556451791755535
 21
468.919727750535003
 31
0.0
  0
LINE
  5
1D0BC
  8
0
 10
4451.8556451791755535
 20
468.1126410971208998
 30
0.0
 11
4453.6998255189773772
 21
468.1161158502708872
 31
0.0
  0
LINE
  5
1D0BD
  8
0
 10
4453.6998255189773772
 20
468.9154071888709154
 30
0.0
 11
4453.393225164388241
 21
468.9161254882549201
 31
0.0
  0
LINE
  5
1D0BE
  8
0
 10
4453.393225164388241
 20
468.9161254882549201
 30
0.0
 11
4451.8556451791755535
 21
468.919727750535003
 31
0.0
  0
ARC
  5
1D0BF
  8
0
 10
4452.1077899049596454
 20
467.2093976600922929
 30
0.0
 40
1.71617213293269
 50
94.829994240395294
 51
98.4486371635648538
  0
ARC
  5
1D0C0
  8
0
 10
4452.1599409217524226
 20
467.4438736707509747
 30
0.0
 40
1.478300322126052
 50
93.6146280205435062
 51
101.8787714863034068
  0
ARC
  5
1D0C1
  8
0
 10
4452.0339993337520355
 20
468.4865695943836954
 30
0.0
 40
0.4186788190119322
 50
97.3890564379844648
 51
115.2135194223525048
  0
ARC
  5
1D0C2
  8
0
 10
4452.2839593987609987
 20
466.5591013708087758
 30
0.0
 40
2.3622872638872932
 50
92.5905821546911341
 51
97.3890564379844648
  0
ARC
  5
1D0C3
  8
0
 10
4452.1355502160977267
 20
468.2788379386145721
 30
0.0
 40
0.6251289924814833
 50
95.0025953861954235
 51
116.5997795621020003
  0
ARC
  5
1D0C4
  8
0
 10
4452.4177964772061387
 20
465.0544306626765092
 30
0.0
 40
3.861865811104745
 50
91.5084162992618246
 51
95.0025953861954235
  0
ARC
  5
1D0C5
  8
0
 10
4452.5799827439259388
 20
463.4390775272489122
 30
0.0
 40
5.48223345269282
 50
91.8524413470676677
 51
92.7585580009817221
  0
ARC
  5
1D0C6
  8
0
 10
4452.1971868036398519
 20
468.1484216287078084
 30
0.0
 40
0.7497792008703686
 50
97.377650580897992
 51
117.0985860302902068
  0
ARC
  5
1D0C7
  8
0
 10
4452.5613601034592648
 20
465.3358532746051992
 30
0.0
 40
3.5858262630327542
 50
93.6380681461295552
 51
97.377650580897992
  0
ARC
  5
1D0C8
  8
0
 10
4452.5381713478382153
 20
464.9766995650523995
 30
0.0
 40
3.9430523239669242
 50
91.5153107730363331
 51
92.97062893091109
  0
ARC
  5
1D0C9
  8
0
 10
4452.3164773155613148
 20
467.9733190572961234
 30
0.0
 40
0.9232179098075507
 50
96.0282417936739137
 51
119.9443473740471973
  0
ARC
  5
1D0CA
  8
0
 10
4453.0163424937782111
 20
460.4953365996020125
 30
0.0
 40
8.4338210351395269
 50
92.9444448958318361
 51
95.4213427821599538
  0
ARC
  5
1D0CB
  8
0
 10
4452.3982548250423861
 20
467.8689448009677108
 30
0.0
 40
1.026485065716344
 50
95.3453051035616426
 51
121.9115450731135013
  0
ARC
  5
1D0CC
  8
0
 10
4452.8442559257473476
 20
464.2211610285497159
 30
0.0
 40
4.701110282188262
 50
92.4746536298404038
 51
96.6158772891123903
  0
ARC
  5
1D0CD
  8
0
 10
4452.4644703195135662
 20
467.7982905537895135
 30
0.0
 40
1.085872090794606
 50
96.6422657769540052
 51
124.1027338707069987
  0
ARC
  5
1D0CE
  8
0
 10
4453.0001052410416378
 20
463.9850116856546265
 30
0.0
 40
4.9363500367974931
 50
92.2654233899748561
 51
97.6980666695776847
  0
ARC
  5
1D0CF
  8
0
 10
4452.6507565638021333
 20
467.2835457660914926
 30
0.0
 40
1.606126153988056
 50
101.0427972719363936
 51
119.6729912850724986
  0
ARC
  5
1D0D0
  8
0
 10
4452.8707890863006469
 20
466.1560735082618976
 30
0.0
 40
2.754868075889044
 50
93.339118089666286
 51
101.0427972719363936
  0
ARC
  5
1D0D1
  8
0
 10
4461.0206279622789225
 20
352.3028509423294281
 30
0.0
 40
116.8991750472457056
 50
93.999355245753847
 51
94.0765639214273648
  0
ARC
  5
1D0D2
  8
0
 10
4452.8393198236271928
 20
466.8830883953801845
 30
0.0
 40
2.0111293979495581
 50
102.449337937176395
 51
119.2824652468267033
  0
ARC
  5
1D0D3
  8
0
 10
4452.9151553712354143
 20
466.5395792183867911
 30
0.0
 40
2.362909990023347
 50
94.8721326831806664
 51
102.449337937176395
  0
ARC
  5
1D0D4
  8
0
 10
4453.7446841286346171
 20
454.9189931762751939
 30
0.0
 40
14.01287984699551
 50
92.655696521754237
 51
94.2161456654410898
  0
ARC
  5
1D0D5
  8
0
 10
4452.9337051503880502
 20
466.7317717038981755
 30
0.0
 40
2.1614904047601522
 50
102.1055988059093949
 51
119.9178437161658053
  0
ARC
  5
1D0D6
  8
0
 10
4453.1847776425547636
 20
465.1764859926946087
 30
0.0
 40
3.7357155166622049
 50
93.2004025326019843
 51
100.8681504042869932
  0
ARC
  5
1D0D7
  8
0
 10
4452.7102720825150755
 20
476.66591796384688
 30
0.0
 40
7.7640988849878321
 50
271.9629541309532783
 51
273.5364163025819835
  0
ARC
  5
1D0D8
  8
0
 10
4453.146667923869245
 20
466.288980641805324
 30
0.0
 40
2.6109506637519702
 50
93.3907826754208941
 51
119.6344533967808985
  0
ARC
  5
1D0D9
  8
0
 10
4456.3877820659263307
 20
407.2076157945543855
 30
0.0
 40
61.7811260795241566
 50
92.7782388681893053
 51
93.150610103754488
  0
ARC
  5
1D0DA
  8
0
 10
4453.2916232238421799
 20
465.9689168983745731
 30
0.0
 40
2.9321117929488252
 50
95.8880792198501695
 51
119.3236198141185014
  0
ARC
  5
1D0DB
  8
0
 10
4453.6600836087018251
 20
460.7640512570494025
 30
0.0
 40
8.1490363758534965
 50
89.7205739857204492
 51
94.7108141497651275
  0
ARC
  5
1D0DC
  8
0
 10
4450.9972138070097571
 20
470.986954895772385
 30
0.0
 40
2.6291523440968079
 50
290.5408107731838072
 51
296.0743377962648992
  0
ARC
  5
1D0DD
  8
0
 10
4453.3452431951673134
 20
466.0657178466601067
 30
0.0
 40
2.823785592196177
 50
100.7259733943376006
 51
114.9784318897218043
  0
ARC
  5
1D0DE
  8
0
 10
4453.6861278771793877
 20
463.5314712847487044
 30
0.0
 40
5.378935836800216
 50
89.8540942044596846
 51
99.2694396956993614
  0
ARC
  5
1D0DF
  8
0
 10
4451.4729636969559579
 20
470.0599682153177241
 30
0.0
 40
1.621694684695236
 50
289.0488366796319042
 51
295.4840330458013113
  0
ARC
  5
1D0E0
  8
0
 10
4453.4327708835189696
 20
465.9481985247110742
 30
0.0
 40
2.9332470489708888
 50
96.8431380854100183
 51
115.4840330458012971
  0
ARC
  5
1D0E1
  8
0
 10
4453.8943077218200415
 20
462.489557801796991
 30
0.0
 40
6.4224073065786209
 50
91.7352859429220047
 51
97.2548253803874019
  0
ARC
  5
1D0E2
  8
0
 10
4453.6523115797790524
 20
465.3363417520973826
 30
0.0
 40
3.5560502580703188
 50
102.7604003711969938
 51
115.9670374424990058
  0
ARC
  5
1D0E3
  8
0
 10
4453.9009597792155546
 20
463.5489381675350842
 30
0.0
 40
5.3563942230179258
 50
92.1519801737000961
 51
101.1312362062318044
  0
ARC
  5
1D0E4
  8
0
 10
4453.6750398038111598
 20
465.3818579627742906
 30
0.0
 40
3.494031872025618
 50
104.754018240533
 51
115.3068882209448986
  0
ARC
  5
1D0E5
  8
0
 10
4453.8248033807140018
 20
464.6607378205295049
 30
0.0
 40
4.229693720386944
 50
91.6932068507538958
 51
104.2281259990009943
  0
ARC
  5
1D0E6
  8
0
 10
4453.8768619476149979
 20
464.74559617437518
 30
0.0
 40
4.1334608378885642
 50
103.0359509871657053
 51
113.202974438814806
  0
ARC
  5
1D0E7
  8
0
 10
4453.9911955772950023
 20
464.0405868573751036
 30
0.0
 40
4.8463246572205234
 50
93.4468075268937639
 51
102.4727585744845015
  0
ARC
  5
1D0E8
  8
0
 10
4454.3655869649892338
 20
463.2158611346624184
 30
0.0
 40
5.7146203565175497
 50
104.5869110755814972
 51
111.1401980507363021
  0
ARC
  5
1D0E9
  8
0
 10
4453.8875953963370193
 20
464.8831963866567776
 30
0.0
 40
3.9808760954855291
 50
92.7035291952879561
 51
103.9727774499018977
  0
ARC
  5
1D0EA
  8
0
 10
4454.1620172661532706
 20
463.8146161720840723
 30
0.0
 40
5.0536633508392459
 50
95.2474197736920303
 51
110.4234393848221032
  0
ARC
  5
1D0EB
  8
0
 10
4454.1235696970870777
 20
463.8566008804061767
 30
0.0
 40
4.9852455871586674
 50
94.8760052973707673
 51
109.6620203693072
  0
ARC
  5
1D0EC
  8
0
 10
4454.2074794357404244
 20
463.8328454505181071
 30
0.0
 40
5.0033635727664487
 50
95.8233955652832066
 51
109.3419137277614936
  0
ARC
  5
1D0ED
  8
0
 10
4452.1346715888403196
 20
470.6830788937140255
 30
0.0
 40
2.1832325545043711
 50
282.7276125288183835
 51
287.7207354397444874
  0
ARC
  5
1D0EE
  8
0
 10
4454.1205679627501013
 20
464.3051783383266979
 30
0.0
 40
4.4967820773516038
 50
95.368745639909676
 51
107.0884500530484047
  0
ARC
  5
1D0EF
  8
0
 10
4454.3844839844332455
 20
463.3155137641344936
 30
0.0
 40
5.4911270501208467
 50
97.1625367914253673
 51
107.1675811700174989
  0
ARC
  5
1D0F0
  8
0
 10
4454.4405401022322621
 20
462.7850846241278759
 30
0.0
 40
5.9929056074353841
 50
97.0998323620901402
 51
105.4497442119240986
  0
ARC
  5
1D0F1
  8
0
 10
4454.5632535166259913
 20
462.4105913609105869
 30
0.0
 40
6.3535153462871161
 50
97.8105315864997635
 51
104.4529925305329954
  0
ARC
  5
1D0F2
  8
0
 10
4454.7689147396513363
 20
460.192088447286892
 30
0.0
 40
8.5420800264768921
 50
97.1897420420602032
 51
101.7487892644685985
  0
ARC
  5
1D0F3
  8
0
 10
4454.5860496789573517
 20
462.0526187183922957
 30
0.0
 40
6.6476653946915789
 50
97.6611144448109485
 51
102.4141480452180986
  0
ARC
  5
1D0F4
  8
0
 10
4453.9253903624558006
 20
465.1860665257372034
 30
0.0
 40
3.4252022843293699
 50
93.7759151628635834
 51
101.7517444857243021
  0
ARC
  5
1D0F5
  8
0
 10
4454.2876957161379323
 20
462.9137531336995721
 30
0.0
 40
5.6927336437344511
 50
95.9273167456298523
 51
99.2480853135343608
  0
ARC
  5
1D0F6
  8
0
 10
4454.0708058750333294
 20
464.6150346025261797
 30
0.0
 40
3.9502053186082482
 50
97.5951692979790408
 51
98.4297998521963677
  0
ARC
  5
1D0F7
  8
0
 10
4453.6768675966768569
 20
467.5693646862724222
 30
0.0
 40
0.9697265632936835
 50
88.6434165960640144
 51
97.5951692979790408
  0
ARC
  5
1D0F8
  8
0
 10
4452.1077899049596454
 20
469.8221253792494849
 30
0.0
 40
1.71617213293269
 50
261.551362836435203
 51
264.8701913538753843
  0
ARC
  5
1D0F9
  8
0
 10
4452.1599409217524226
 20
469.5876493685908031
 30
0.0
 40
1.478300322126052
 50
258.1212285136966216
 51
265.9622820595075723
  0
ARC
  5
1D0FA
  8
0
 10
4452.0339993337520355
 20
468.5449534449580256
 30
0.0
 40
0.4186788190119322
 50
244.7864805776474952
 51
262.6109435620155068
  0
ARC
  5
1D0FB
  8
0
 10
4452.2839593987609987
 20
470.4724216685328884
 30
0.0
 40
2.3622872638872932
 50
262.6109435620155068
 51
267.0708932646143126
  0
ARC
  5
1D0FC
  8
0
 10
4452.1355502160977267
 20
468.7526851007273194
 30
0.0
 40
0.6251289924814833
 50
243.4002204378980139
 51
264.9974046138045196
  0
ARC
  5
1D0FD
  8
0
 10
4452.4177964772061387
 20
471.9770923766652118
 30
0.0
 40
3.861865811104745
 50
264.9974046138045196
 51
268.4915837007382038
  0
ARC
  5
1D0FE
  8
0
 10
4452.5799827439259388
 20
473.5924455120929792
 30
0.0
 40
5.48223345269282
 50
267.2414419990182068
 51
267.9735446225723763
  0
ARC
  5
1D0FF
  8
0
 10
4452.1971868036398519
 20
468.8831014106340263
 30
0.0
 40
0.7497792008703686
 50
242.9014139697096937
 51
262.6223494191020222
  0
ARC
  5
1D100
  8
0
 10
4452.5613601034592648
 20
471.6956697647366923
 30
0.0
 40
3.5858262630327542
 50
262.6223494191020222
 51
266.3619318538703737
  0
ARC
  5
1D101
  8
0
 10
4452.5381713478382153
 20
472.054823474289492
 30
0.0
 40
3.9430523239669242
 50
267.0293710690888815
 51
268.2100985523522922
  0
ARC
  5
1D102
  8
0
 10
4452.3164773155613148
 20
469.0582039820458249
 30
0.0
 40
0.9232179098075507
 50
240.0556526259528027
 51
263.9717582063261148
  0
ARC
  5
1D103
  8
0
 10
4453.0163424937782111
 20
476.536186439739879
 30
0.0
 40
8.4338210351395269
 50
264.5786572178399751
 51
266.9909002202401211
  0
ARC
  5
1D104
  8
0
 10
4452.3982548250423861
 20
469.1625782383741239
 30
0.0
 40
1.026485065716344
 50
238.0884549268864987
 51
264.6546948964382864
  0
ARC
  5
1D105
  8
0
 10
4452.8442559257473476
 20
472.8103620107921756
 30
0.0
 40
4.701110282188262
 50
263.3841227108875955
 51
267.3972141596717051
  0
ARC
  5
1D106
  8
0
 10
4452.4644703195135662
 20
469.2332324855523211
 30
0.0
 40
1.085872090794606
 50
235.8972661292930013
 51
263.357734223046009
  0
ARC
  5
1D107
  8
0
 10
4453.0001052410416378
 20
473.0465113536872082
 30
0.0
 40
4.9363500367974931
 50
262.3019333304222869
 51
267.6222096861661726
  0
ARC
  5
1D108
  8
0
 10
4452.6507565638021333
 20
469.7479772732502852
 30
0.0
 40
1.606126153988056
 50
240.3270087149275014
 51
258.9572027280635211
  0
ARC
  5
1D109
  8
0
 10
4452.8707890863006469
 20
470.8754495310798802
 30
0.0
 40
2.754868075889044
 50
258.9572027280635211
 51
266.6608819103337282
  0
ARC
  5
1D10A
  8
0
 10
4461.0206279622789225
 20
584.7286720970123497
 30
0.0
 40
116.8991750472457056
 50
265.9234360785727063
 51
265.9980333807808961
  0
ARC
  5
1D10B
  8
0
 10
4452.8393198236271928
 20
470.1484346439615933
 30
0.0
 40
2.0111293979495581
 50
240.7175347531731973
 51
257.5506620628236192
  0
ARC
  5
1D10C
  8
0
 10
4452.9151553712354143
 20
470.4919438209549867
 30
0.0
 40
2.362909990023347
 50
257.5506620628236192
 51
265.1278673168192768
  0
ARC
  5
1D10D
  8
0
 10
4453.7446841286346171
 20
482.1125298630665839
 30
0.0
 40
14.01287984699551
 50
265.783854334558896
 51
267.3208961561692263
  0
ARC
  5
1D10E
  8
0
 10
4452.9337051503880502
 20
470.299751335443716
 30
0.0
 40
2.1614904047601522
 50
240.0821562838341094
 51
257.8944011940905057
  0
ARC
  5
1D10F
  8
0
 10
4453.1847776425547636
 20
471.8550370466472259
 30
0.0
 40
3.7357155166622049
 50
259.1318495957129926
 51
266.7995974673979731
  0
ARC
  5
1D110
  8
0
 10
4452.7102720825150755
 20
460.3656050754948978
 30
0.0
 40
7.7640988849878321
 50
86.4908743897082246
 51
88.0370458690467643
  0
ARC
  5
1D111
  8
0
 10
4453.146667923869245
 20
470.7425423975365106
 30
0.0
 40
2.6109506637519702
 50
240.3655466032190873
 51
266.6092173245791059
  0
ARC
  5
1D112
  8
0
 10
4456.3877820659263307
 20
529.8239072447869376
 30
0.0
 40
61.7811260795236592
 50
266.8493898962454978
 51
267.2191724847418186
  0
ARC
  5
1D113
  8
0
 10
4453.2916232238421799
 20
471.0626061409672047
 30
0.0
 40
2.9321117929488252
 50
240.6763801858814134
 51
264.1119207801497737
  0
ARC
  5
1D114
  8
0
 10
4453.6578908082155976
 20
475.5555519098135733
 30
0.0
 40
7.4395542476676857
 50
264.8557241376915954
 51
270.3229621809413175
  0
ARC
  5
1D115
  8
0
 10
4450.9972138070097571
 20
466.0445681435692791
 30
0.0
 40
2.6291523440968079
 50
63.9256622037351434
 51
69.4591892268160933
  0
ARC
  5
1D116
  8
0
 10
4453.3452431951673134
 20
470.9658051926817279
 30
0.0
 40
2.823785592196177
 50
245.0215681102781957
 51
259.2740266056623
  0
ARC
  5
1D117
  8
0
 10
4453.6861278771793877
 20
473.5000517545930165
 30
0.0
 40
5.3789358368002151
 50
260.7305603043005817
 51
270.1459057955402727
  0
ARC
  5
1D118
  8
0
 10
4451.4729636969559579
 20
466.9715548240241105
 30
0.0
 40
1.621694684695236
 50
64.5159669541987171
 51
70.9511633203680248
  0
ARC
  5
1D119
  8
0
 10
4453.4327708835189696
 20
471.0833245146305899
 30
0.0
 40
2.9332470489708888
 50
244.5159669541986887
 51
263.1568619145900243
  0
ARC
  5
1D11A
  8
0
 10
4453.8943077218200415
 20
474.5419652375446731
 30
0.0
 40
6.4224073065786147
 50
262.7451746196126123
 51
268.2647140570779811
  0
ARC
  5
1D11B
  8
0
 10
4453.6523115797790524
 20
471.6951812872442815
 30
0.0
 40
3.5560502580703188
 50
244.0329625575010084
 51
257.2395996288029778
  0
ARC
  5
1D11C
  8
0
 10
4453.9009597792155546
 20
473.4825848718066936
 30
0.0
 40
5.3563942230179311
 50
258.8687637937680961
 51
267.8480198262998897
  0
ARC
  5
1D11D
  8
0
 10
4453.6750398038111598
 20
471.6496650765676009
 30
0.0
 40
3.494031872025618
 50
244.6931117790549877
 51
255.2459817594670142
  0
ARC
  5
1D11E
  8
0
 10
4453.8248033807140018
 20
472.370785218812216
 30
0.0
 40
4.229693720386944
 50
255.7718740009989062
 51
268.3067931492461184
  0
ARC
  5
1D11F
  8
0
 10
4453.8768619476149979
 20
472.2859268649664841
 30
0.0
 40
4.1334608378885642
 50
246.7970255611851087
 51
256.9640490128342094
  0
ARC
  5
1D120
  8
0
 10
4453.9911955772950023
 20
472.9909361819666742
 30
0.0
 40
4.846324657220519
 50
257.5272414255155127
 51
266.5531924731062077
  0
ARC
  5
1D121
  8
0
 10
4454.3655869649892338
 20
473.8156619046794731
 30
0.0
 40
5.7146203565175497
 50
248.8598019492636979
 51
255.4130889244185028
  0
ARC
  5
1D122
  8
0
 10
4453.8875953963370193
 20
472.1483266526850002
 30
0.0
 40
3.9808760954855038
 50
256.027222550098088
 51
267.2964708047121007
  0
ARC
  5
1D123
  8
0
 10
4454.1620172661532706
 20
473.2169068672575918
 30
0.0
 40
5.0536633508392343
 50
249.5765606151778968
 51
264.7525802263078845
  0
ARC
  5
1D124
  8
0
 10
4454.1235696970870777
 20
473.1749221589356011
 30
0.0
 40
4.9852455871586647
 50
250.3379796306927005
 51
265.1239947026292043
  0
ARC
  5
1D125
  8
0
 10
4454.2074794357404244
 20
473.1986775888237844
 30
0.0
 40
5.0033635727664523
 50
250.6580862722385064
 51
264.1766044347168076
  0
ARC
  5
1D126
  8
0
 10
4452.1346715888403196
 20
466.3484441456278091
 30
0.0
 40
2.1832325545043711
 50
72.2792645602554416
 51
77.2723874711815881
  0
ARC
  5
1D127
  8
0
 10
4454.1205679627501013
 20
472.7263447010150799
 30
0.0
 40
4.4967820773515799
 50
252.91154994695151
 51
264.6312543600902814
  0
ARC
  5
1D128
  8
0
 10
4454.3844839844332455
 20
473.7160092752072273
 30
0.0
 40
5.491127050120844
 50
252.8324188299824016
 51
262.8374632085746043
  0
ARC
  5
1D129
  8
0
 10
4454.4405401022322621
 20
474.2464384152139019
 30
0.0
 40
5.9929056074353806
 50
254.5502557880757877
 51
262.900167637909874
  0
ARC
  5
1D12A
  8
0
 10
4454.5632535166259913
 20
474.6209316784311909
 30
0.0
 40
6.3535153462871232
 50
255.5470074694669904
 51
262.1894684135003217
  0
ARC
  5
1D12B
  8
0
 10
4454.7689147396513363
 20
476.8394345920547721
 30
0.0
 40
8.5420800264768975
 50
258.2512107355314015
 51
262.8102579579397116
  0
ARC
  5
1D12C
  8
0
 10
4454.5860496789573517
 20
474.9789043209494821
 30
0.0
 40
6.6476653946915869
 50
257.5858519547819014
 51
262.3388855551889947
  0
ARC
  5
1D12D
  8
0
 10
4453.9253903624558006
 20
471.8454565136044039
 30
0.0
 40
3.4252022843293179
 50
258.2482555142756269
 51
266.2240848371363882
  0
ARC
  5
1D12E
  8
0
 10
4454.2876957161379323
 20
474.1177699056422057
 30
0.0
 40
5.692733643734444
 50
260.751914686465625
 51
264.0726832543700766
  0
ARC
  5
1D12F
  8
0
 10
4454.0708058750333294
 20
472.4164884368155981
 30
0.0
 40
3.9502053186082482
 50
261.5702001478035754
 51
262.4048307020208881
  0
ARC
  5
1D130
  8
0
 10
4453.6768675966768569
 20
469.4621583530695261
 30
0.0
 40
0.9697265632936835
 50
262.4048307020208881
 51
271.3565834039359856
  0
ARC
  5
1D131
  8
0
 10
4451.9255799290804134
 20
468.5157615196708889
 30
0.0
 40
0.0109063481135023
 50
122.5231555353095985
 51
237.4768444646904015
  0
ARC
  5
1D132
  8
0
 10
4452.0070409073141491
 20
468.5157615196708889
 30
0.0
 40
0.0122901974052961
 50
112.9804166235790035
 51
247.0195833764209965
  0
ARC
  5
1D133
  8
0
 10
4452.1163873493533174
 20
468.5157615196708889
 30
0.0
 40
0.0275031245136912
 50
140.1231851561013002
 51
219.8768148438985861
  0
ARC
  5
1D134
  8
0
 10
4452.1937990329988679
 20
468.5157615196708889
 30
0.0
 40
0.0277099853556749
 50
116.4465207386382986
 51
243.5534792613617014
  0
ARC
  5
1D135
  8
0
 10
4452.2733682306470655
 20
468.5157615196708889
 30
0.0
 40
0.0382888344227271
 50
130.8558762555466899
 51
229.1441237444531964
  0
ARC
  5
1D136
  8
0
 10
4452.3173053493273983
 20
468.5157615196708889
 30
0.0
 40
0.0326987546723539
 50
112.8611978575603985
 51
247.1388021424394879
  0
ARC
  5
1D137
  8
0
 10
4452.4149334943203939
 20
468.5157615196708889
 30
0.0
 40
0.0385164461395762
 50
115.233077518959405
 51
244.7669224810404955
  0
ARC
  5
1D138
  8
0
 10
4452.4536205676549798
 20
468.5157615196708889
 30
0.0
 40
0.0361876532131238
 50
101.8675633860465979
 51
258.1324366139534163
  0
ARC
  5
1D139
  8
0
 10
4452.5557374334448468
 20
468.5157615196708889
 30
0.0
 40
0.0384328824856712
 50
98.0705096419939224
 51
261.9294903580060918
  0
ARC
  5
1D13A
  8
0
 10
4452.624030519173175
 20
468.5157615196708889
 30
0.0
 40
0.0386446298414099
 50
102.4892854280377037
 51
257.5107145719622963
  0
ARC
  5
1D13B
  8
0
 10
4452.7696370459907484
 20
468.5157615196708889
 30
0.0
 40
0.0466070487399395
 50
97.3410906734026753
 51
262.6589093265973247
  0
ARC
  5
1D13C
  8
0
 10
4452.8569852769787758
 20
468.5157615196708889
 30
0.0
 40
0.0474625077778453
 50
105.7880137926673996
 51
254.2119862073325862
  0
ARC
  5
1D13D
  8
0
 10
4452.9951741188342567
 20
468.5157615196708889
 30
0.0
 40
0.0504670506570229
 50
110.4911762847320063
 51
249.5088237152679937
  0
ARC
  5
1D13E
  8
0
 10
4453.0356423636467298
 20
468.5157615196708889
 30
0.0
 40
0.0399134943447796
 50
98.7547343286653074
 51
261.245265671334721
  0
ARC
  5
1D13F
  8
0
 10
4453.1647601127833696
 20
468.5157615196708889
 30
0.0
 40
0.0301229898713572
 50
105.0114321256451007
 51
254.9885678743540041
  0
ARC
  5
1D140
  8
0
 10
4453.2305947826907868
 20
468.5157615196708889
 30
0.0
 40
0.0238797348960087
 50
96.7837084078841485
 51
263.2162915921159083
  0
ARC
  5
1D141
  8
0
 10
4453.3768605708828545
 20
468.5157615196708889
 30
0.0
 40
0.0172109058798819
 50
103.5818239283109961
 51
256.4181760716897998
  0
ARC
  5
1D142
  8
0
 10
4453.4926996347458044
 20
468.5157615196708889
 30
0.0
 40
0.0068720853927498
 50
98.2333854130340853
 51
261.7666145869658862
  0
LINE
  5
1D143
  8
0
 10
4453.6998255189773772
 20
468.9154071888709154
 30
0.0
 11
4453.6998255189773772
 21
468.1161158502708872
 31
0.0
  0
LINE
  5
1D144
  8
0
 10
4451.8556451791755535
 20
468.919727750535003
 30
0.0
 11
4451.8556451791755535
 21
468.1126410971208998
 31
0.0
  0
ARC
  5
1D145
  8
0
 10
4453.6998255189773772
 20
468.9004071888708722
 30
0.0
 40
0.0150000000000032
 50
44.9999999999976907
 51
90.0
  0
ARC
  5
1D146
  8
0
 10
4453.6998255189773772
 20
468.1311158502708736
 30
0.0
 40
0.0150000000000077
 50
270.0000000048461857
 51
315.0
  0
LINE
  5
1D147
  8
0
 10
4453.7104321206943496
 20
468.1205092485531054
 30
0.0
 11
4453.77901326531628
 21
468.1890903931106891
 31
0.0
  0
ARC
  5
1D148
  8
0
 10
4453.7650929631881809
 20
468.2030104041505183
 30
0.0
 40
0.0196860742324642
 50
315.0005990644730218
 51
359.9982939404504236
  0
LINE
  5
1D149
  8
0
 10
4453.7847790374116812
 20
468.2030098179708943
 30
0.0
 11
4453.7847790374116812
 21
468.8285132210709207
 31
0.0
  0
ARC
  5
1D14A
  8
0
 10
4453.7650929623678167
 20
468.828512634546712
 30
0.0
 40
0.0196860750534676
 50
0.0017070628436942
 51
44.9993996982438418
  0
LINE
  5
1D14B
  8
0
 10
4453.7790132653763067
 20
468.8424326458663245
 30
0.0
 11
4453.7104321206943496
 21
468.9110137905886972
 31
0.0
  0
LINE
  5
1D14C
  8
0
 10
4451.8556451791755535
 20
468.1126410971208998
 30
0.0
 11
4450.674542653277058
 21
468.1126410971208998
 31
0.0
  0
ARC
  5
1D14D
  8
0
 10
4450.6745425418357627
 20
468.2307510581813972
 30
0.0
 40
0.1181099610605571
 50
179.9998665283461889
 51
270.0000540600677255
  0
LINE
  5
1D14E
  8
0
 10
4450.5564325807763453
 20
469.8441841871610904
 30
0.0
 11
4450.5564325807763453
 21
468.2307513333208817
 31
0.0
  0
LINE
  5
1D14F
  8
0
 10
4451.3981127290517179
 20
468.9543213941569206
 30
0.0
 11
4450.5910261064891529
 21
468.147234784746388
 31
0.0
  0
LINE
  5
1D150
  8
0
 10
4451.8287102929580215
 20
469.9571589471208881
 30
0.0
 11
4450.0912410503669889
 21
469.9571589471208881
 31
0.0
  0
LINE
  5
1D151
  8
0
 10
4452.0945391298719187
 20
470.1738434439208731
 30
0.0
 11
4449.8254121757845496
 21
470.1738434439208731
 31
0.0
  0
ARC
  5
1D152
  8
0
 10
4451.7475713786270717
 20
469.9038941178652067
 30
0.0
 40
0.0197099307040638
 50
270.0
 51
314.9700203697389043
  0
LINE
  5
1D153
  8
0
 10
4451.7615011099223921
 20
469.8899498016610892
 30
0.0
 11
4451.8287100291263414
 21
469.9571587208607184
 31
0.0
  0
ARC
  5
1D154
  8
0
 10
4451.8147913887332834
 20
469.971077637091696
 30
0.0
 40
0.0196841250613415
 50
314.9994322649413903
 51
0.001507102873438
  0
LINE
  5
1D155
  8
0
 10
4451.8344755137877655
 20
469.9710781548611749
 30
0.0
 11
4451.8344755137877655
 21
470.0614991477610829
 31
0.0
  0
ARC
  5
1D156
  8
0
 10
4451.854099224258789
 20
470.0614539801588876
 30
0.0
 40
0.019623762451118
 50
123.3646560314623031
 51
179.8681234540256071
  0
ARC
  5
1D157
  8
0
 10
4451.8541687415654451
 20
470.061348141209578
 30
0.0
 40
0.0197503899265044
 50
90.5278409988123656
 51
123.3642272204407959
  0
ARC
  5
1D158
  8
0
 10
4452.0812906721021136
 20
470.4484997178976187
 30
0.0
 40
0.0196849033831794
 50
359.9983405346234804
 51
90.0001704913642726
  0
LINE
  5
1D159
  8
0
 10
4452.1009755754766957
 20
470.4484991477610833
 30
0.0
 11
4452.1009755754766957
 21
470.1884028941254883
 31
0.0
  0
ARC
  5
1D15A
  8
0
 10
4452.0812440953395708
 20
470.1884233545745815
 30
0.0
 40
0.0197314907450364
 50
312.3599226168223026
 51
359.9405874796213993
  0
LINE
  5
1D15B
  8
0
 10
4452.0945388913723946
 20
470.173843226814995
 30
0.0
 11
4451.998340646712677
 21
470.086309559261224
 31
0.0
  0
ARC
  5
1D15C
  8
0
 10
4451.9848471174409497
 20
470.1011722758055953
 30
0.0
 40
0.0200742540157482
 50
270.3327695325210129
 51
312.2356962003262879
  0
ENDSEC
  0
EOF
