  0
SECTION
  2
HEADER
  9
$ACADVER
  1
AC1009
  9
$INSBASE
 10
4467.898483357301302
 20
464.1447928688097022
 30
0.0
  9
$EXTMIN
 10
4466.58648729430206
 20
455.190848515689197
 30
0.0
  9
$EXTMAX
 10
4469.210479420302363
 20
464.1491271200142137
 30
0.0
  9
$LIMMIN
 10
0.0
 20
0.0
  9
$LIMMAX
 10
11.6929133858000007
 20
8.2677165353999982
  9
$ORTHOMODE
 70
     0
  9
$REGENMODE
 70
     1
  9
$FILLMODE
 70
     1
  9
$QTEXTMODE
 70
     0
  9
$MIRRTEXT
 70
     0
  9
$DRAGMODE
 70
     2
  9
$LTSCALE
 40
0.6431102362
  9
$OSMODE
 70
  4095
  9
$ATTMODE
 70
     1
  9
$TEXTSIZE
 40
0.2
  9
$TRACEWID
 40
0.05
  9
$TEXTSTYLE
  7
STANDARD
  9
$CLAYER
  8
0
  9
$CELTYPE
  6
BYLAYER
  9
$CECOLOR
 62
   256
  9
$DIMSCALE
 40
1.0
  9
$DIMASZ
 40
0.1875
  9
$DIMEXO
 40
0.0625
  9
$DIMDLI
 40
0.4443307087
  9
$DIMRND
 40
0.0
  9
$DIMDLE
 40
0.0
  9
$DIMEXE
 40
0.125
  9
$DIMTP
 40
0.01
  9
$DIMTM
 40
0.01
  9
$DIMTXT
 40
2.0
  9
$DIMCEN
 40
0.1052362205
  9
$DIMTSZ
 40
0.0
  9
$DIMTOL
 70
     1
  9
$DIMLIM
 70
     0
  9
$DIMTIH
 70
     1
  9
$DIMTOH
 70
     1
  9
$DIMSE1
 70
     0
  9
$DIMSE2
 70
     0
  9
$DIMTAD
 70
     0
  9
$DIMZIN
 70
     0
  9
$DIMBLK
  1

  9
$DIMASO
 70
     1
  9
$DIMSHO
 70
     1
  9
$DIMPOST
  1
\X
  9
$DIMAPOST
  1

  9
$DIMALT
 70
     1
  9
$DIMALTD
 70
     2
  9
$DIMALTF
 40
25.3999999999999986
  9
$DIMLFAC
 40
1.0
  9
$DIMTOFL
 70
     0
  9
$DIMTVP
 40
0.0
  9
$DIMTIX
 70
     0
  9
$DIMSOXD
 70
     0
  9
$DIMSAH
 70
     0
  9
$DIMBLK1
  1

  9
$DIMBLK2
  1

  9
$DIMSTYLE
  2
STANDARD
  9
$DIMCLRD
 70
     0
  9
$DIMCLRE
 70
     0
  9
$DIMCLRT
 70
     0
  9
$DIMTFAC
 40
1.0
  9
$DIMGAP
 40
0.09
  9
$LUNITS
 70
     2
  9
$LUPREC
 70
     4
  9
$SKETCHINC
 40
0.1
  9
$FILLETRAD
 40
0.0
  9
$AUNITS
 70
     0
  9
$AUPREC
 70
     0
  9
$MENU
  1
.
  9
$ELEVATION
 40
0.0
  9
$PELEVATION
 40
0.0
  9
$THICKNESS
 40
0.0
  9
$LIMCHECK
 70
     0
  9
$BLIPMODE
 70
     0
  9
$CHAMFERA
 40
0.0
  9
$CHAMFERB
 40
0.0
  9
$SKPOLY
 70
     0
  9
$TDCREATE
 40
2458060.468368056230247
  9
$TDUPDATE
 40
2459405.4290740741416812
  9
$TDINDWG
 40
1.4602484953999999
  9
$TDUSRTIMER
 40
1.4602484953999999
  9
$USRTIMER
 70
     1
  9
$ANGBASE
 50
0.0
  9
$ANGDIR
 70
     0
  9
$PDMODE
 70
     0
  9
$PDSIZE
 40
0.3125
  9
$PLINEWID
 40
0.0
  9
$COORDS
 70
     1
  9
$SPLFRAME
 70
     0
  9
$SPLINETYPE
 70
     6
  9
$SPLINESEGS
 70
     8
  9
$ATTDIA
 70
     1
  9
$ATTREQ
 70
     1
  9
$HANDLING
 70
     1
  9
$HANDSEED
  5
1AB89
  9
$SURFTAB1
 70
     6
  9
$SURFTAB2
 70
     6
  9
$SURFTYPE
 70
     6
  9
$SURFU
 70
     6
  9
$SURFV
 70
     6
  9
$UCSNAME
  2

  9
$UCSORG
 10
0.0
 20
0.0
 30
0.0
  9
$UCSXDIR
 10
1.0
 20
0.0
 30
0.0
  9
$UCSYDIR
 10
0.0
 20
1.0
 30
0.0
  9
$PUCSNAME
  2

  9
$PUCSORG
 10
0.0
 20
0.0
 30
0.0
  9
$PUCSXDIR
 10
1.0
 20
0.0
 30
0.0
  9
$PUCSYDIR
 10
0.0
 20
1.0
 30
0.0
  9
$USERI1
 70
     0
  9
$USERI2
 70
     0
  9
$USERI3
 70
     0
  9
$USERI4
 70
     0
  9
$USERI5
 70
     0
  9
$USERR1
 40
0.0
  9
$USERR2
 40
0.0
  9
$USERR3
 40
0.0
  9
$USERR4
 40
0.0
  9
$USERR5
 40
0.0
  9
$WORLDVIEW
 70
     1
  9
$SHADEDGE
 70
     3
  9
$SHADEDIF
 70
    70
  9
$TILEMODE
 70
     1
  9
$MAXACTVP
 70
    64
  9
$PLIMCHECK
 70
     0
  9
$PEXTMIN
 10
1.0000000000000000E+20
 20
1.0000000000000000E+20
 30
1.0000000000000000E+20
  9
$PEXTMAX
 10
-1.0000000000000000E+20
 20
-1.0000000000000000E+20
 30
-1.0000000000000000E+20
  9
$PLIMMIN
 10
0.0
 20
0.0
  9
$PLIMMAX
 10
12.0
 20
9.0
  9
$UNITMODE
 70
     0
  9
$VISRETAIN
 70
     1
  9
$PLINEGEN
 70
     0
  9
$PSLTSCALE
 70
     1
  0
ENDSEC
  0
SECTION
  2
TABLES
  0
TABLE
  2
VPORT
 70
     1
  0
VPORT
  2
*ACTIVE
 70
     0
 10
0.0
 20
0.0
 11
1.0
 21
1.0
 12
556.5331269119892568
 22
327.0903827153127281
 13
0.0
 23
0.0
 14
1.0
 24
1.0
 15
0.0
 25
0.0
 16
0.0
 26
0.0
 36
60.4960186965801583
 17
3911.3653564453120453
 27
132.5796051025390057
 37
0.0
 40
9.0386219101933971
 41
2.8398203592814371
 42
50.0
 43
0.0
 44
0.0
 50
0.0
 51
0.0
 71
     0
 72
   100
 73
     1
 74
     1
 75
     0
 76
     0
 77
     0
 78
     0
  0
ENDTAB
  0
TABLE
  2
LTYPE
 70
     2
  0
LTYPE
  2
CONTINUOUS
 70
     0
  3
Solid line
 72
    65
 73
     0
 40
0.0
  0
LTYPE
  2
PHANTOM2
 70
     0
  3
___ _ _ ___ _ _ ___ _ _ ___ _ _
 72
    65
 73
     6
 40
1.25
 49
0.625
 49
-0.125
 49
0.125
 49
-0.125
 49
0.125
 49
-0.125
  0
ENDTAB
  0
TABLE
  2
LAYER
 70
     2
  0
LAYER
  2
0
 70
     0
 62
   255
  6
CONTINUOUS
  0
LAYER
  2
DEFPOINTS
 70
     0
 62
     7
  6
CONTINUOUS
  0
ENDTAB
  0
TABLE
  2
STYLE
 70
     1
  0
STYLE
  2
STANDARD
 70
     0
 40
0.0
 41
0.8
 50
0.0
 71
     0
 42
0.2
  3
txt
  4

  0
ENDTAB
  0
TABLE
  2
VIEW
 70
     0
  0
ENDTAB
  0
TABLE
  2
UCS
 70
     0
  0
ENDTAB
  0
TABLE
  2
APPID
 70
    11
  0
APPID
  2
ACAD
 70
     0
  0
APPID
  2
ACAD_MLEADERVER
 70
     0
  0
APPID
  2
ACAD_EXEMPT_FROM_CAD_STANDARDS
 70
     0
  0
APPID
  2
ACAD_NAV_VCDISPLAY
 70
     0
  0
APPID
  2
ACAECLAYERSTANDARD
 70
     0
  0
APPID
  2
ACCMTRANSPARENCY
 70
     0
  0
APPID
  2
ACAD_DSTYLE_DIMJAG
 70
     0
  0
APPID
  2
ACAD_DSTYLE_DIMTALN
 70
     0
  0
APPID
  2
ACDBATTR
 70
     0
  0
APPID
  2
ACADANNOTATIVE
 70
     0
  0
APPID
  2
DCO15
 70
     0
  0
ENDTAB
  0
TABLE
  2
DIMSTYLE
 70
     1
  0
DIMSTYLE
  2
STANDARD
 70
     0
  3

  4

  5

  6

  7

 40
1.0
 41
0.1875
 42
0.0625
 43
0.38
 44
0.125
 45
0.0
 46
0.0
 47
0.01
 48
0.01
140
0.15625
141
0.09
142
0.0
143
25.3999999999999986
144
1.0
145
0.0
146
1.0
147
0.09
 71
     1
 72
     0
 73
     1
 74
     1
 75
     0
 76
     0
 77
     0
 78
     4
170
     0
171
     2
172
     0
173
     0
174
     0
175
     0
176
     0
177
     0
178
     0
  0
ENDTAB
  0
ENDSEC
  0
SECTION
  2
BLOCKS
  0
BLOCK
  8
0
  2
$MODEL_SPACE
 70
     0
 10
0.0
 20
0.0
 30
0.0
  3
$MODEL_SPACE
  1

  0
ENDBLK
  5
21
  8
0
  0
BLOCK
 67
     1
  8
0
  2
$PAPER_SPACE
 70
     0
 10
0.0
 20
0.0
 30
0.0
  3
$PAPER_SPACE
  1

  0
ENDBLK
  5
1D
 67
     1
  8
0
  0
ENDSEC
  0
SECTION
  2
ENTITIES
  0
ATTDEF
  5
159BF
  8
DEFPOINTS
 10
4467.8984831007119283
 20
464.1481271200141805
 30
0.0
 40
0.001
  1
P24914-BAF
  3

  2
MODELNUMBER
 70
     0
1001
ACDBATTR
1070
     0
1070
     1
  0
ATTDEF
  5
159C0
  8
DEFPOINTS
 10
4467.8984831007119283
 20
464.1464602796349936
 30
0.0
 40
0.001
  1
PINNA PALETTA
  3

  2
TRADENAME
 70
     0
1001
ACDBATTR
1070
     0
1070
     1
  0
ATTDEF
  5
159C1
  8
DEFPOINTS
 10
4467.8984831007119283
 20
464.144793786680907
 30
0.0
 40
0.001
  1
BATH SPOUT
  3

  2
PRODUCT
 70
     0
1001
ACDBATTR
1070
     0
1070
     1
  0
LINE
  5
1A8E5
  8
0
 10
4466.7046113098322166
 20
464.1447928688097022
 30
0.0
 11
4469.0923554047712969
 21
464.1447928688097022
 31
0.0
  0
LINE
  5
1A8E6
  8
0
 10
4466.6091250894332916
 20
464.1145487744096272
 30
0.0
 11
4469.1878416251711315
 21
464.1145487744096272
 31
0.0
  0
LINE
  5
1A8E7
  8
0
 10
4466.7197530703770099
 20
463.6693991681096918
 30
0.0
 11
4469.0772136442246847
 21
463.6693991681096918
 31
0.0
  0
LINE
  5
1A8E8
  8
0
 10
4466.9927500029816656
 20
463.4430212153096136
 30
0.0
 11
4468.8042167116200289
 21
463.4430212153096136
 31
0.0
  0
LINE
  5
1A8E9
  8
0
 10
4466.58648729430206
 20
464.0919109792798736
 30
0.0
 11
4466.58648729430206
 21
463.7927006806236818
 31
0.0
  0
LINE
  5
1A8EA
  8
0
 10
4467.2749105226021129
 20
463.4430212153096136
 30
0.0
 11
4467.2749105226021129
 21
455.7334952581545053
 31
0.0
  0
ARC
  5
1A8EB
  8
0
 10
4467.898483357301302
 20
455.8887042426142102
 30
0.0
 40
0.6978557269250477
 50
236.265694423976214
 51
303.7343055760238144
  0
ARC
  5
1A8EC
  8
0
 10
4467.7504322181948737
 20
455.7345275393402062
 30
0.0
 40
0.4755228160500952
 50
180.1243797346077997
 51
189.1390723673503942
  0
ARC
  5
1A8ED
  8
0
 10
4467.7714124554886439
 20
455.7383861478626841
 30
0.0
 40
0.4968498218081566
 50
189.194114404409504
 51
201.2106425563196979
  0
ARC
  5
1A8EE
  8
0
 10
4467.7744976507019601
 20
455.7395834755525925
 30
0.0
 40
0.5001592059057564
 50
201.2106425563167136
 51
216.9154107259062982
  0
ARC
  5
1A8EF
  8
0
 10
4467.8437060363394266
 20
455.7915757158423276
 30
0.0
 40
0.5867212858995411
 50
216.9154107259062982
 51
235.4467794579643964
  0
ARC
  5
1A8F0
  8
0
 10
4467.8985061123839841
 20
456.2463228070496939
 30
0.0
 40
0.7102333228988919
 50
250.0285650845301006
 51
252.5560259610450942
  0
ARC
  5
1A8F1
  8
0
 10
4467.8985061123839841
 20
456.2463228070496939
 30
0.0
 40
0.7102333228988919
 50
256.2775785941250888
 51
259.111004339256624
  0
ARC
  5
1A8F2
  8
0
 10
4467.8985061123839841
 20
456.2463228070496939
 30
0.0
 40
0.7102333228988919
 50
262.1119768689886769
 51
264.5460906407922721
  0
ARC
  5
1A8F3
  8
0
 10
4467.8508310338793308
 20
456.1434063193980819
 30
0.0
 40
0.5968506380670237
 50
214.8613623361084137
 51
217.2522473977869026
  0
ARC
  5
1A8F4
  8
0
 10
4467.8508310338793308
 20
456.1434063193980819
 30
0.0
 40
0.5968506380670237
 50
220.8317443952182941
 51
224.8915587447814914
  0
ARC
  5
1A8F5
  8
0
 10
4467.8508310338793308
 20
456.1434063193980819
 30
0.0
 40
0.5968506380670237
 50
228.9687515961157089
 51
232.7487224965614985
  0
ARC
  5
1A8F6
  8
0
 10
4467.8508310338793308
 20
456.1434063193980819
 30
0.0
 40
0.5968506380670237
 50
236.2635876896129901
 51
239.8395762734816117
  0
ARC
  5
1A8F7
  8
0
 10
4467.8508319766469867
 20
456.1434082666769996
 30
0.0
 40
0.5968528013057725
 50
243.2864756368018959
 51
246.8055630089125998
  0
ARC
  5
1A8F8
  8
0
 10
4467.5613625401329045
 20
456.0024699910022719
 30
0.0
 40
0.2725985048130882
 50
199.0180311431936104
 51
205.2132739452115118
  0
ARC
  5
1A8F9
  8
0
 10
4467.7509619189186196
 20
456.0738367350493832
 30
0.0
 40
0.4751388178141857
 50
207.3691597507020958
 51
210.5801825884024083
  0
ARC
  5
1A8FA
  8
0
 10
4467.7878731167793376
 20
456.0841722649437884
 30
0.0
 40
0.5134697414342443
 50
182.5467305318827869
 51
183.8712769230228048
  0
ARC
  5
1A8FB
  8
0
 10
4467.7878731508471901
 20
456.0841722702086258
 30
0.0
 40
0.5134697759024613
 50
185.8691311519575891
 51
189.7563825000295026
  0
ARC
  5
1A8FC
  8
0
 10
4467.7878731167793376
 20
456.0841722649437884
 30
0.0
 40
0.5134697414342443
 50
192.8769888407651933
 51
195.6428142943686908
  0
ARC
  5
1A8FD
  8
0
 10
4467.7525291109968748
 20
456.0878115575524134
 30
0.0
 40
0.4776186081341302
 50
180.0166789922595001
 51
201.2497529798978064
  0
ARC
  5
1A8FE
  8
0
 10
4467.7936427196764271
 20
456.1037995614984197
 30
0.0
 40
0.5217314757438682
 50
201.2497529798978064
 51
221.7037408878358065
  0
ARC
  5
1A8FF
  8
0
 10
4467.8539498596155681
 20
456.157538326795418
 30
0.0
 40
0.6025077471580187
 50
221.7037408878358065
 51
240.4140780360519045
  0
ARC
  5
1A900
  8
0
 10
4467.8984830323897768
 20
456.2457788022239242
 30
0.0
 40
0.7012470871143397
 50
240.8095393441844863
 51
299.1899770931278795
  0
ARC
  5
1A901
  8
0
 10
4467.810310512992146
 20
455.5418627294931184
 30
0.0
 40
0.047908651739955
 50
354.469757803329685
 51
4.689259534523698
  0
ARC
  5
1A902
  8
0
 10
4467.7208681083056945
 20
455.4203512236970823
 30
0.0
 40
0.1801899799099047
 50
35.1084462238184329
 51
40.4458545160436529
  0
ARC
  5
1A903
  8
0
 10
4467.9156720100991151
 20
455.5573046048626793
 30
0.0
 40
0.0579376933379167
 50
215.1084462238183903
 51
252.7420078947378101
  0
ARC
  5
1A904
  8
0
 10
4473.0891056136933912
 20
459.9523936553404724
 30
0.0
 40
6.8646484120013049
 50
220.0067262072826111
 51
220.8750853333509099
  0
ARC
  5
1A905
  8
0
 10
4467.8793178240803172
 20
455.5342369163315084
 30
0.0
 40
0.0485808842014466
 50
163.9463050324330879
 51
174.0588089370482976
  0
ARC
  5
1A906
  8
0
 10
4467.766879912596778
 20
455.5500574323096998
 30
0.0
 40
0.0349160928115677
 50
348.0194948251944993
 51
1.927761542798466
  0
ARC
  5
1A907
  8
0
 10
4471.0006810835302531
 20
458.0989951296052141
 30
0.0
 40
4.0953408342476063
 50
218.6212336008005082
 51
220.7561956004279864
  0
ARC
  5
1A908
  8
0
 10
4467.898483357301302
 20
455.3316048080861265
 30
0.0
 40
0.0283554079762813
 50
224.2873109149421964
 51
315.7126890850191216
  0
ARC
  5
1A909
  8
0
 10
4467.799698240502039
 20
455.5408313532096827
 30
0.0
 40
0.0362638952999521
 50
153.6456647734059118
 51
167.1811050739906079
  0
ARC
  5
1A90A
  8
0
 10
4467.7027908310310522
 20
455.5661021299479216
 30
0.0
 40
0.0289241906104917
 50
340.3214658970888991
 51
357.1405464972773984
  0
ARC
  5
1A90B
  8
0
 10
4467.7146187815424128
 20
455.5574613871760903
 30
0.0
 40
0.0311406773963607
 50
142.7836206267012926
 51
158.7405620342964028
  0
ARC
  5
1A90C
  8
0
 10
4467.6280778221253058
 20
455.593391153642699
 30
0.0
 40
0.031437749158229
 50
332.3477561800934268
 51
347.8261794292238847
  0
ARC
  5
1A90D
  8
0
 10
4467.6458367328141321
 20
455.5783271099917897
 30
0.0
 40
0.0342909688683784
 50
136.741850515199701
 51
151.2952390371933973
  0
ARC
  5
1A90E
  8
0
 10
4467.5509961238749383
 20
455.6332817405245805
 30
0.0
 40
0.0390422143395944
 50
323.8675865044091893
 51
336.3580381128231807
  0
ARC
  5
1A90F
  8
0
 10
4467.5852288174019122
 20
455.6025836618097173
 30
0.0
 40
0.0422853404999465
 50
132.8436386214166873
 51
144.1376597662990946
  0
ARC
  5
1A910
  8
0
 10
4467.4905232174305638
 20
455.6743743700508844
 30
0.0
 40
0.0397136401916363
 50
316.5541215149169147
 51
327.9336156359771053
  0
ARC
  5
1A911
  8
0
 10
4467.5208119533017452
 20
455.6386445590097196
 30
0.0
 40
0.0431036499000134
 50
126.2713723174833973
 51
136.4909872930521999
  0
ARC
  5
1A912
  8
0
 10
4467.4363143441969441
 20
455.7207516574106876
 30
0.0
 40
0.0357220239143463
 50
309.4580806520284
 51
320.8838952146232941
  0
ARC
  5
1A913
  8
0
 10
4467.4520035191817442
 20
455.6915757361728083
 30
0.0
 40
0.0388882592555687
 50
118.1842109741727995
 51
128.1228130498141979
  0
ARC
  5
1A914
  8
0
 10
4467.376715529858302
 20
455.7893796155404971
 30
0.0
 40
0.0426478432738539
 50
301.8713782413763056
 51
309.9854546001662925
  0
ARC
  5
1A915
  8
0
 10
4467.3988828238007045
 20
455.7427969920094029
 30
0.0
 40
0.0456201114003453
 50
113.2618507614547951
 51
120.4678870770027004
  0
ARC
  5
1A916
  8
0
 10
4467.3409975677432158
 20
455.8441864638065795
 30
0.0
 40
0.0465017001200018
 50
295.603282796365022
 51
302.4880409116922806
  0
ARC
  5
1A917
  8
0
 10
4467.3627596298010758
 20
455.7880967930101974
 30
0.0
 40
0.0487060018994643
 50
108.9026837261946952
 51
115.3499734797587024
  0
ARC
  5
1A918
  8
0
 10
4467.312537707401134
 20
455.9021210860099131
 30
0.0
 40
0.0495346669003093
 50
289.4215021980456868
 51
295.3897208462669823
  0
ARC
  5
1A919
  8
0
 10
4467.3316881521113828
 20
455.8379053447591787
 30
0.0
 40
0.0513216692522517
 50
104.5204781830315
 51
109.288960491619207
  0
ARC
  5
1A91A
  8
0
 10
4467.2915035850010099
 20
455.9632954020094076
 30
0.0
 40
0.0511183720996909
 50
283.738266963364083
 51
288.0990626001790815
  0
ARC
  5
1A91B
  8
0
 10
4467.3055833326679931
 20
455.8947864379829866
 30
0.0
 40
0.0523659441416895
 50
100.159905369630394
 51
103.4292818274962968
  0
ARC
  5
1A91C
  8
0
 10
4467.2776957292007864
 20
456.0311580962090261
 30
0.0
 40
0.0621659877993241
 50
278.9030664066368104
 51
281.0686719873232846
  0
ARC
  5
1A91D
  8
0
 10
4467.2907920776005994
 20
455.9351625701199282
 30
0.0
 40
0.0626419449895986
 50
96.6398777204776138
 51
98.2258129531740565
  0
ARC
  5
1A91E
  8
0
 10
4467.2731746559566091
 20
456.1030003569038058
 30
0.0
 40
0.0714414097760971
 50
273.1456479955323857
 51
274.0446081373527818
  0
ARC
  5
1A91F
  8
0
 10
4467.2788238390985498
 20
455.9856717122614214
 30
0.0
 40
0.0705942444482304
 50
92.3272192776786653
 51
92.9689430214471884
  0
ARC
  5
1A920
  8
0
 10
4454.8544533347167089
 20
444.9527975497724128
 30
0.0
 40
16.7015577468494989
 50
38.7014944911827072
 51
39.3782113886225815
  0
ARC
  5
1A921
  8
0
 10
4472.5859966778898524
 20
459.300441432732498
 30
0.0
 40
6.131768379419114
 50
217.6331536165228044
 51
220.0405560772836964
  0
ARC
  5
1A922
  8
0
 10
4469.2313523273896863
 20
456.5266836822805203
 30
0.0
 40
1.8185132262005439
 50
211.7872061446327905
 51
221.9176073764874104
  0
ARC
  5
1A923
  8
0
 10
4469.4342264256929411
 20
456.6541127167677132
 30
0.0
 40
2.0781367949116438
 50
211.1607150215843092
 51
221.7015145803237886
  0
ARC
  5
1A924
  8
0
 10
4469.4514131510641164
 20
456.6586877666534861
 30
0.0
 40
2.121670690305046
 50
210.0953241101447873
 51
222.5835643806211976
  0
ARC
  5
1A925
  8
0
 10
4471.0576780036089986
 20
457.7493132683350723
 30
0.0
 40
4.0807118452787501
 50
211.6134758554931921
 51
218.5051461307442082
  0
ARC
  5
1A926
  8
0
 10
4469.7527116084256704
 20
456.8003877593521906
 30
0.0
 40
2.4947374625749421
 50
208.0474386758504863
 51
219.5693226433724021
  0
ARC
  5
1A927
  8
0
 10
4469.2827034392321366
 20
456.4594177105747121
 30
0.0
 40
1.941471319411602
 50
204.7349650766061018
 51
219.8302675501437022
  0
ARC
  5
1A928
  8
0
 10
4469.3610595555328473
 20
456.4769735875224796
 30
0.0
 40
2.0387415874362471
 50
203.3685119022152037
 51
217.9702708555153947
  0
ARC
  5
1A929
  8
0
 10
4469.1334169914252925
 20
456.332108967046679
 30
0.0
 40
1.792166221235667
 50
200.8864531037773986
 51
217.9259881112982953
  0
ARC
  5
1A92A
  8
0
 10
4469.1813915106213244
 20
456.3334253023745077
 30
0.0
 40
1.856887405716213
 50
199.2192213114470007
 51
215.9777370071342091
  0
ARC
  5
1A92B
  8
0
 10
4468.9247177016986825
 20
456.2057555293798146
 30
0.0
 40
1.591207477868624
 50
196.5250367192790861
 51
216.9736156672665004
  0
ARC
  5
1A92C
  8
0
 10
4468.7822251747465998
 20
456.1295413624869752
 30
0.0
 40
1.4487488271776381
 50
193.8752991818695079
 51
216.6454188578844935
  0
ARC
  5
1A92D
  8
0
 10
4468.7526453480577402
 20
456.1023047601779012
 30
0.0
 40
1.4235347311641411
 50
192.168117205077408
 51
215.4125171504337004
  0
ARC
  5
1A92E
  8
0
 10
4468.7108629083795677
 20
456.0822748797987174
 30
0.0
 40
1.391626071762901
 50
190.3559193059938082
 51
215.3888834527107861
  0
ARC
  5
1A92F
  8
0
 10
4468.7856148516202666
 20
456.0894371918520847
 30
0.0
 40
1.475287238413044
 50
189.1276739280590959
 51
211.8636839664596039
  0
ARC
  5
1A930
  8
0
 10
4468.7591693738049798
 20
456.0713308945017275
 30
0.0
 40
1.456231520185755
 50
187.2979910395796992
 51
211.4387784070974021
  0
ARC
  5
1A931
  8
0
 10
4468.7127620836363349
 20
456.0361613837602022
 30
0.0
 40
1.414435118847414
 50
184.9693309676733008
 51
208.9503612366397078
  0
ARC
  5
1A932
  8
0
 10
4468.6854500321906016
 20
456.0221015025069846
 30
0.0
 40
1.3941223753578831
 50
183.1406842619439885
 51
208.6662363154466959
  0
ARC
  5
1A933
  8
0
 10
4468.7900455553708525
 20
456.024482758980696
 30
0.0
 40
1.5037255534693339
 50
182.0862574428666107
 51
204.5780440874910084
  0
ARC
  5
1A934
  8
0
 10
4468.7409643026221602
 20
456.0015680120823163
 30
0.0
 40
1.45914136901022
 50
180.1730868540822996
 51
204.1612196961397956
  0
ARC
  5
1A935
  8
0
 10
4469.7292161714258327
 20
456.0905115193913275
 30
0.0
 40
2.4528271811978168
 50
181.374695135006391
 51
189.6303891938389938
  0
ARC
  5
1A936
  8
0
 10
4468.3422488163250819
 20
455.8551668023335992
 30
0.0
 40
1.0460345241352631
 50
189.6303891938389938
 51
202.9749035239487966
  0
ARC
  5
1A937
  8
0
 10
4467.4843812982326199
 20
455.5174917327191793
 30
0.0
 40
0.1320733958650678
 50
197.277472031202592
 51
211.6474633523014859
  0
ARC
  5
1A938
  8
0
 10
4468.3686495727506554
 20
455.8566224261438151
 30
0.0
 40
1.0789002674730259
 50
189.3354105538035128
 51
200.5293477400416009
  0
ARC
  5
1A939
  8
0
 10
4469.675038228791891
 20
456.0501003841914098
 30
0.0
 40
2.3994633178496092
 50
180.0142100480059923
 51
188.8339858150935129
  0
ARC
  5
1A93A
  8
0
 10
4465.0970678770945597
 20
454.8335448954902063
 30
0.0
 40
2.3421488591262141
 50
16.6069435659585309
 51
17.494078960560369
  0
ARC
  5
1A93B
  8
0
 10
4468.7235292455170566
 20
455.9245519240475915
 30
0.0
 40
1.4453972081639781
 50
181.3495897764858
 51
195.5277492430161885
  0
ARC
  5
1A93C
  8
0
 10
4467.6116074019937514
 20
455.6152996966679893
 30
0.0
 40
0.2973950345091889
 50
195.4600678530829043
 51
201.2267919995194063
  0
ARC
  5
1A93D
  8
0
 10
4468.5777108998800031
 20
455.8824989408170723
 30
0.0
 40
1.299767921563022
 50
181.6294777543373016
 51
195.4600678530829043
  0
ARC
  5
1A93E
  8
0
 10
4475.6220464169227853
 20
456.0828921254484953
 30
0.0
 40
8.3469531969132742
 50
180.1791749213385003
 51
181.6294777543373016
  0
ARC
  5
1A93F
  8
0
 10
4468.5482469927292186
 20
455.8544176811785178
 30
0.0
 40
1.2699372463255421
 50
187.6967356619649081
 51
193.3968932024446019
  0
ARC
  5
1A940
  8
0
 10
4468.7102059265362186
 20
455.8763059921976151
 30
0.0
 40
1.4333685603368691
 50
178.9871643776957058
 51
187.6967356619649081
  0
ARC
  5
1A941
  8
0
 10
4468.6734293804511253
 20
455.8584407818385102
 30
0.0
 40
1.3975857036954891
 50
180.7032924025662908
 51
191.8985598387747871
  0
ARC
  5
1A942
  8
0
 10
4468.6687594143440947
 20
455.8268024200427817
 30
0.0
 40
1.3928955222930819
 50
179.3864942724221976
 51
188.0562310592306972
  0
ARC
  5
1A943
  8
0
 10
4468.4041196510488589
 20
455.7884936768409716
 30
0.0
 40
1.1281361097243641
 50
181.9528418697748009
 51
187.6952118188777092
  0
ARC
  5
1A944
  8
0
 10
4440.6363808700161826
 20
454.841704733349502
 30
0.0
 40
26.6557391836037603
 50
1.952841869774812
 51
2.0589706284329088
  0
ARC
  5
1A945
  8
0
 10
4468.86111582707872
 20
455.7911063053639964
 30
0.0
 40
1.5860671691186361
 50
181.9555779831796087
 51
183.6180791527941949
  0
ARC
  5
1A946
  8
0
 10
4466.2542293369979234
 20
455.7122673558487804
 30
0.0
 40
1.022041942629377
 50
1.3856586500503341
 51
2.9569348822650992
  0
ARC
  5
1A947
  8
0
 10
4467.3624484140109416
 20
455.7046122879277164
 30
0.0
 40
0.0860845953396556
 50
182.7643200157741887
 51
191.4828233270897044
  0
ARC
  5
1A948
  8
0
 10
4471.7320624947205943
 20
455.9168533633653055
 30
0.0
 40
4.4608501271062204
 50
182.3331968214818062
 51
182.780469703565899
  0
ARC
  5
1A949
  8
0
 10
4467.2623327705632619
 20
455.689795439139175
 30
0.0
 40
0.0159240435765518
 50
351.6213246715469722
 51
4.3990301099663469
  0
ARC
  5
1A94A
  8
0
 10
4467.3350861023900507
 20
455.6423322809790761
 30
0.0
 40
0.0491876678361603
 50
185.7170012997746937
 51
204.1788540554302074
  0
ARC
  5
1A94B
  8
0
 10
4467.2531345089164461
 20
455.6245326987302064
 30
0.0
 40
0.0371532996338714
 50
356.3781487840316231
 51
10.9581106067419398
  0
ARC
  5
1A94C
  8
0
 10
4467.3462644774581349
 20
455.5803807440212836
 30
0.0
 40
0.041634549651962
 50
194.0302120152159944
 51
216.657386396609013
  0
ARC
  5
1A94D
  8
0
 10
4467.3045165793673732
 20
455.5578556791385836
 30
0.0
 40
0.0086674297688701
 50
344.3923749401577084
 51
15.5509375092945703
  0
ARC
  5
1A94E
  8
0
 10
4467.3639416563646591
 20
455.5207709965916933
 30
0.0
 40
0.032344545040726
 50
203.9817374958876997
 51
223.8317588615263105
  0
ARC
  5
1A94F
  8
0
 10
4467.3374136200536668
 20
455.5013847417213242
 30
0.0
 40
0.0043924332706208
 50
316.6762205938799752
 51
20.7589791465266309
  0
ARC
  5
1A950
  8
0
 10
4467.3821151881893456
 20
455.4534830714550253
 30
0.0
 40
0.0114604661181529
 50
207.4844721036905071
 51
254.3692187890563901
  0
ARC
  5
1A951
  8
0
 10
4467.3712516988052812
 20
455.4449473785460896
 30
0.0
 40
0.0081679171238752
 50
342.1701755200419939
 51
13.6169503293272491
  0
ARC
  5
1A952
  8
0
 10
4467.444070040060069
 20
455.4223846766363977
 30
0.0
 40
0.0388684749421377
 50
207.6728040119998866
 51
233.9288787421062921
  0
ARC
  5
1A953
  8
0
 10
4467.402444078262306
 20
455.3876609153991808
 30
0.0
 40
0.0231123782098739
 50
12.4223140915332095
 51
29.4791421267156686
  0
ARC
  5
1A954
  8
0
 10
4467.4229371743049342
 20
455.3921749824365861
 30
0.0
 40
0.0021280081529255
 50
214.560858926597092
 51
12.42231409150458
  0
ARC
  5
1A955
  8
0
 10
4467.4956126155921083
 20
455.3783987100164836
 30
0.0
 40
0.041764873209058
 50
216.883412915988913
 51
237.8735609201546879
  0
ARC
  5
1A956
  8
0
 10
4467.4589874899602364
 20
455.3393363761538239
 30
0.0
 40
0.020169834295845
 50
5.6028492656830506
 51
37.0952788931078103
  0
ARC
  5
1A957
  8
0
 10
4467.4865406755943695
 20
455.3760146312743018
 30
0.0
 40
0.0355058103965706
 50
248.2825968784640907
 51
257.8388719036223051
  0
ARC
  5
1A958
  8
0
 10
4467.5401373036083896
 20
455.3328850692053038
 30
0.0
 40
0.0315283357084051
 50
222.0228163156288019
 51
253.4502892835477894
  0
ARC
  5
1A959
  8
0
 10
4467.5279122496922355
 20
455.3073920812315123
 30
0.0
 40
0.0057350685749583
 50
304.4505493997240819
 51
34.4081632204516694
  0
ARC
  5
1A95A
  8
0
 10
4467.5960297415485911
 20
455.2976985275943207
 30
0.0
 40
0.0290314132664068
 50
227.3312007765485987
 51
256.3563137137243757
  0
ARC
  5
1A95B
  8
0
 10
4467.5893749548540654
 20
455.2740535975249259
 30
0.0
 40
0.004571344111015
 50
267.5773432517058836
 51
47.5086603789666313
  0
ARC
  5
1A95C
  8
0
 10
4467.6568884855951183
 20
455.2849987377588263
 30
0.0
 40
0.0421873076603997
 50
208.5450317848975033
 51
259.1654183486006104
  0
ARC
  5
1A95D
  8
0
 10
4467.6501581176889886
 20
455.2470761217292079
 30
0.0
 40
0.0037118985828653
 50
251.1423015348175909
 51
26.4292315956189015
  0
ARC
  5
1A95E
  8
0
 10
4467.7131405220607121
 20
455.264153838423681
 30
0.0
 40
0.0406393710136873
 50
212.100103993117898
 51
272.5379291946177887
  0
ARC
  5
1A95F
  8
0
 10
4467.7150028110036146
 20
455.2286647544303833
 30
0.0
 40
0.005110810167568
 50
269.2965370876224824
 51
21.8448392873350308
  0
ARC
  5
1A960
  8
0
 10
4467.7816325417961707
 20
455.240252373457281
 30
0.0
 40
0.0328917457717906
 50
212.3905075244290117
 51
278.9790196735003747
  0
ARC
  5
1A961
  8
0
 10
4467.7857350628528366
 20
455.2139913050871769
 30
0.0
 40
0.0063123707474254
 50
279.400104414400289
 51
17.3651358362775987
  0
ARC
  5
1A962
  8
0
 10
4467.8520615421857656
 20
455.2256524840266252
 30
0.0
 40
0.026676057591196
 50
212.7748678245341978
 51
289.7066348370706805
  0
ARC
  5
1A963
  8
0
 10
4467.8604291085675868
 20
455.2055261635886154
 30
0.0
 40
0.0050267077304818
 50
277.1735859063267071
 51
39.5006634625067079
  0
LINE
  5
1A964
  8
0
 10
4466.6819735147018946
 20
464.1145487744096272
 30
0.0
 11
4466.6819735147018946
 21
464.1221550736096901
 31
0.0
  0
ARC
  5
1A965
  8
0
 10
4466.7046113098322166
 20
464.1221550736797781
 30
0.0
 40
0.0226377951306777
 50
89.9995141297367667
 51
180.0000001775069052
  0
ARC
  5
1A966
  8
0
 10
4466.6091250894332916
 20
464.0919109792798736
 30
0.0
 40
0.0226377951304875
 50
89.9995488036606588
 51
180.0000004308080861
  0
ARC
  5
1A967
  8
0
 10
4466.6091250888448485
 20
463.7927006806236818
 30
0.0
 40
0.0226377945436367
 50
179.999999023223495
 51
227.7000005560641966
  0
ARC
  5
1A968
  8
0
 10
4466.7197530703770099
 20
463.6920369624726277
 30
0.0
 40
0.0226377943663333
 50
227.6999993526497974
 51
270.0009924576170874
  0
ARC
  5
1A969
  8
0
 10
4466.8701841447727929
 20
463.6467613729803929
 30
0.0
 40
0.0226377951292882
 50
359.9999995679315248
 51
90.0000001789464505
  0
ARC
  5
1A96A
  8
0
 10
4466.9154597345723232
 20
463.542949278084393
 30
0.0
 40
0.0226377946707119
 50
179.9999996831894862
 51
225.0000009021829044
  0
ARC
  5
1A96B
  8
0
 10
4466.9927500029816656
 20
463.4656590109412946
 30
0.0
 40
0.0226377956373141
 50
225.0000004485742977
 51
270.0012895818933885
  0
LINE
  5
1A96C
  8
0
 10
4466.5938895700019202
 20
463.7759570637097113
 30
0.0
 11
4466.7045175513021604
 21
463.6752933460097097
 31
0.0
  0
LINE
  5
1A96D
  8
0
 10
4466.892821939901296
 20
463.6467613729803929
 30
0.0
 11
4466.892821939901296
 21
463.542949278084393
 31
0.0
  0
LINE
  5
1A96E
  8
0
 10
4466.8994523967021451
 20
463.5269419397096158
 30
0.0
 11
4466.9767426643020372
 21
463.4496516720096793
 31
0.0
  0
LINE
  5
1A96F
  8
0
 10
4469.210479420302363
 20
464.0919109792798736
 30
0.0
 11
4469.210479420302363
 21
463.7927006802377718
 31
0.0
  0
LINE
  5
1A970
  8
0
 10
4468.5220561920014006
 20
463.4430212153096136
 30
0.0
 11
4468.5220561920014006
 21
455.7334952581545053
 31
0.0
  0
LINE
  5
1A971
  8
0
 10
4469.1149931999007094
 20
464.1145487744096272
 30
0.0
 11
4469.1149931999007094
 21
464.1221550736096901
 31
0.0
  0
ARC
  5
1A972
  8
0
 10
4469.0923554047722064
 20
464.1221550736804033
 30
0.0
 40
0.0226377951292847
 50
359.9999998210274725
 51
90.0000000035434766
  0
ARC
  5
1A973
  8
0
 10
4469.1878416251720409
 20
464.0919109792803283
 30
0.0
 40
0.0226377951292847
 50
359.9999995679248741
 51
90.0000000030223788
  0
ARC
  5
1A974
  8
0
 10
4469.1878416257577555
 20
463.7927006806236818
 30
0.0
 40
0.0226377945436436
 50
312.2999994439808802
 51
0.0
  0
ARC
  5
1A975
  8
0
 10
4469.0772136442392366
 20
463.6920369624506861
 30
0.0
 40
0.0226377943411151
 50
269.9999999658678007
 51
312.3000006592603768
  0
ARC
  5
1A976
  8
0
 10
4468.9267825698298111
 20
463.6467613729803929
 30
0.0
 40
0.0226377951292882
 50
89.9999998210535637
 51
180.0000004320685036
  0
ARC
  5
1A977
  8
0
 10
4468.8815069800311903
 20
463.542949278084393
 30
0.0
 40
0.0226377946707119
 50
314.9999990978170104
 51
0.0000003168105227
  0
ARC
  5
1A978
  8
0
 10
4468.8042167116409473
 20
463.4656590109092917
 30
0.0
 40
0.0226377955996497
 50
269.9999999460138156
 51
314.9999995703790887
  0
LINE
  5
1A979
  8
0
 10
4469.2030771446006838
 20
463.7759570637097113
 30
0.0
 11
4469.0924491633013531
 21
463.6752933460097097
 31
0.0
  0
LINE
  5
1A97A
  8
0
 10
4468.9041447747013081
 20
463.6467613729803929
 30
0.0
 11
4468.9041447747013081
 21
463.542949278084393
 31
0.0
  0
LINE
  5
1A97B
  8
0
 10
4468.8975143179013685
 20
463.5269419397096158
 30
0.0
 11
4468.8202240503005669
 21
463.4496516720096793
 31
0.0
  0
LINE
  5
1A97C
  8
0
 10
4466.8994523966339329
 20
463.5269419396419153
 30
0.0
 11
4468.8975143179013685
 21
463.5269419397096158
 31
0.0
  0
LINE
  5
1A97D
  8
0
 10
4466.5938895700019202
 20
463.7759570637097113
 30
0.0
 11
4469.2030771445006394
 21
463.7759570637097113
 31
0.0
  0
ARC
  5
1A97F
  8
0
 10
4466.4049696073107043
 20
455.8674227468433742
 30
0.0
 40
0.8713714235042335
 50
358.281169188154081
 51
3.2835269386363608
  0
ARC
  5
1A980
  8
0
 10
4470.3602768353166539
 20
456.0288225762406
 30
0.0
 40
3.0848461462316799
 50
181.5921517640016987
 51
182.569800388837308
  0
LINE
  5
1A981
  8
0
 10
4468.5220561920014006
 20
463.4430212153096136
 30
0.0
 11
4468.5220561920014006
 21
455.7334952581545053
 31
0.0
  0
ARC
  5
1A982
  8
0
 10
4468.0465344964077303
 20
455.7345275393402062
 30
0.0
 40
0.4755228160500952
 50
350.8609276326495205
 51
359.875620265392115
  0
ARC
  5
1A983
  8
0
 10
4468.0255542591139601
 20
455.7383861478626841
 30
0.0
 40
0.4968498218081566
 50
338.7893574436802737
 51
350.8058855955903823
  0
ARC
  5
1A984
  8
0
 10
4468.0224690638997345
 20
455.7395834755525925
 30
0.0
 40
0.5001592059057564
 50
323.0845892740936733
 51
338.7893574436802737
  0
ARC
  5
1A985
  8
0
 10
4467.9532606782640869
 20
455.7915757158423276
 30
0.0
 40
0.5867212858995411
 50
304.5532205420354899
 51
323.0845892740936733
  0
ARC
  5
1A986
  8
0
 10
4467.8984606022186199
 20
456.2463228070496939
 30
0.0
 40
0.7102333228988919
 50
287.4439740389548774
 51
289.9714349154697857
  0
ARC
  5
1A987
  8
0
 10
4467.8984606022186199
 20
456.2463228070496939
 30
0.0
 40
0.7102333228988919
 50
280.888995660743376
 51
283.7224214058749112
  0
ARC
  5
1A988
  8
0
 10
4467.8984606022186199
 20
456.2463228070496939
 30
0.0
 40
0.7102333228988919
 50
275.4539093592077279
 51
277.8880231310113231
  0
ARC
  5
1A989
  8
0
 10
4467.9461356807241827
 20
456.1434063193980819
 30
0.0
 40
0.5968506380670237
 50
322.7477526022130974
 51
325.1386376638915863
  0
ARC
  5
1A98A
  8
0
 10
4467.9461356807241827
 20
456.1434063193980819
 30
0.0
 40
0.5968506380670237
 50
315.1084412552186222
 51
319.1682556047816774
  0
ARC
  5
1A98B
  8
0
 10
4467.9461356807241827
 20
456.1434063193980819
 30
0.0
 40
0.5968506380670237
 50
307.2512775034384731
 51
311.0312484038843763
  0
ARC
  5
1A98C
  8
0
 10
4467.9461356807241827
 20
456.1434063193980819
 30
0.0
 40
0.5968506380670237
 50
300.1604237265183883
 51
303.7364123103869815
  0
ARC
  5
1A98D
  8
0
 10
4467.9461347379556173
 20
456.1434082666769996
 30
0.0
 40
0.5968528013057725
 50
293.1944369910874002
 51
296.7135243631980757
  0
ARC
  5
1A98E
  8
0
 10
4468.23560417446879
 20
456.0024699910022719
 30
0.0
 40
0.2725985048130882
 50
334.7867260547885166
 51
340.981968856806418
  0
ARC
  5
1A98F
  8
0
 10
4468.0460047956839844
 20
456.0738367350493832
 30
0.0
 40
0.4751388178141857
 50
329.4198174115975917
 51
332.6308402492978757
  0
ARC
  5
1A990
  8
0
 10
4468.009093597824176
 20
456.0841722649437884
 30
0.0
 40
0.5134697414342443
 50
356.1287230769771099
 51
357.4532694681171847
  0
ARC
  5
1A991
  8
0
 10
4468.0090935637572329
 20
456.0841722702086258
 30
0.0
 40
0.5134697759024613
 50
350.2436174999705258
 51
354.1308688480424962
  0
ARC
  5
1A992
  8
0
 10
4468.009093597824176
 20
456.0841722649437884
 30
0.0
 40
0.5134697414342443
 50
344.3571857056311956
 51
347.123011159234693
  0
ARC
  5
1A993
  8
0
 10
4468.0444376036057292
 20
456.0878115575524134
 30
0.0
 40
0.4776186081341302
 50
338.750247020102222
 51
359.9833210077405283
  0
ARC
  5
1A994
  8
0
 10
4468.003323994927996
 20
456.1037995614984197
 30
0.0
 40
0.5217314757438682
 50
318.2962591121643072
 51
338.750247020102222
  0
ARC
  5
1A995
  8
0
 10
4467.9430168549870359
 20
456.157538326795418
 30
0.0
 40
0.6025077471580187
 50
299.5859219639481239
 51
318.2962591121643072
  0
ARC
  5
1A996
  8
0
 10
4467.9866562016113676
 20
455.5418627294931184
 30
0.0
 40
0.047908651739955
 50
175.3107404654763002
 51
185.5302421966702013
  0
ARC
  5
1A997
  8
0
 10
4468.0760986062969096
 20
455.4203512236970823
 30
0.0
 40
0.1801899799099047
 50
139.5541454839562903
 51
144.8915537761816097
  0
ARC
  5
1A998
  8
0
 10
4467.8812947045025794
 20
455.5573046048626793
 30
0.0
 40
0.0579376933379167
 50
287.2579921052621899
 51
324.8915537761815244
  0
ARC
  5
1A999
  8
0
 10
4462.7078611009101223
 20
459.9523936553404724
 30
0.0
 40
6.8646484120013049
 50
319.1249146666490901
 51
319.9932737927173889
  0
ARC
  5
1A99A
  8
0
 10
4467.9176488905231963
 20
455.5342369163315084
 30
0.0
 40
0.0485808842014466
 50
5.9411910629517442
 51
16.0536949675669192
  0
ARC
  5
1A99B
  8
0
 10
4468.0300868020067355
 20
455.5500574323096998
 30
0.0
 40
0.0349160928115677
 50
178.0722384572015073
 51
191.980505174805387
  0
ARC
  5
1A99C
  8
0
 10
4464.7962856310714415
 20
458.0989951296052141
 30
0.0
 40
4.0953408342476063
 50
319.2438043995720136
 51
321.3787663991994918
  0
ARC
  5
1A99D
  8
0
 10
4467.9972684741023841
 20
455.5408313532096827
 30
0.0
 40
0.0362638952999521
 50
12.8188949260093406
 51
26.3543352265940385
  0
ARC
  5
1A99E
  8
0
 10
4468.0941758835706423
 20
455.5661021299479216
 30
0.0
 40
0.0289241906104917
 50
182.8594535027226016
 51
199.678534102908003
  0
ARC
  5
1A99F
  8
0
 10
4468.0823479330611008
 20
455.5574613871760903
 30
0.0
 40
0.0311406773963607
 50
21.2594379657035297
 51
37.2163793732987003
  0
ARC
  5
1A9A0
  8
0
 10
4468.1688888924791172
 20
455.593391153642699
 30
0.0
 40
0.031437749158229
 50
192.1738205707760017
 51
207.6522438199066016
  0
ARC
  5
1A9A1
  8
0
 10
4468.1511299817893814
 20
455.5783271099917897
 30
0.0
 40
0.0342909688683784
 50
28.7047609628065601
 51
43.25814948479794
  0
ARC
  5
1A9A2
  8
0
 10
4468.2459705907276657
 20
455.6332817405245805
 30
0.0
 40
0.0390422143395944
 50
203.6419618871767909
 51
216.1324134955908107
  0
ARC
  5
1A9A3
  8
0
 10
4468.2117378972016013
 20
455.6025836618097173
 30
0.0
 40
0.0422853404999465
 50
35.8623402337008983
 51
47.1563613785833127
  0
ARC
  5
1A9A4
  8
0
 10
4468.3064434971720402
 20
455.6743743700508844
 30
0.0
 40
0.0397136401916363
 50
212.0663843640228947
 51
223.4458784850831137
  0
ARC
  5
1A9A5
  8
0
 10
4468.2761547613008588
 20
455.6386445590097196
 30
0.0
 40
0.0431036499000134
 50
43.5090127069477788
 51
53.7286276825165672
  0
ARC
  5
1A9A6
  8
0
 10
4468.3606523704056599
 20
455.7207516574106876
 30
0.0
 40
0.0357220239143463
 50
219.1161047853765922
 51
230.5419193479716
  0
ARC
  5
1A9A7
  8
0
 10
4468.3449631954217693
 20
455.6915757361728083
 30
0.0
 40
0.0388882592555687
 50
51.8771869501857879
 51
61.8157890258271721
  0
ARC
  5
1A9A8
  8
0
 10
4468.4202511847452115
 20
455.7893796155404971
 30
0.0
 40
0.0426478432738539
 50
230.0145453998337075
 51
238.1286217586236944
  0
ARC
  5
1A9A9
  8
0
 10
4468.3980838908018995
 20
455.7427969920094029
 30
0.0
 40
0.0456201114003453
 50
59.5321129229972286
 51
66.7381492385452333
  0
ARC
  5
1A9AA
  8
0
 10
4468.4559691468612073
 20
455.8441864638065795
 30
0.0
 40
0.0465017001200018
 50
237.5119590883076057
 51
244.3967172036350064
  0
ARC
  5
1A9AB
  8
0
 10
4468.4342070848006188
 20
455.7880967930101974
 30
0.0
 40
0.0487060018994643
 50
64.650026520241326
 51
71.0973162738052338
  0
ARC
  5
1A9AC
  8
0
 10
4468.4844290072005606
 20
455.9021210860099131
 30
0.0
 40
0.0495346669003093
 50
244.6102791537329892
 51
250.5784978019543132
  0
ARC
  5
1A9AD
  8
0
 10
4468.4652785624912212
 20
455.8379053447591787
 30
0.0
 40
0.0513216692522517
 50
70.711039508380793
 51
75.4795218169684148
  0
ARC
  5
1A9AE
  8
0
 10
4468.5054631296006846
 20
455.9632954020094076
 30
0.0
 40
0.0511183720996909
 50
251.9009373998208901
 51
256.261733036635917
  0
ARC
  5
1A9AF
  8
0
 10
4468.4913833819364299
 20
455.8947864379829866
 30
0.0
 40
0.0523659441416895
 50
76.5707181725037032
 51
79.8400946303696202
  0
ARC
  5
1A9B0
  8
0
 10
4468.5192709854018176
 20
456.0311580962090261
 30
0.0
 40
0.0621659877993241
 50
258.9313280126767154
 51
261.0969335933631896
  0
ARC
  5
1A9B1
  8
0
 10
4468.5061746370029141
 20
455.9351625701199282
 30
0.0
 40
0.0626419449895986
 50
81.7741870468259577
 51
83.3601222795223578
  0
ARC
  5
1A9B2
  8
0
 10
4468.523792058645995
 20
456.1030003569038058
 30
0.0
 40
0.0714414097760971
 50
265.9553918626472182
 51
266.8543520044675006
  0
ARC
  5
1A9B3
  8
0
 10
4468.5181428755040542
 20
455.9856717122614214
 30
0.0
 40
0.0705942444482304
 50
87.0310569785527832
 51
87.6727807223213205
  0
ARC
  5
1A9B4
  8
0
 10
4480.9425133798849856
 20
444.9527975497724128
 30
0.0
 40
16.7015577468494989
 50
140.6217886113774114
 51
141.2985055088172999
  0
ARC
  5
1A9B5
  8
0
 10
4463.2109700367136611
 20
459.300441432732498
 30
0.0
 40
6.131768379419114
 50
319.9594439227162752
 51
322.3668463834771956
  0
ARC
  5
1A9B6
  8
0
 10
4466.5656143872138273
 20
456.5266836822805203
 30
0.0
 40
1.8185132262005439
 50
318.0823926235125896
 51
328.2127938553671811
  0
ARC
  5
1A9B7
  8
0
 10
4466.3627402889096629
 20
456.6541127167677132
 30
0.0
 40
2.0781367949116438
 50
318.298485419676183
 51
328.8392849784157193
  0
ARC
  5
1A9B8
  8
0
 10
4466.3455535635393971
 20
456.6586877666534861
 30
0.0
 40
2.121670690305046
 50
317.4164356193787739
 51
329.9046758898551843
  0
ARC
  5
1A9B9
  8
0
 10
4464.7392887109936055
 20
457.7493132683350723
 30
0.0
 40
4.0807118452787501
 50
321.4948538692557918
 51
328.3865241445067795
  0
ARC
  5
1A9BA
  8
0
 10
4466.0442551061769336
 20
456.8003877593521906
 30
0.0
 40
2.4947374625749421
 50
320.430677356630099
 51
331.9525613241494284
  0
ARC
  5
1A9BB
  8
0
 10
4466.5142632753713769
 20
456.4594177105747121
 30
0.0
 40
1.941471319411602
 50
320.1697324498563262
 51
335.2650349233938982
  0
ARC
  5
1A9BC
  8
0
 10
4466.4359071590706662
 20
456.4769735875224796
 30
0.0
 40
2.0387415874362471
 50
322.0297291444845769
 51
336.6314880977848247
  0
ARC
  5
1A9BD
  8
0
 10
4466.6635497231773115
 20
456.332108967046679
 30
0.0
 40
1.792166221235667
 50
322.0740118887018184
 51
339.1135468962226014
  0
ARC
  5
1A9BE
  8
0
 10
4466.6155752039821891
 20
456.3334253023745077
 30
0.0
 40
1.856887405716213
 50
324.0222629928658193
 51
340.780778688552914
  0
ARC
  5
1A9BF
  8
0
 10
4466.8722490129039215
 20
456.2057555293798146
 30
0.0
 40
1.591207477868624
 50
323.026384332733528
 51
343.4749632807208855
  0
ARC
  5
1A9C0
  8
0
 10
4467.0147415398560042
 20
456.1295413624869752
 30
0.0
 40
1.4487488271776381
 50
323.3545811421154781
 51
346.1247008181305205
  0
ARC
  5
1A9C1
  8
0
 10
4467.0443213665448638
 20
456.1023047601779012
 30
0.0
 40
1.4235347311641411
 50
324.5874828495661859
 51
347.8318827949224783
  0
ARC
  5
1A9C2
  8
0
 10
4467.0861038062239459
 20
456.0822748797987174
 30
0.0
 40
1.391626071762901
 50
324.6111165472892139
 51
349.6440806940062203
  0
ARC
  5
1A9C3
  8
0
 10
4467.011351862983247
 20
456.0894371918520847
 30
0.0
 40
1.475287238413044
 50
328.1363160335404245
 51
350.8723260719410177
  0
ARC
  5
1A9C4
  8
0
 10
4467.0377973407994432
 20
456.0713308945017275
 30
0.0
 40
1.456231520185755
 50
328.5612215929024842
 51
352.7020089604201871
  0
ARC
  5
1A9C5
  8
0
 10
4467.0842046309671787
 20
456.0361613837602022
 30
0.0
 40
1.414435118847414
 50
331.0496387633601785
 51
355.0306690323267276
  0
ARC
  5
1A9C6
  8
0
 10
4467.1115166824120024
 20
456.0221015025069846
 30
0.0
 40
1.3941223753578831
 50
331.3337636845532188
 51
356.8593157380560115
  0
ARC
  5
1A9C7
  8
0
 10
4467.0069211592317515
 20
456.024482758980696
 30
0.0
 40
1.5037255534693339
 50
335.42195591250902
 51
357.913742557130206
  0
ARC
  5
1A9C8
  8
0
 10
4467.0560024119822629
 20
456.0015680120823163
 30
0.0
 40
1.45914136901022
 50
335.838780303860176
 51
359.826913145917672
  0
ARC
  5
1A9C9
  8
0
 10
4466.0677505431767713
 20
456.0905115193913275
 30
0.0
 40
2.4528271811978168
 50
350.3696108061610062
 51
358.625304864993609
  0
ARC
  5
1A9CA
  8
0
 10
4467.4547178982784317
 20
455.8551668023335992
 30
0.0
 40
1.0460345241352631
 50
337.0250964760512034
 51
350.3696108061610062
  0
ARC
  5
1A9CB
  8
0
 10
4468.3125854163690747
 20
455.5174917327191793
 30
0.0
 40
0.1320733958650678
 50
328.3525366476985141
 51
342.722527968797408
  0
ARC
  5
1A9CC
  8
0
 10
4467.4283171418510392
 20
455.8566224261438151
 30
0.0
 40
1.0789002674730259
 50
339.4706522599552727
 51
350.6645894461963735
  0
ARC
  5
1A9CD
  8
0
 10
4466.1219284858116225
 20
456.0501003841914098
 30
0.0
 40
2.3994633178496092
 50
351.1660141849064871
 51
359.9857899519939792
  0
ARC
  5
1A9CE
  8
0
 10
4470.6998988375080444
 20
454.8335448954902063
 30
0.0
 40
2.3421488591262141
 50
162.5059210394396132
 51
163.3930564340415117
  0
ARC
  5
1A9CF
  8
0
 10
4467.0734374690855475
 20
455.9245519240475915
 30
0.0
 40
1.4453972081639781
 50
344.472250756983783
 51
358.6504102235142
  0
ARC
  5
1A9D0
  8
0
 10
4468.1853593126088526
 20
455.6152996966679893
 30
0.0
 40
0.2973950345091889
 50
338.7732080004806221
 51
344.5399321469171241
  0
ARC
  5
1A9D1
  8
0
 10
4467.2192558147244199
 20
455.8824989408170723
 30
0.0
 40
1.299767921563022
 50
344.5399321469171241
 51
358.3705222456626984
  0
ARC
  5
1A9D2
  8
0
 10
4460.1749202976807283
 20
456.0828921254484953
 30
0.0
 40
8.3469531969132742
 50
358.3705222456626984
 51
359.8208250786614144
  0
ARC
  5
1A9D3
  8
0
 10
4467.2487197218742949
 20
455.8544176811785178
 30
0.0
 40
1.2699372463255421
 50
346.6031067975554265
 51
352.3032643380349782
  0
ARC
  5
1A9D4
  8
0
 10
4467.0867607880663854
 20
455.8763059921976151
 30
0.0
 40
1.4333685603368691
 50
352.3032643380349782
 51
1.012835622304292
  0
ARC
  5
1A9D5
  8
0
 10
4467.1235373341523882
 20
455.8584407818385102
 30
0.0
 40
1.3975857036954891
 50
348.1014401612251845
 51
359.296707597433624
  0
ARC
  5
1A9D6
  8
0
 10
4467.1282073002594188
 20
455.8268024200427817
 30
0.0
 40
1.3928955222930819
 50
351.9437689407693028
 51
0.6135057275777807
  0
ARC
  5
1A9D7
  8
0
 10
4467.3928470635537451
 20
455.7884936768409716
 30
0.0
 40
1.1281361097243641
 50
352.3047881811223192
 51
358.0471581302252275
  0
ARC
  5
1A9D8
  8
0
 10
4495.1605858445873309
 20
454.841704733349502
 30
0.0
 40
26.6557391836037603
 50
177.9410293715671116
 51
178.0471581302251991
  0
ARC
  5
1A9D9
  8
0
 10
4466.935850887523884
 20
455.7911063053639964
 30
0.0
 40
1.5860671691186361
 50
356.3819208472057767
 51
358.0444220168204197
  0
ARC
  5
1A9DA
  8
0
 10
4469.5427373776046807
 20
455.7122673558487804
 30
0.0
 40
1.022041942629377
 50
177.0430651177348977
 51
178.6143413499495978
  0
ARC
  5
1A9DB
  8
0
 10
4468.4345183005916624
 20
455.7046122879277164
 30
0.0
 40
0.0860845953396556
 50
348.5171766729102956
 51
357.235679984225726
  0
ARC
  5
1A9DC
  8
0
 10
4464.0649042198820098
 20
455.9168533633653055
 30
0.0
 40
4.4608501271062204
 50
357.2195302964340726
 51
357.6668031785181938
  0
ARC
  5
1A9DD
  8
0
 10
4468.5346339440402517
 20
455.689795439139175
 30
0.0
 40
0.0159240435765518
 50
175.6009698900336105
 51
188.3786753284529141
  0
ARC
  5
1A9DE
  8
0
 10
4468.4618806122125534
 20
455.6423322809790761
 30
0.0
 40
0.0491876678361603
 50
335.821145944569821
 51
354.2829987002252778
  0
ARC
  5
1A9DF
  8
0
 10
4468.5438322056870675
 20
455.6245326987302064
 30
0.0
 40
0.0371532996338714
 50
169.0418893932580033
 51
183.6218512159682916
  0
ARC
  5
1A9E0
  8
0
 10
4468.4507022371435596
 20
455.5803807440212836
 30
0.0
 40
0.041634549651962
 50
323.342613603390987
 51
345.9697879847839772
  0
ARC
  5
1A9E1
  8
0
 10
4468.4924501352361403
 20
455.5578556791385836
 30
0.0
 40
0.0086674297688701
 50
164.4490624907053871
 51
195.6076250598422916
  0
ARC
  5
1A9E2
  8
0
 10
4468.4330250582388544
 20
455.5207709965916933
 30
0.0
 40
0.032344545040726
 50
316.1682411384737179
 51
336.0182625041122719
  0
ARC
  5
1A9E3
  8
0
 10
4468.4595530945489372
 20
455.5013847417213242
 30
0.0
 40
0.0043924332706208
 50
159.2410208534734011
 51
223.32377940612011
  0
ARC
  5
1A9E4
  8
0
 10
4468.4148515264132584
 20
455.4534830714550253
 30
0.0
 40
0.0114604661181529
 50
285.6307812109434963
 51
332.5155278963093792
  0
ARC
  5
1A9E5
  8
0
 10
4468.4257150157973228
 20
455.4449473785460896
 30
0.0
 40
0.0081679171238752
 50
166.3830496706727047
 51
197.8298244799578924
  0
ARC
  5
1A9E6
  8
0
 10
4468.3528966745434445
 20
455.4223846766363977
 30
0.0
 40
0.0388684749421377
 50
306.0711212578937079
 51
332.327195988000085
  0
ARC
  5
1A9E7
  8
0
 10
4468.394522636342117
 20
455.3876609153991808
 30
0.0
 40
0.0231123782098739
 50
150.5208578732843137
 51
167.5776859084668047
  0
ARC
  5
1A9E8
  8
0
 10
4468.3740295402976699
 20
455.3921749824365861
 30
0.0
 40
0.0021280081529255
 50
167.5776859084953969
 51
325.4391410734028796
  0
ARC
  5
1A9E9
  8
0
 10
4468.3013540990114052
 20
455.3783987100164836
 30
0.0
 40
0.041764873209058
 50
302.1264390798452837
 51
323.116587084011087
  0
ARC
  5
1A9EA
  8
0
 10
4468.3379792246432771
 20
455.3393363761538239
 30
0.0
 40
0.020169834295845
 50
142.9047211068921968
 51
174.3971507343169094
  0
ARC
  5
1A9EB
  8
0
 10
4468.3104260390100535
 20
455.3760146312743018
 30
0.0
 40
0.0355058103965706
 50
282.1611280963776949
 51
291.7174031215359946
  0
ARC
  5
1A9EC
  8
0
 10
4468.2568294109951239
 20
455.3328850692053038
 30
0.0
 40
0.0315283357084051
 50
286.5497107164521822
 51
317.9771836843713118
  0
ARC
  5
1A9ED
  8
0
 10
4468.269054464911278
 20
455.3073920812315123
 30
0.0
 40
0.0057350685749583
 50
145.591836779548288
 51
235.5494506002758897
  0
ARC
  5
1A9EE
  8
0
 10
4468.2009369730549224
 20
455.2976985275943207
 30
0.0
 40
0.0290314132664068
 50
283.6436862862756243
 51
312.6687992234514013
  0
ARC
  5
1A9EF
  8
0
 10
4468.2075917597494481
 20
455.2740535975249259
 30
0.0
 40
0.004571344111015
 50
132.4913396210332905
 51
272.4226567482941164
  0
ARC
  5
1A9F0
  8
0
 10
4468.1400782290083953
 20
455.2849987377588263
 30
0.0
 40
0.0421873076603997
 50
280.8345816513992759
 51
331.4549682151024967
  0
ARC
  5
1A9F1
  8
0
 10
4468.1468085969136155
 20
455.2470761217292079
 30
0.0
 40
0.0037118985828653
 50
153.5707684043811128
 51
288.8576984651824091
  0
ARC
  5
1A9F2
  8
0
 10
4468.0838261925418919
 20
455.264153838423681
 30
0.0
 40
0.0406393710136873
 50
267.4620708053822113
 51
327.8998960068819883
  0
ARC
  5
1A9F3
  8
0
 10
4468.0819639035989894
 20
455.2286647544303833
 30
0.0
 40
0.005110810167568
 50
158.1551607126648946
 51
270.7034629123775176
  0
ARC
  5
1A9F4
  8
0
 10
4468.0153341728073428
 20
455.240252373457281
 30
0.0
 40
0.0328917457717906
 50
261.0209803264996253
 51
327.6094924755710167
  0
ARC
  5
1A9F5
  8
0
 10
4468.0112316517497675
 20
455.2139913050871769
 30
0.0
 40
0.0063123707474254
 50
162.6348641637223977
 51
260.599895585599711
  0
ARC
  5
1A9F6
  8
0
 10
4467.944905172417748
 20
455.2256524840266252
 30
0.0
 40
0.026676057591196
 50
250.293365162929291
 51
327.2251321754657738
  0
ARC
  5
1A9F7
  8
0
 10
4467.9365376060350172
 20
455.2055261635886154
 30
0.0
 40
0.0050267077304818
 50
140.4993365374932921
 51
262.8264140936732929
  0
ARC
  5
1A9F8
  8
0
 10
4469.3919971072918997
 20
455.8674227468433742
 30
0.0
 40
0.8713714235042335
 50
176.7164730613635868
 51
181.7188308118458906
  0
ARC
  5
1A9F9
  8
0
 10
4465.4366898792850407
 20
456.0288225762406
 30
0.0
 40
3.0848461462316799
 50
357.4301996111627204
 51
358.4078482359981876
  0
ARC
  5
1A9FA
  8
0
 10
4467.898483357301302
 20
455.2870363319823923
 30
0.0
 40
0.0220928200419709
 50
224.2071078440488918
 51
315.7928921559558262
  0
ARC
  5
1A9FB
  8
0
 10
4467.898483357301302
 20
455.2311132618394254
 30
0.0
 40
0.0122763233183764
 50
221.1941615502813931
 51
318.8058384497160773
  0
ARC
  5
1A9FC
  8
0
 10
4467.898483357301302
 20
455.362121481262875
 30
0.0
 40
0.0094326585365437
 50
222.9634697141395066
 51
317.0365302859150916
  0
ARC
  5
1A9FD
  8
0
 10
4467.898483357301302
 20
455.4038547951926716
 30
0.0
 40
0.0128483239413146
 50
219.6063771173556063
 51
320.3936228826618731
  0
ENDSEC
  0
EOF
