  0
SECTION
  2
HEADER
  9
$ACADVER
  1
AC1009
  9
$INSBASE
 10
4548.5008073221515588
 20
457.663524887003291
 30
0.0
  9
$EXTMIN
 10
4545.4775120465510554
 20
454.6402296114035266
 30
0.0
  9
$EXTMAX
 10
4551.5241025977511526
 20
460.6868201626035102
 30
0.0
  9
$LIMMIN
 10
0.0
 20
0.0
  9
$LIMMAX
 10
11.6929133858000007
 20
8.2677165353999982
  9
$ORTHOMODE
 70
     0
  9
$REGENMODE
 70
     1
  9
$FILLMODE
 70
     1
  9
$QTEXTMODE
 70
     0
  9
$MIRRTEXT
 70
     0
  9
$DRAGMODE
 70
     2
  9
$LTSCALE
 40
0.6431102362
  9
$OSMODE
 70
  4095
  9
$ATTMODE
 70
     1
  9
$TEXTSIZE
 40
0.2
  9
$TRACEWID
 40
0.05
  9
$TEXTSTYLE
  7
STANDARD
  9
$CLAYER
  8
0
  9
$CELTYPE
  6
BYLAYER
  9
$CECOLOR
 62
   256
  9
$DIMSCALE
 40
1.0
  9
$DIMASZ
 40
0.1875
  9
$DIMEXO
 40
0.0625
  9
$DIMDLI
 40
0.4443307087
  9
$DIMRND
 40
0.0
  9
$DIMDLE
 40
0.0
  9
$DIMEXE
 40
0.125
  9
$DIMTP
 40
0.01
  9
$DIMTM
 40
0.01
  9
$DIMTXT
 40
2.0
  9
$DIMCEN
 40
0.1052362205
  9
$DIMTSZ
 40
0.0
  9
$DIMTOL
 70
     1
  9
$DIMLIM
 70
     0
  9
$DIMTIH
 70
     1
  9
$DIMTOH
 70
     1
  9
$DIMSE1
 70
     0
  9
$DIMSE2
 70
     0
  9
$DIMTAD
 70
     0
  9
$DIMZIN
 70
     0
  9
$DIMBLK
  1

  9
$DIMASO
 70
     1
  9
$DIMSHO
 70
     1
  9
$DIMPOST
  1
\X
  9
$DIMAPOST
  1

  9
$DIMALT
 70
     1
  9
$DIMALTD
 70
     2
  9
$DIMALTF
 40
25.3999999999999986
  9
$DIMLFAC
 40
1.0
  9
$DIMTOFL
 70
     0
  9
$DIMTVP
 40
0.0
  9
$DIMTIX
 70
     0
  9
$DIMSOXD
 70
     0
  9
$DIMSAH
 70
     0
  9
$DIMBLK1
  1

  9
$DIMBLK2
  1

  9
$DIMSTYLE
  2
STANDARD
  9
$DIMCLRD
 70
     0
  9
$DIMCLRE
 70
     0
  9
$DIMCLRT
 70
     0
  9
$DIMTFAC
 40
1.0
  9
$DIMGAP
 40
0.09
  9
$LUNITS
 70
     2
  9
$LUPREC
 70
     4
  9
$SKETCHINC
 40
0.1
  9
$FILLETRAD
 40
0.0
  9
$AUNITS
 70
     0
  9
$AUPREC
 70
     0
  9
$MENU
  1
.
  9
$ELEVATION
 40
0.0
  9
$PELEVATION
 40
0.0
  9
$THICKNESS
 40
0.0
  9
$LIMCHECK
 70
     0
  9
$BLIPMODE
 70
     0
  9
$CHAMFERA
 40
0.0
  9
$CHAMFERB
 40
0.0
  9
$SKPOLY
 70
     0
  9
$TDCREATE
 40
2458060.468368056230247
  9
$TDUPDATE
 40
2460458.8174652778543532
  9
$TDINDWG
 40
1.5294009259000001
  9
$TDUSRTIMER
 40
1.5294009259000001
  9
$USRTIMER
 70
     1
  9
$ANGBASE
 50
0.0
  9
$ANGDIR
 70
     0
  9
$PDMODE
 70
     0
  9
$PDSIZE
 40
0.3125
  9
$PLINEWID
 40
0.0
  9
$COORDS
 70
     1
  9
$SPLFRAME
 70
     0
  9
$SPLINETYPE
 70
     6
  9
$SPLINESEGS
 70
     8
  9
$ATTDIA
 70
     1
  9
$ATTREQ
 70
     1
  9
$HANDLING
 70
     1
  9
$HANDSEED
  5
19EFC
  9
$SURFTAB1
 70
     6
  9
$SURFTAB2
 70
     6
  9
$SURFTYPE
 70
     6
  9
$SURFU
 70
     6
  9
$SURFV
 70
     6
  9
$UCSNAME
  2

  9
$UCSORG
 10
0.0
 20
0.0
 30
0.0
  9
$UCSXDIR
 10
1.0
 20
0.0
 30
0.0
  9
$UCSYDIR
 10
0.0
 20
1.0
 30
0.0
  9
$PUCSNAME
  2

  9
$PUCSORG
 10
0.0
 20
0.0
 30
0.0
  9
$PUCSXDIR
 10
1.0
 20
0.0
 30
0.0
  9
$PUCSYDIR
 10
0.0
 20
1.0
 30
0.0
  9
$USERI1
 70
     0
  9
$USERI2
 70
     0
  9
$USERI3
 70
     0
  9
$USERI4
 70
     0
  9
$USERI5
 70
     0
  9
$USERR1
 40
0.0
  9
$USERR2
 40
0.0
  9
$USERR3
 40
0.0
  9
$USERR4
 40
0.0
  9
$USERR5
 40
0.0
  9
$WORLDVIEW
 70
     1
  9
$SHADEDGE
 70
     3
  9
$SHADEDIF
 70
    70
  9
$TILEMODE
 70
     1
  9
$MAXACTVP
 70
    64
  9
$PLIMCHECK
 70
     0
  9
$PEXTMIN
 10
1.0000000000000000E+20
 20
1.0000000000000000E+20
 30
1.0000000000000000E+20
  9
$PEXTMAX
 10
-1.0000000000000000E+20
 20
-1.0000000000000000E+20
 30
-1.0000000000000000E+20
  9
$PLIMMIN
 10
0.0
 20
0.0
  9
$PLIMMAX
 10
12.0
 20
9.0
  9
$UNITMODE
 70
     0
  9
$VISRETAIN
 70
     1
  9
$PLINEGEN
 70
     0
  9
$PSLTSCALE
 70
     1
  0
ENDSEC
  0
SECTION
  2
TABLES
  0
TABLE
  2
VPORT
 70
     1
  0
VPORT
  2
*ACTIVE
 70
     0
 10
0.0
 20
0.0
 11
1.0
 21
1.0
 12
637.1354508768390588
 22
325.0839197844645128
 13
0.0
 23
0.0
 14
1.0
 24
1.0
 15
0.0
 25
0.0
 16
0.0
 26
0.0
 36
60.4960186965801583
 17
3911.3653564453120453
 27
132.5796051025390057
 37
0.0
 40
6.0878173049582074
 41
2.1604095563139931
 42
50.0
 43
0.0
 44
0.0
 50
0.0
 51
0.0
 71
     0
 72
   100
 73
     1
 74
     1
 75
     0
 76
     0
 77
     0
 78
     0
  0
ENDTAB
  0
TABLE
  2
LTYPE
 70
     2
  0
LTYPE
  2
CONTINUOUS
 70
     0
  3
Solid line
 72
    65
 73
     0
 40
0.0
  0
LTYPE
  2
PHANTOM2
 70
     0
  3
___ _ _ ___ _ _ ___ _ _ ___ _ _
 72
    65
 73
     6
 40
1.25
 49
0.625
 49
-0.125
 49
0.125
 49
-0.125
 49
0.125
 49
-0.125
  0
ENDTAB
  0
TABLE
  2
LAYER
 70
     2
  0
LAYER
  2
0
 70
     0
 62
   255
  6
CONTINUOUS
  0
LAYER
  2
DEFPOINTS
 70
     0
 62
     7
  6
CONTINUOUS
  0
ENDTAB
  0
TABLE
  2
STYLE
 70
     1
  0
STYLE
  2
STANDARD
 70
     0
 40
0.0
 41
0.8
 50
0.0
 71
     0
 42
0.2
  3
txt
  4

  0
ENDTAB
  0
TABLE
  2
VIEW
 70
     0
  0
ENDTAB
  0
TABLE
  2
UCS
 70
     0
  0
ENDTAB
  0
TABLE
  2
APPID
 70
    11
  0
APPID
  2
ACAD
 70
     0
  0
APPID
  2
ACAD_MLEADERVER
 70
     0
  0
APPID
  2
ACAD_EXEMPT_FROM_CAD_STANDARDS
 70
     0
  0
APPID
  2
ACAD_NAV_VCDISPLAY
 70
     0
  0
APPID
  2
ACAECLAYERSTANDARD
 70
     0
  0
APPID
  2
ACCMTRANSPARENCY
 70
     0
  0
APPID
  2
ACAD_DSTYLE_DIMJAG
 70
     0
  0
APPID
  2
ACAD_DSTYLE_DIMTALN
 70
     0
  0
APPID
  2
ACDBATTR
 70
     0
  0
APPID
  2
ACADANNOTATIVE
 70
     0
  0
APPID
  2
DCO15
 70
     0
  0
ENDTAB
  0
TABLE
  2
DIMSTYLE
 70
     1
  0
DIMSTYLE
  2
STANDARD
 70
     0
  3

  4

  5

  6

  7

 40
1.0
 41
0.1875
 42
0.0625
 43
0.38
 44
0.125
 45
0.0
 46
0.0
 47
0.01
 48
0.01
140
0.15625
141
0.09
142
0.0
143
25.3999999999999986
144
1.0
145
0.0
146
1.0
147
0.09
 71
     1
 72
     0
 73
     1
 74
     1
 75
     0
 76
     0
 77
     0
 78
     4
170
     0
171
     2
172
     0
173
     0
174
     0
175
     0
176
     0
177
     0
178
     0
  0
ENDTAB
  0
ENDSEC
  0
SECTION
  2
BLOCKS
  0
BLOCK
  8
0
  2
$MODEL_SPACE
 70
     0
 10
0.0
 20
0.0
 30
0.0
  3
$MODEL_SPACE
  1

  0
ENDBLK
  5
21
  8
0
  0
BLOCK
 67
     1
  8
0
  2
$PAPER_SPACE
 70
     0
 10
0.0
 20
0.0
 30
0.0
  3
$PAPER_SPACE
  1

  0
ENDBLK
  5
1D
 67
     1
  8
0
  0
BLOCK
  8
0
  2
_FILLED
 70
     0
 10
0.0
 20
0.0
 30
0.0
  3
_FILLED
  1

  0
SOLID
  5
19E04
  8
0
  6
BYBLOCK
 62
     0
 10
0.0
 20
0.0
 30
0.0
 11
-1.0
 21
0.1666666667
 31
0.0
 12
-1.0
 22
-0.1666666667
 32
0.0
 13
-1.0
 23
-0.1666666667
 33
0.0
  0
ENDBLK
  5
19E05
  8
0
  6
BYBLOCK
 62
     0
  0
ENDSEC
  0
SECTION
  2
ENTITIES
  0
ATTDEF
  5
194DB
  8
DEFPOINTS
 10
4548.4978464075911688
 20
457.6677025139816806
 30
0.0
 40
0.001
  1
P24918-LV
  3

  2
MODELNUMBER
 70
     0
1001
ACDBATTR
1070
     0
1070
     1
  0
ATTDEF
  5
194DC
  8
DEFPOINTS
 10
4548.4978464075911688
 20
457.6660356736026074
 30
0.0
 40
0.001
  1
PINNA PALETTA
  3

  2
TRADENAME
 70
     0
1001
ACDBATTR
1070
     0
1070
     1
  0
ATTDEF
  5
194DD
  8
DEFPOINTS
 10
4548.4978464075911688
 20
457.6643691806484071
 30
0.0
 40
0.001
  1
VALVE TRIM
  3

  2
PRODUCT
 70
     0
1001
ACDBATTR
1070
     0
1070
     1
  0
CIRCLE
  5
19E22
  8
0
 10
4548.5008073221515588
 20
457.6635248870035184
 30
0.0
 40
3.0232952756000002
  0
LINE
  5
19E23
  8
0
 10
4548.0972640150503139
 20
457.6635248870035184
 30
0.0
 11
4548.0972640150503139
 21
456.7830681941034072
 31
0.0
  0
LINE
  5
19E24
  8
0
 10
4548.9043506292509846
 20
457.6635248870035184
 30
0.0
 11
4548.9043506292509846
 21
456.7830681942742217
 31
0.0
  0
ARC
  5
19E25
  8
0
 10
4548.5008073221515588
 20
457.6635248870035184
 30
0.0
 40
0.4035433070999998
 50
0.0
 51
180.0
  0
LINE
  5
19E26
  8
0
 10
4548.8135590237079668
 20
454.8389343358032875
 30
0.0
 11
4548.1880556205942412
 21
454.8389343358032875
 31
0.0
  0
LINE
  5
19E27
  8
0
 10
4548.1011616528512604
 20
456.7680681941034209
 30
0.0
 11
4548.9004529914509476
 21
456.7680681941034209
 31
0.0
  0
ARC
  5
19E28
  8
0
 10
4548.1122640150506413
 20
456.7830681941034072
 30
0.0
 40
0.0149999999999997
 50
180.0
 51
270.0
  0
LINE
  5
19E29
  8
0
 10
4548.1011616528512604
 20
456.7680681941034209
 30
0.0
 11
4548.1011616528512604
 21
454.9238876969553189
 31
0.0
  0
ARC
  5
19E2A
  8
0
 10
4548.1161616536146539
 20
454.9238876969553189
 30
0.0
 40
0.0150000007635987
 50
180.0000005801690008
 51
224.9999983478188028
  0
LINE
  5
19E2B
  8
0
 10
4548.1055550510500325
 20
454.9132810950035264
 30
0.0
 11
4548.1741361957501795
 21
454.8446999504034807
 31
0.0
  0
ARC
  5
19E2C
  8
0
 10
4548.1880556204623645
 20
454.8586193747606217
 30
0.0
 40
0.0196850389572164
 50
224.9999992699684128
 51
270.0000003805607776
  0
LINE
  5
19E2D
  8
0
 10
4548.9004529914509476
 20
456.7680681941034209
 30
0.0
 11
4548.9004529914509476
 21
454.9238876969553189
 31
0.0
  0
ARC
  5
19E2E
  8
0
 10
4548.8854529906866446
 20
454.9238876969553189
 30
0.0
 40
0.0150000007635987
 50
315.0000016521810835
 51
359.9999994198309992
  0
LINE
  5
19E2F
  8
0
 10
4548.8960595932494471
 20
454.9132810950035264
 30
0.0
 11
4548.8274784485493001
 21
454.8446999504034807
 31
0.0
  0
ARC
  5
19E30
  8
0
 10
4548.8135590238389341
 20
454.8586193747606217
 30
0.0
 40
0.0196850389572179
 50
269.9999996194392224
 51
315.0000007300315019
  0
ARC
  5
19E31
  8
0
 10
4548.8893506290796722
 20
456.7830681942742217
 30
0.0
 40
0.0150000001707076
 50
270.0000002700871846
 51
359.9999993479416958
  0
ARC
  5
19E32
  8
0
 10
4548.5008073221515588
 20
457.6635248870035184
 30
0.0
 40
0.8269999999999997
 50
299.2066169859684237
 51
240.793383014031491
  0
ARC
  5
19E33
  8
0
 10
4548.5008073221515588
 20
457.6635248870035184
 30
0.0
 40
0.9842519684999995
 50
293.9563153235595792
 51
246.0436846764403924
  0
ARC
  5
19E34
  8
0
 10
4548.5008073221515588
 20
457.6635248870035184
 30
0.0
 40
0.7442275397999998
 50
302.8356480713712813
 51
237.1643519286286903
  0
ARC
  5
19E35
  8
0
 10
4548.5008073221515588
 20
457.6635248870035184
 30
0.0
 40
0.9172275397999998
 50
296.1013205699233026
 51
243.8986794300766121
  0
LINE
  5
19E36
  8
0
 10
4548.1055550510500325
 20
454.9132810950035264
 30
0.0
 11
4548.8960595932494471
 21
454.9132810950035264
 31
0.0
  0
CIRCLE
  5
19E37
  8
0
 10
4548.5008073221515588
 20
457.6635248870035184
 30
0.0
 40
2.8912842502999991
  0
ARC
  5
19E39
  8
0
 10
4548.5008073221515588
 20
457.5209780559152932
 30
0.0
 40
0.4279799057882285
 50
19.4551563789536317
 51
160.5448436210463967
  0
ENDSEC
  0
EOF
