  0
SECTION
  2
HEADER
  9
$ACADVER
  1
AC1009
  9
$INSBASE
 10
4565.1368505009641012
 20
460.9826893598126958
 30
0.0
  9
$EXTMIN
 10
4562.1135552253617789
 20
457.6310055834126729
 30
0.0
  9
$EXTMAX
 10
4568.1601457765627856
 20
460.9880728318443062
 30
0.0
  9
$LIMMIN
 10
0.0
 20
0.0
  9
$LIMMAX
 10
11.6929133858000007
 20
8.2677165353999982
  9
$ORTHOMODE
 70
     0
  9
$REGENMODE
 70
     1
  9
$FILLMODE
 70
     1
  9
$QTEXTMODE
 70
     0
  9
$MIRRTEXT
 70
     0
  9
$DRAGMODE
 70
     2
  9
$LTSCALE
 40
0.6431102362
  9
$OSMODE
 70
  4095
  9
$ATTMODE
 70
     1
  9
$TEXTSIZE
 40
0.2
  9
$TRACEWID
 40
0.05
  9
$TEXTSTYLE
  7
STANDARD
  9
$CLAYER
  8
0
  9
$CELTYPE
  6
BYLAYER
  9
$CECOLOR
 62
   256
  9
$DIMSCALE
 40
1.0
  9
$DIMASZ
 40
0.1875
  9
$DIMEXO
 40
0.0625
  9
$DIMDLI
 40
0.4443307087
  9
$DIMRND
 40
0.0
  9
$DIMDLE
 40
0.0
  9
$DIMEXE
 40
0.125
  9
$DIMTP
 40
0.01
  9
$DIMTM
 40
0.01
  9
$DIMTXT
 40
2.0
  9
$DIMCEN
 40
0.1052362205
  9
$DIMTSZ
 40
0.0
  9
$DIMTOL
 70
     1
  9
$DIMLIM
 70
     0
  9
$DIMTIH
 70
     1
  9
$DIMTOH
 70
     1
  9
$DIMSE1
 70
     0
  9
$DIMSE2
 70
     0
  9
$DIMTAD
 70
     0
  9
$DIMZIN
 70
     0
  9
$DIMBLK
  1

  9
$DIMASO
 70
     1
  9
$DIMSHO
 70
     1
  9
$DIMPOST
  1
\X
  9
$DIMAPOST
  1

  9
$DIMALT
 70
     1
  9
$DIMALTD
 70
     2
  9
$DIMALTF
 40
25.3999999999999986
  9
$DIMLFAC
 40
1.0
  9
$DIMTOFL
 70
     0
  9
$DIMTVP
 40
0.0
  9
$DIMTIX
 70
     0
  9
$DIMSOXD
 70
     0
  9
$DIMSAH
 70
     0
  9
$DIMBLK1
  1

  9
$DIMBLK2
  1

  9
$DIMSTYLE
  2
STANDARD
  9
$DIMCLRD
 70
     0
  9
$DIMCLRE
 70
     0
  9
$DIMCLRT
 70
     0
  9
$DIMTFAC
 40
1.0
  9
$DIMGAP
 40
0.09
  9
$LUNITS
 70
     2
  9
$LUPREC
 70
     4
  9
$SKETCHINC
 40
0.1
  9
$FILLETRAD
 40
0.0
  9
$AUNITS
 70
     0
  9
$AUPREC
 70
     0
  9
$MENU
  1
.
  9
$ELEVATION
 40
0.0
  9
$PELEVATION
 40
0.0
  9
$THICKNESS
 40
0.0
  9
$LIMCHECK
 70
     0
  9
$BLIPMODE
 70
     0
  9
$CHAMFERA
 40
0.0
  9
$CHAMFERB
 40
0.0
  9
$SKPOLY
 70
     0
  9
$TDCREATE
 40
2458060.468368056230247
  9
$TDUPDATE
 40
2460458.8173842588439584
  9
$TDINDWG
 40
1.5313800926000001
  9
$TDUSRTIMER
 40
1.5313800926000001
  9
$USRTIMER
 70
     1
  9
$ANGBASE
 50
0.0
  9
$ANGDIR
 70
     0
  9
$PDMODE
 70
     0
  9
$PDSIZE
 40
0.3125
  9
$PLINEWID
 40
0.0
  9
$COORDS
 70
     1
  9
$SPLFRAME
 70
     0
  9
$SPLINETYPE
 70
     6
  9
$SPLINESEGS
 70
     8
  9
$ATTDIA
 70
     1
  9
$ATTREQ
 70
     1
  9
$HANDLING
 70
     1
  9
$HANDSEED
  5
1A14B
  9
$SURFTAB1
 70
     6
  9
$SURFTAB2
 70
     6
  9
$SURFTYPE
 70
     6
  9
$SURFU
 70
     6
  9
$SURFV
 70
     6
  9
$UCSNAME
  2

  9
$UCSORG
 10
0.0
 20
0.0
 30
0.0
  9
$UCSXDIR
 10
1.0
 20
0.0
 30
0.0
  9
$UCSYDIR
 10
0.0
 20
1.0
 30
0.0
  9
$PUCSNAME
  2

  9
$PUCSORG
 10
0.0
 20
0.0
 30
0.0
  9
$PUCSXDIR
 10
1.0
 20
0.0
 30
0.0
  9
$PUCSYDIR
 10
0.0
 20
1.0
 30
0.0
  9
$USERI1
 70
     0
  9
$USERI2
 70
     0
  9
$USERI3
 70
     0
  9
$USERI4
 70
     0
  9
$USERI5
 70
     0
  9
$USERR1
 40
0.0
  9
$USERR2
 40
0.0
  9
$USERR3
 40
0.0
  9
$USERR4
 40
0.0
  9
$USERR5
 40
0.0
  9
$WORLDVIEW
 70
     1
  9
$SHADEDGE
 70
     3
  9
$SHADEDIF
 70
    70
  9
$TILEMODE
 70
     1
  9
$MAXACTVP
 70
    64
  9
$PLIMCHECK
 70
     0
  9
$PEXTMIN
 10
1.0000000000000000E+20
 20
1.0000000000000000E+20
 30
1.0000000000000000E+20
  9
$PEXTMAX
 10
-1.0000000000000000E+20
 20
-1.0000000000000000E+20
 30
-1.0000000000000000E+20
  9
$PLIMMIN
 10
0.0
 20
0.0
  9
$PLIMMAX
 10
12.0
 20
9.0
  9
$UNITMODE
 70
     0
  9
$VISRETAIN
 70
     1
  9
$PLINEGEN
 70
     0
  9
$PSLTSCALE
 70
     1
  0
ENDSEC
  0
SECTION
  2
TABLES
  0
TABLE
  2
VPORT
 70
     1
  0
VPORT
  2
*ACTIVE
 70
     0
 10
0.0
 20
0.0
 11
1.0
 21
1.0
 12
653.771494055650578
 22
326.7299341050895123
 13
0.0
 23
0.0
 14
1.0
 24
1.0
 15
0.0
 25
0.0
 16
0.0
 26
0.0
 36
60.4960186965801583
 17
3911.3653564453120453
 27
132.5796051025390057
 37
0.0
 40
3.3799563433072981
 41
2.1604095563139931
 42
50.0
 43
0.0
 44
0.0
 50
0.0
 51
0.0
 71
     0
 72
   100
 73
     1
 74
     1
 75
     0
 76
     0
 77
     0
 78
     0
  0
ENDTAB
  0
TABLE
  2
LTYPE
 70
     2
  0
LTYPE
  2
CONTINUOUS
 70
     0
  3
Solid line
 72
    65
 73
     0
 40
0.0
  0
LTYPE
  2
PHANTOM2
 70
     0
  3
___ _ _ ___ _ _ ___ _ _ ___ _ _
 72
    65
 73
     6
 40
1.25
 49
0.625
 49
-0.125
 49
0.125
 49
-0.125
 49
0.125
 49
-0.125
  0
ENDTAB
  0
TABLE
  2
LAYER
 70
     2
  0
LAYER
  2
0
 70
     0
 62
   255
  6
CONTINUOUS
  0
LAYER
  2
DEFPOINTS
 70
     0
 62
     7
  6
CONTINUOUS
  0
ENDTAB
  0
TABLE
  2
STYLE
 70
     1
  0
STYLE
  2
STANDARD
 70
     0
 40
0.0
 41
0.8
 50
0.0
 71
     0
 42
0.2
  3
txt
  4

  0
ENDTAB
  0
TABLE
  2
VIEW
 70
     0
  0
ENDTAB
  0
TABLE
  2
UCS
 70
     0
  0
ENDTAB
  0
TABLE
  2
APPID
 70
    11
  0
APPID
  2
ACAD
 70
     0
  0
APPID
  2
ACAD_MLEADERVER
 70
     0
  0
APPID
  2
ACAD_EXEMPT_FROM_CAD_STANDARDS
 70
     0
  0
APPID
  2
ACAD_NAV_VCDISPLAY
 70
     0
  0
APPID
  2
ACAECLAYERSTANDARD
 70
     0
  0
APPID
  2
ACCMTRANSPARENCY
 70
     0
  0
APPID
  2
ACAD_DSTYLE_DIMJAG
 70
     0
  0
APPID
  2
ACAD_DSTYLE_DIMTALN
 70
     0
  0
APPID
  2
ACDBATTR
 70
     0
  0
APPID
  2
ACADANNOTATIVE
 70
     0
  0
APPID
  2
DCO15
 70
     0
  0
ENDTAB
  0
TABLE
  2
DIMSTYLE
 70
     1
  0
DIMSTYLE
  2
STANDARD
 70
     0
  3

  4

  5

  6

  7

 40
1.0
 41
0.1875
 42
0.0625
 43
0.38
 44
0.125
 45
0.0
 46
0.0
 47
0.01
 48
0.01
140
0.15625
141
0.09
142
0.0
143
25.3999999999999986
144
1.0
145
0.0
146
1.0
147
0.09
 71
     1
 72
     0
 73
     1
 74
     1
 75
     0
 76
     0
 77
     0
 78
     4
170
     0
171
     2
172
     0
173
     0
174
     0
175
     0
176
     0
177
     0
178
     0
  0
ENDTAB
  0
ENDSEC
  0
SECTION
  2
BLOCKS
  0
BLOCK
  8
0
  2
$MODEL_SPACE
 70
     0
 10
0.0
 20
0.0
 30
0.0
  3
$MODEL_SPACE
  1

  0
ENDBLK
  5
21
  8
0
  0
BLOCK
 67
     1
  8
0
  2
$PAPER_SPACE
 70
     0
 10
0.0
 20
0.0
 30
0.0
  3
$PAPER_SPACE
  1

  0
ENDBLK
  5
1D
 67
     1
  8
0
  0
ENDSEC
  0
SECTION
  2
ENTITIES
  0
ATTDEF
  5
19E5F
  8
DEFPOINTS
 10
4565.1325455333289938
 20
460.987072831844273
 30
0.0
 40
0.001
  1
P24918-LV
  3

  2
MODELNUMBER
 70
     0
1001
ACDBATTR
1070
     0
1070
     1
  0
ATTDEF
  5
19E60
  8
DEFPOINTS
 10
4565.1325455333289938
 20
460.9854059914651998
 30
0.0
 40
0.001
  1
PINNA PALETTA
  3

  2
TRADENAME
 70
     0
1001
ACDBATTR
1070
     0
1070
     1
  0
ATTDEF
  5
19E61
  8
DEFPOINTS
 10
4565.1325455333289938
 20
460.9837394985111132
 30
0.0
 40
0.001
  1
VALVE TRIM
  3

  2
PRODUCT
 70
     0
1001
ACDBATTR
1070
     0
1070
     1
  0
LINE
  5
1A09A
  8
0
 10
4568.1601457765627856
 20
460.9726893598033826
 30
0.0
 11
4568.1601457765627856
 21
460.3784874619631182
 31
0.0
  0
LINE
  5
1A09B
  8
0
 10
4562.1135552253617789
 20
460.9726893598033826
 30
0.0
 11
4562.1135552253617789
 21
460.3784874619631182
 31
0.0
  0
LINE
  5
1A09C
  8
0
 10
4562.123555225385644
 20
460.9826893598126958
 30
0.0
 11
4568.1501457765407395
 21
460.9826893598126958
 31
0.0
  0
LINE
  5
1A09D
  8
0
 10
4562.27248675116698
 20
460.2302681000127222
 30
0.0
 11
4568.0012142507612225
 21
460.2302681000127222
 31
0.0
  0
LINE
  5
1A09E
  8
0
 10
4564.2479072322821594
 20
460.0332663470127272
 30
0.0
 11
4566.0257937696433146
 21
460.0332663470127272
 31
0.0
  0
LINE
  5
1A09F
  8
0
 10
4564.4209072322846623
 20
458.7922663470127986
 30
0.0
 11
4565.8527937696408117
 21
458.7922663470127986
 31
0.0
  0
LINE
  5
1A0A0
  8
0
 10
4564.7482970277387722
 20
458.7822663470125804
 30
0.0
 11
4565.5254039741876113
 21
458.7822663470125804
 31
0.0
  0
ARC
  5
1A0A1
  8
0
 10
4562.1535552256009396
 20
460.3784874619631182
 30
0.0
 40
0.0400000002386007
 50
180.0000000721790911
 51
227.6999997334536943
  0
LINE
  5
1A0A2
  8
0
 10
4562.1266347247637896
 20
460.3489022181126984
 30
0.0
 11
4562.2455662506636145
 21
460.2406828562126861
 31
0.0
  0
ARC
  5
1A0A3
  8
0
 10
4562.2724867511251432
 20
460.2702680998156097
 30
0.0
 40
0.039999999802919
 50
227.6999998926089006
 51
270.0000000584155941
  0
LINE
  5
1A0A4
  8
0
 10
4562.1266347247637896
 20
460.3489022181126984
 30
0.0
 11
4568.1470662771644129
 21
460.3489022181126984
 31
0.0
  0
LINE
  5
1A0A5
  8
0
 10
4564.1525985324633439
 20
460.1285750471096776
 30
0.0
 11
4564.1525985324633439
 21
460.2212591193127196
 31
0.0
  0
LINE
  5
1A0A6
  8
0
 10
4564.3098505009629662
 20
460.0032663470126977
 30
0.0
 11
4564.3098505009629662
 21
458.9033230786097874
 31
0.0
  0
LINE
  5
1A0A7
  8
0
 10
4564.7333071938637659
 20
458.767266344573784
 30
0.0
 11
4564.7333071938637659
 21
458.0345488905127809
 31
0.0
  0
ARC
  5
1A0A8
  8
0
 10
4564.3498505014522379
 20
458.9033230786097874
 30
0.0
 40
0.0400000004880488
 50
180.0000001390561124
 51
224.9999996040230883
  0
LINE
  5
1A0A9
  8
0
 10
4564.3215662296606752
 20
458.875038807212718
 30
0.0
 11
4564.3926229611643066
 21
458.8039820758127121
 31
0.0
  0
ARC
  5
1A0AA
  8
0
 10
4564.4209072322773864
 20
458.8322663465718279
 30
0.0
 40
0.0399999995591126
 50
224.9999996422731101
 51
270.0000000142260888
  0
ARC
  5
1A0AB
  8
0
 10
4564.748307199750343
 20
458.767266344573784
 30
0.0
 40
0.0150000058877916
 50
90.0388542122338151
 51
180.000000000032486
  0
LINE
  5
1A0AC
  8
0
 10
4564.7643505009637011
 20
458.7922663470127986
 30
0.0
 11
4564.7643505009637011
 21
458.7822663470125804
 31
0.0
  0
ARC
  5
1A0AD
  8
0
 10
4564.2798505009641303
 20
460.0032663470126977
 30
0.0
 40
0.0299999999999985
 50
0.0
 51
90.0
  0
ARC
  5
1A0AE
  8
0
 10
4564.2479072322821594
 20
460.0732663465823862
 30
0.0
 40
0.0399999995716523
 50
224.9999996458151088
 51
270.0005598952106993
  0
LINE
  5
1A0AF
  8
0
 10
4564.2196229611636227
 20
460.0449820758126975
 30
0.0
 11
4564.1643142611610529
 21
460.1002907757127218
 31
0.0
  0
ARC
  5
1A0B0
  8
0
 10
4564.1925985329498872
 20
460.1285750471096776
 30
0.0
 40
0.0400000004880295
 50
180.0000001390494901
 51
224.9999996040255041
  0
ARC
  5
1A0B1
  8
0
 10
4564.1725985324637804
 20
460.2212591193127196
 30
0.0
 40
0.0200000000000102
 50
153.227502780963988
 51
179.9999999999901945
  0
ARC
  5
1A0B2
  8
0
 10
4562.1235552253638161
 20
460.9726893598125912
 30
0.0
 40
0.0100000000000034
 50
89.9999998721215348
 51
180.000000052953709
  0
ARC
  5
1A0B3
  8
0
 10
4568.1201457763254439
 20
460.3784874619631182
 30
0.0
 40
0.0400000002386007
 50
312.3000002665463057
 51
359.9999999278209089
  0
LINE
  5
1A0B4
  8
0
 10
4568.1470662771644129
 20
460.3489022181126984
 30
0.0
 11
4568.0281347512636785
 21
460.2406828562126861
 31
0.0
  0
ARC
  5
1A0B5
  8
0
 10
4568.0012142508003308
 20
460.2702680998156097
 30
0.0
 40
0.0399999998028786
 50
269.9999999415845195
 51
312.3000001073933163
  0
LINE
  5
1A0B6
  8
0
 10
4566.1211024694630396
 20
460.1285750471096776
 30
0.0
 11
4566.1211024694630396
 21
460.2212591193127196
 31
0.0
  0
LINE
  5
1A0B7
  8
0
 10
4565.9638505009615983
 20
460.0032663470126977
 30
0.0
 11
4565.9638505009615983
 21
458.9033230786097874
 31
0.0
  0
LINE
  5
1A0B8
  8
0
 10
4565.5403938080644366
 20
458.767266344573784
 30
0.0
 11
4565.5403938080644366
 21
458.0345488905127809
 31
0.0
  0
ARC
  5
1A0B9
  8
0
 10
4565.9238505004759645
 20
458.9033230786097874
 30
0.0
 40
0.0400000004880488
 50
315.0000003959768833
 51
359.9999998609438876
  0
LINE
  5
1A0BA
  8
0
 10
4565.9521347722657083
 20
458.875038807212718
 30
0.0
 11
4565.8810780407638958
 21
458.8039820758127121
 31
0.0
  0
ARC
  5
1A0BB
  8
0
 10
4565.8527937696508161
 20
458.8322663465718279
 30
0.0
 40
0.0399999995591163
 50
269.9999999857739112
 51
315.0000003577268899
  0
ARC
  5
1A0BC
  8
0
 10
4565.525393802175131
 20
458.767266344573784
 30
0.0
 40
0.0150000058877939
 50
359.9999999999805027
 51
89.9611457877140737
  0
LINE
  5
1A0BD
  8
0
 10
4565.5093505009635919
 20
458.7922663470127986
 30
0.0
 11
4565.5093505009635919
 21
458.7822663470125804
 31
0.0
  0
ARC
  5
1A0BE
  8
0
 10
4565.9938505009631626
 20
460.0032663470126977
 30
0.0
 40
0.0299999999999985
 50
90.0
 51
180.0
  0
ARC
  5
1A0BF
  8
0
 10
4566.0257937696496811
 20
460.0732663465716996
 30
0.0
 40
0.0399999995591021
 50
269.9999999898384999
 51
315.0000003577268899
  0
LINE
  5
1A0C0
  8
0
 10
4566.0540780407627608
 20
460.0449820758126975
 30
0.0
 11
4566.1093867407626021
 21
460.1002907757127218
 31
0.0
  0
ARC
  5
1A0C1
  8
0
 10
4566.0811024689755868
 20
460.1285750471096776
 30
0.0
 40
0.0400000004880295
 50
315.0000003959746095
 51
359.9999998609504246
  0
ARC
  5
1A0C2
  8
0
 10
4566.101102469462603
 20
460.2212591193127196
 30
0.0
 40
0.0200000000000102
 50
0.0000000000097707
 51
26.77249721903598
  0
ARC
  5
1A0C3
  8
0
 10
4568.1501457765625673
 20
460.9726893598125912
 30
0.0
 40
0.0100000000000016
 50
0.0000000000097707
 51
90.0000001278784509
  0
ARC
  5
1A0C4
  8
0
 10
4565.1368505009631917
 20
458.0345488905127809
 30
0.0
 40
0.4035433070999998
 50
180.0
 51
0.0
  0
LINE
  5
1A0C5
  8
0
 10
4564.1643142611610529
 20
460.1002907757127218
 30
0.0
 11
4566.1093867407626021
 21
460.1002907757127218
 31
0.0
  0
LINE
  5
1A0C6
  8
0
 10
4564.3215662296606752
 20
458.875038807212718
 30
0.0
 11
4565.9521347722657083
 21
458.875038807212718
 31
0.0
  0
ARC
  5
1A0C8
  8
0
 10
4565.1368505009641012
 20
458.1770957272984788
 30
0.0
 40
0.4279799076857993
 50
199.4551570981720943
 51
340.544842901827792
  0
ENDSEC
  0
EOF
