  0
SECTION
  2
HEADER
  9
$ACADVER
  1
AC1009
  9
$INSBASE
 10
4549.7924976951107965
 20
460.6061039775426025
 30
0.0
  9
$EXTMIN
 10
4546.7697334933118327
 20
457.3669699540425881
 30
0.0
  9
$EXTMAX
 10
4552.8152618969115792
 20
460.6109683965144086
 30
0.0
  9
$LIMMIN
 10
0.0
 20
0.0
  9
$LIMMAX
 10
11.6929133858000007
 20
8.2677165353999982
  9
$ORTHOMODE
 70
     0
  9
$REGENMODE
 70
     1
  9
$FILLMODE
 70
     1
  9
$QTEXTMODE
 70
     0
  9
$MIRRTEXT
 70
     0
  9
$DRAGMODE
 70
     2
  9
$LTSCALE
 40
0.6431102362
  9
$OSMODE
 70
  4095
  9
$ATTMODE
 70
     1
  9
$TEXTSIZE
 40
0.2
  9
$TRACEWID
 40
0.05
  9
$TEXTSTYLE
  7
STANDARD
  9
$CLAYER
  8
0
  9
$CELTYPE
  6
BYLAYER
  9
$CECOLOR
 62
   256
  9
$DIMSCALE
 40
1.0
  9
$DIMASZ
 40
0.1875
  9
$DIMEXO
 40
0.0625
  9
$DIMDLI
 40
0.4443307087
  9
$DIMRND
 40
0.0
  9
$DIMDLE
 40
0.0
  9
$DIMEXE
 40
0.125
  9
$DIMTP
 40
0.01
  9
$DIMTM
 40
0.01
  9
$DIMTXT
 40
2.0
  9
$DIMCEN
 40
0.1052362205
  9
$DIMTSZ
 40
0.0
  9
$DIMTOL
 70
     1
  9
$DIMLIM
 70
     0
  9
$DIMTIH
 70
     1
  9
$DIMTOH
 70
     1
  9
$DIMSE1
 70
     0
  9
$DIMSE2
 70
     0
  9
$DIMTAD
 70
     0
  9
$DIMZIN
 70
     0
  9
$DIMBLK
  1

  9
$DIMASO
 70
     1
  9
$DIMSHO
 70
     1
  9
$DIMPOST
  1
\X
  9
$DIMAPOST
  1

  9
$DIMALT
 70
     1
  9
$DIMALTD
 70
     2
  9
$DIMALTF
 40
25.3999999999999986
  9
$DIMLFAC
 40
1.0
  9
$DIMTOFL
 70
     0
  9
$DIMTVP
 40
0.0
  9
$DIMTIX
 70
     0
  9
$DIMSOXD
 70
     0
  9
$DIMSAH
 70
     0
  9
$DIMBLK1
  1

  9
$DIMBLK2
  1

  9
$DIMSTYLE
  2
STANDARD
  9
$DIMCLRD
 70
     0
  9
$DIMCLRE
 70
     0
  9
$DIMCLRT
 70
     0
  9
$DIMTFAC
 40
1.0
  9
$DIMGAP
 40
0.09
  9
$LUNITS
 70
     2
  9
$LUPREC
 70
     4
  9
$SKETCHINC
 40
0.1
  9
$FILLETRAD
 40
0.0
  9
$AUNITS
 70
     0
  9
$AUPREC
 70
     0
  9
$MENU
  1
.
  9
$ELEVATION
 40
0.0
  9
$PELEVATION
 40
0.0
  9
$THICKNESS
 40
0.0
  9
$LIMCHECK
 70
     0
  9
$BLIPMODE
 70
     0
  9
$CHAMFERA
 40
0.0
  9
$CHAMFERB
 40
0.0
  9
$SKPOLY
 70
     0
  9
$TDCREATE
 40
2458060.468368056230247
  9
$TDUPDATE
 40
2459752.9100347221828997
  9
$TDINDWG
 40
1.5308361111
  9
$TDUSRTIMER
 40
1.5308361111
  9
$USRTIMER
 70
     1
  9
$ANGBASE
 50
0.0
  9
$ANGDIR
 70
     0
  9
$PDMODE
 70
     0
  9
$PDSIZE
 40
0.3125
  9
$PLINEWID
 40
0.0
  9
$COORDS
 70
     1
  9
$SPLFRAME
 70
     0
  9
$SPLINETYPE
 70
     6
  9
$SPLINESEGS
 70
     8
  9
$ATTDIA
 70
     1
  9
$ATTREQ
 70
     1
  9
$HANDLING
 70
     1
  9
$HANDSEED
  5
1A383
  9
$SURFTAB1
 70
     6
  9
$SURFTAB2
 70
     6
  9
$SURFTYPE
 70
     6
  9
$SURFU
 70
     6
  9
$SURFV
 70
     6
  9
$UCSNAME
  2

  9
$UCSORG
 10
0.0
 20
0.0
 30
0.0
  9
$UCSXDIR
 10
1.0
 20
0.0
 30
0.0
  9
$UCSYDIR
 10
0.0
 20
1.0
 30
0.0
  9
$PUCSNAME
  2

  9
$PUCSORG
 10
0.0
 20
0.0
 30
0.0
  9
$PUCSXDIR
 10
1.0
 20
0.0
 30
0.0
  9
$PUCSYDIR
 10
0.0
 20
1.0
 30
0.0
  9
$USERI1
 70
     0
  9
$USERI2
 70
     0
  9
$USERI3
 70
     0
  9
$USERI4
 70
     0
  9
$USERI5
 70
     0
  9
$USERR1
 40
0.0
  9
$USERR2
 40
0.0
  9
$USERR3
 40
0.0
  9
$USERR4
 40
0.0
  9
$USERR5
 40
0.0
  9
$WORLDVIEW
 70
     1
  9
$SHADEDGE
 70
     3
  9
$SHADEDIF
 70
    70
  9
$TILEMODE
 70
     1
  9
$MAXACTVP
 70
    64
  9
$PLIMCHECK
 70
     0
  9
$PEXTMIN
 10
1.0000000000000000E+20
 20
1.0000000000000000E+20
 30
1.0000000000000000E+20
  9
$PEXTMAX
 10
-1.0000000000000000E+20
 20
-1.0000000000000000E+20
 30
-1.0000000000000000E+20
  9
$PLIMMIN
 10
0.0
 20
0.0
  9
$PLIMMAX
 10
12.0
 20
9.0
  9
$UNITMODE
 70
     0
  9
$VISRETAIN
 70
     1
  9
$PLINEGEN
 70
     0
  9
$PSLTSCALE
 70
     1
  0
ENDSEC
  0
SECTION
  2
TABLES
  0
TABLE
  2
VPORT
 70
     1
  0
VPORT
  2
*ACTIVE
 70
     0
 10
0.0
 20
0.0
 11
1.0
 21
1.0
 12
638.427141249799547
 22
326.4093640727394927
 13
0.0
 23
0.0
 14
1.0
 24
1.0
 15
0.0
 25
0.0
 16
0.0
 26
0.0
 36
60.4960186965801583
 17
3911.3653564453120453
 27
132.5796051025390057
 37
0.0
 40
3.2693092235575132
 41
2.481770833333333
 42
50.0
 43
0.0
 44
0.0
 50
0.0
 51
0.0
 71
     0
 72
   100
 73
     1
 74
     1
 75
     0
 76
     0
 77
     0
 78
     0
  0
ENDTAB
  0
TABLE
  2
LTYPE
 70
     2
  0
LTYPE
  2
CONTINUOUS
 70
     0
  3
Solid line
 72
    65
 73
     0
 40
0.0
  0
LTYPE
  2
PHANTOM2
 70
     0
  3
___ _ _ ___ _ _ ___ _ _ ___ _ _
 72
    65
 73
     6
 40
1.25
 49
0.625
 49
-0.125
 49
0.125
 49
-0.125
 49
0.125
 49
-0.125
  0
ENDTAB
  0
TABLE
  2
LAYER
 70
     2
  0
LAYER
  2
0
 70
     0
 62
   255
  6
CONTINUOUS
  0
LAYER
  2
DEFPOINTS
 70
     0
 62
     7
  6
CONTINUOUS
  0
ENDTAB
  0
TABLE
  2
STYLE
 70
     1
  0
STYLE
  2
STANDARD
 70
     0
 40
0.0
 41
0.8
 50
0.0
 71
     0
 42
0.2
  3
txt
  4

  0
ENDTAB
  0
TABLE
  2
VIEW
 70
     0
  0
ENDTAB
  0
TABLE
  2
UCS
 70
     0
  0
ENDTAB
  0
TABLE
  2
APPID
 70
    11
  0
APPID
  2
ACAD
 70
     0
  0
APPID
  2
ACAD_MLEADERVER
 70
     0
  0
APPID
  2
ACAD_EXEMPT_FROM_CAD_STANDARDS
 70
     0
  0
APPID
  2
ACAD_NAV_VCDISPLAY
 70
     0
  0
APPID
  2
ACAECLAYERSTANDARD
 70
     0
  0
APPID
  2
ACCMTRANSPARENCY
 70
     0
  0
APPID
  2
ACAD_DSTYLE_DIMJAG
 70
     0
  0
APPID
  2
ACAD_DSTYLE_DIMTALN
 70
     0
  0
APPID
  2
ACDBATTR
 70
     0
  0
APPID
  2
ACADANNOTATIVE
 70
     0
  0
APPID
  2
DCO15
 70
     0
  0
ENDTAB
  0
TABLE
  2
DIMSTYLE
 70
     1
  0
DIMSTYLE
  2
STANDARD
 70
     0
  3

  4

  5

  6

  7

 40
1.0
 41
0.1875
 42
0.0625
 43
0.38
 44
0.125
 45
0.0
 46
0.0
 47
0.01
 48
0.01
140
0.15625
141
0.09
142
0.0
143
25.3999999999999986
144
1.0
145
0.0
146
1.0
147
0.09
 71
     1
 72
     0
 73
     1
 74
     1
 75
     0
 76
     0
 77
     0
 78
     4
170
     0
171
     2
172
     0
173
     0
174
     0
175
     0
176
     0
177
     0
178
     0
  0
ENDTAB
  0
ENDSEC
  0
SECTION
  2
BLOCKS
  0
BLOCK
  8
0
  2
$MODEL_SPACE
 70
     0
 10
0.0
 20
0.0
 30
0.0
  3
$MODEL_SPACE
  1

  0
ENDBLK
  5
21
  8
0
  0
BLOCK
 67
     1
  8
0
  2
$PAPER_SPACE
 70
     0
 10
0.0
 20
0.0
 30
0.0
  3
$PAPER_SPACE
  1

  0
ENDBLK
  5
1D
 67
     1
  8
0
  0
ENDSEC
  0
SECTION
  2
ENTITIES
  0
ATTDEF
  5
194DB
  8
DEFPOINTS
 10
4549.7890564304752843
 20
460.6099683965144891
 30
0.0
 40
0.001
  1
P24925-LV
  3

  2
MODELNUMBER
 70
     0
1001
ACDBATTR
1070
     0
1070
     1
  0
ATTDEF
  5
194DC
  8
DEFPOINTS
 10
4549.7890564304752843
 20
460.6083015561353022
 30
0.0
 40
0.001
  1
PINNA PALETTA
  3

  2
TRADENAME
 70
     0
1001
ACDBATTR
1070
     0
1070
     1
  0
ATTDEF
  5
194DD
  8
DEFPOINTS
 10
4549.7890564304752843
 20
460.6066350631812156
 30
0.0
 40
0.001
  1
VALVE TRIM
  3

  2
PRODUCT
 70
     0
1001
ACDBATTR
1070
     0
1070
     1
  0
LINE
  5
1A293
  8
0
 10
4552.8152618969115792
 20
460.5961039775332893
 30
0.0
 11
4552.8152618969115792
 21
460.0644020796930249
 31
0.0
  0
LINE
  5
1A294
  8
0
 10
4546.7697334933118327
 20
460.5961039775332893
 30
0.0
 11
4546.7697334933118327
 21
460.0644020796930249
 31
0.0
  0
LINE
  5
1A295
  8
0
 10
4546.779733493312051
 20
460.6061039775426025
 30
0.0
 11
4552.8052618969122705
 21
460.6061039775426025
 31
0.0
  0
LINE
  5
1A296
  8
0
 10
4546.9286650190751971
 20
459.9161827177425721
 30
0.0
 11
4552.6563303711482149
 21
459.9161827177425721
 31
0.0
  0
LINE
  5
1A297
  8
0
 10
4548.9035544264315831
 20
459.7193323240426253
 30
0.0
 11
4550.6814409637918288
 21
459.7193323240426253
 31
0.0
  0
LINE
  5
1A298
  8
0
 10
4549.0765544264331766
 20
458.5382299618427169
 30
0.0
 11
4550.5084409637902354
 21
458.5382299618427169
 31
0.0
  0
LINE
  5
1A299
  8
0
 10
4549.4039442218872864
 20
458.5182307177425969
 30
0.0
 11
4550.1810511683361256
 21
458.5182307177425969
 31
0.0
  0
ARC
  5
1A29A
  8
0
 10
4546.8097334935509934
 20
460.0644020796930249
 30
0.0
 40
0.0400000002386007
 50
180.0000000721790911
 51
227.6999997334580996
  0
LINE
  5
1A29B
  8
0
 10
4546.7828129927120244
 20
460.0348168358427188
 30
0.0
 11
4546.9017445186118493
 21
459.9265974739425928
 31
0.0
  0
ARC
  5
1A29C
  8
0
 10
4546.9286650190751971
 20
459.9561827175455164
 30
0.0
 40
0.039999999802919
 50
227.6999998926067974
 51
270.0000000584155941
  0
LINE
  5
1A29D
  8
0
 10
4546.7828129927120244
 20
460.0348168358427188
 30
0.0
 11
4552.802182397512297
 21
460.0348168358427188
 31
0.0
  0
LINE
  5
1A29E
  8
0
 10
4548.8082457266109486
 20
459.8144896648395843
 30
0.0
 11
4548.8082457266109486
 21
459.9061827177425812
 31
0.0
  0
LINE
  5
1A29F
  8
0
 10
4548.9654976951123899
 20
459.6793323240426048
 30
0.0
 11
4548.9654976951123899
 21
458.649286693439592
 31
0.0
  0
LINE
  5
1A2A0
  8
0
 10
4549.3889543880122801
 20
458.5032307153038005
 30
0.0
 11
4549.3889543880122801
 21
457.7705132611425825
 31
0.0
  0
ARC
  5
1A2A1
  8
0
 10
4549.0054976955989332
 20
458.649286693439592
 30
0.0
 40
0.0400000004880488
 50
180.0000001390561124
 51
224.9999996040162955
  0
LINE
  5
1A2A2
  8
0
 10
4548.9772134238119179
 20
458.6210024220425794
 30
0.0
 11
4549.0482701553119114
 21
458.5499456906425735
 31
0.0
  0
ARC
  5
1A2A3
  8
0
 10
4549.0765544264240816
 20
458.5782299614016893
 30
0.0
 40
0.0399999995591126
 50
224.999999642270808
 51
270.0000000142260888
  0
ARC
  5
1A2A4
  8
0
 10
4549.4039543938988572
 20
458.5032307153038005
 30
0.0
 40
0.0150000058877916
 50
90.0388542122338151
 51
180.000000000032486
  0
ARC
  5
1A2A5
  8
0
 10
4548.9258863986224242
 20
459.6797194603523735
 30
0.0
 40
0.0396131882602251
 50
359.4400443204324915
 51
90.2319381780777832
  0
ARC
  5
1A2A6
  8
0
 10
4548.9035544264315831
 20
459.7593323236122842
 30
0.0
 40
0.0399999995716523
 50
224.9999996458265912
 51
270.0005598952106993
  0
LINE
  5
1A2A7
  8
0
 10
4548.8752701553130464
 20
459.7310480528427092
 30
0.0
 11
4548.8199614553122956
 21
459.7862053934425717
 31
0.0
  0
ARC
  5
1A2A8
  8
0
 10
4548.8482457271002204
 20
459.8144896648395843
 30
0.0
 40
0.0400000004880295
 50
180.0000001390494901
 51
224.9999996040230883
  0
ARC
  5
1A2A9
  8
0
 10
4548.8182457266120764
 20
459.9061827177425812
 30
0.0
 40
0.0100000000000087
 50
90.0
 51
179.999999999947903
  0
ARC
  5
1A2AA
  8
0
 10
4546.779733493312051
 20
460.5961039775427253
 30
0.0
 40
0.0100000000000034
 50
89.9999998721215348
 51
180.000000052953709
  0
ARC
  5
1A2AB
  8
0
 10
4552.775261896673328
 20
460.0644020796930249
 30
0.0
 40
0.0400000002386007
 50
312.300000266541872
 51
359.9999999278209089
  0
LINE
  5
1A2AC
  8
0
 10
4552.802182397512297
 20
460.0348168358427188
 30
0.0
 11
4552.6832508716115626
 21
459.9265974739425928
 31
0.0
  0
ARC
  5
1A2AD
  8
0
 10
4552.6563303711482149
 20
459.9561827175455164
 30
0.0
 40
0.0399999998028786
 50
269.9999999415845195
 51
312.3000001074020133
  0
LINE
  5
1A2AE
  8
0
 10
4550.7767496636115538
 20
459.8144896648395843
 30
0.0
 11
4550.7767496636115538
 21
459.9061827177425812
 31
0.0
  0
LINE
  5
1A2AF
  8
0
 10
4550.1960410022111319
 20
458.5032307153038005
 30
0.0
 11
4550.1960410022111319
 21
457.7705132611425825
 31
0.0
  0
ARC
  5
1A2B0
  8
0
 10
4550.5794976946226598
 20
458.649286693439592
 30
0.0
 40
0.0400000004880488
 50
315.0000003959838182
 51
359.9999998609438876
  0
LINE
  5
1A2B1
  8
0
 10
4550.6077819664124036
 20
458.6210024220425794
 30
0.0
 11
4550.5367252349124101
 21
458.5499456906425735
 31
0.0
  0
ARC
  5
1A2B2
  8
0
 10
4550.5084409637993303
 20
458.5782299614016893
 30
0.0
 40
0.0399999995591163
 50
269.9999999857739112
 51
315.0000003577292205
  0
ARC
  5
1A2B3
  8
0
 10
4550.1810409963236452
 20
458.5032307153038005
 30
0.0
 40
0.0150000058877939
 50
359.9999999999805027
 51
89.9611457877140737
  0
ARC
  5
1A2B4
  8
0
 10
4550.6814409638000143
 20
459.759332323601825
 30
0.0
 40
0.0399999995591021
 50
269.9999999898384999
 51
315.0000003577314942
  0
LINE
  5
1A2B5
  8
0
 10
4550.7097252349121845
 20
459.7310480528427092
 30
0.0
 11
4550.7650339349111164
 21
459.7862053934425717
 31
0.0
  0
ARC
  5
1A2B6
  8
0
 10
4550.7367496631241011
 20
459.8144896648395843
 30
0.0
 40
0.0400000004880295
 50
315.0000003959768833
 51
359.9999998609504246
  0
ARC
  5
1A2B7
  8
0
 10
4552.8052618969122705
 20
460.5961039775427253
 30
0.0
 40
0.0100000000000016
 50
0.0000000000097707
 51
90.0000001278784509
  0
ARC
  5
1A2B9
  8
0
 10
4549.7924976951107965
 20
457.7705132611425825
 30
0.0
 40
0.4035433070999997
 50
180.0
 51
0.0
  0
LINE
  5
1A2BA
  8
0
 10
4548.8199614553122956
 20
459.7862053934425717
 30
0.0
 11
4550.7650339349111164
 21
459.7862053934425717
 31
0.0
  0
LINE
  5
1A2BB
  8
0
 10
4548.9772134238119179
 20
458.6210024220425794
 30
0.0
 11
4550.6077819664124036
 21
458.6210024220425794
 31
0.0
  0
ARC
  5
1A2BC
  8
0
 10
4549.4424976951122517
 20
458.5182299618426214
 30
0.0
 40
0.0199999999999978
 50
359.9999999999935199
 51
90.0
  0
ARC
  5
1A2BD
  8
0
 10
4550.1424976951111603
 20
458.5182299618426214
 30
0.0
 40
0.0199999999999978
 50
90.0
 51
180.0000000000032117
  0
ARC
  5
1A2BE
  8
0
 10
4550.7667496636122451
 20
459.9061827177425812
 30
0.0
 40
0.0100000000000087
 50
0.0000000000521102
 51
90.0
  0
LINE
  5
1A2BF
  8
0
 10
4550.619497695111022
 20
459.6793323240426048
 30
0.0
 11
4550.619497695111022
 21
458.649286693439592
 31
0.0
  0
ARC
  5
1A2C0
  8
0
 10
4550.6591089916009878
 20
459.6797194603523735
 30
0.0
 40
0.0396131882602251
 50
89.7680618219222026
 51
180.5599556795673948
  0
ENDSEC
  0
EOF
