  0
SECTION
  2
HEADER
  9
$ACADVER
  1
AC1009
  9
$INSBASE
 10
4541.1361449996056763
 20
461.3899779959992884
 30
0.0
  9
$EXTMIN
 10
4537.8970109761066851
 20
458.3661516466992794
 30
0.0
  9
$EXTMAX
 10
4541.1478908334956941
 20
464.4127421977992753
 30
0.0
  9
$LIMMIN
 10
0.0
 20
0.0
  9
$LIMMAX
 10
11.6929133858000007
 20
8.2677165353999982
  9
$ORTHOMODE
 70
     0
  9
$REGENMODE
 70
     1
  9
$FILLMODE
 70
     1
  9
$QTEXTMODE
 70
     0
  9
$MIRRTEXT
 70
     0
  9
$DRAGMODE
 70
     2
  9
$LTSCALE
 40
0.6431102362
  9
$OSMODE
 70
  4095
  9
$ATTMODE
 70
     1
  9
$TEXTSIZE
 40
0.2
  9
$TRACEWID
 40
0.05
  9
$TEXTSTYLE
  7
STANDARD
  9
$CLAYER
  8
0
  9
$CELTYPE
  6
BYLAYER
  9
$CECOLOR
 62
   256
  9
$DIMSCALE
 40
1.0
  9
$DIMASZ
 40
0.1875
  9
$DIMEXO
 40
0.0625
  9
$DIMDLI
 40
0.4443307087
  9
$DIMRND
 40
0.0
  9
$DIMDLE
 40
0.0
  9
$DIMEXE
 40
0.125
  9
$DIMTP
 40
0.01
  9
$DIMTM
 40
0.01
  9
$DIMTXT
 40
2.0
  9
$DIMCEN
 40
0.1052362205
  9
$DIMTSZ
 40
0.0
  9
$DIMTOL
 70
     1
  9
$DIMLIM
 70
     0
  9
$DIMTIH
 70
     1
  9
$DIMTOH
 70
     1
  9
$DIMSE1
 70
     0
  9
$DIMSE2
 70
     0
  9
$DIMTAD
 70
     0
  9
$DIMZIN
 70
     0
  9
$DIMBLK
  1

  9
$DIMASO
 70
     1
  9
$DIMSHO
 70
     1
  9
$DIMPOST
  1
\X
  9
$DIMAPOST
  1

  9
$DIMALT
 70
     1
  9
$DIMALTD
 70
     2
  9
$DIMALTF
 40
25.3999999999999986
  9
$DIMLFAC
 40
1.0
  9
$DIMTOFL
 70
     0
  9
$DIMTVP
 40
0.0
  9
$DIMTIX
 70
     0
  9
$DIMSOXD
 70
     0
  9
$DIMSAH
 70
     0
  9
$DIMBLK1
  1

  9
$DIMBLK2
  1

  9
$DIMSTYLE
  2
STANDARD
  9
$DIMCLRD
 70
     0
  9
$DIMCLRE
 70
     0
  9
$DIMCLRT
 70
     0
  9
$DIMTFAC
 40
1.0
  9
$DIMGAP
 40
0.09
  9
$LUNITS
 70
     2
  9
$LUPREC
 70
     4
  9
$SKETCHINC
 40
0.1
  9
$FILLETRAD
 40
0.0
  9
$AUNITS
 70
     0
  9
$AUPREC
 70
     0
  9
$MENU
  1
.
  9
$ELEVATION
 40
0.0
  9
$PELEVATION
 40
0.0
  9
$THICKNESS
 40
0.0
  9
$LIMCHECK
 70
     0
  9
$BLIPMODE
 70
     0
  9
$CHAMFERA
 40
0.0
  9
$CHAMFERB
 40
0.0
  9
$SKPOLY
 70
     0
  9
$TDCREATE
 40
2458060.468368056230247
  9
$TDUPDATE
 40
2459752.9099537041038275
  9
$TDINDWG
 40
1.5296555556
  9
$TDUSRTIMER
 40
1.5296555556
  9
$USRTIMER
 70
     1
  9
$ANGBASE
 50
0.0
  9
$ANGDIR
 70
     0
  9
$PDMODE
 70
     0
  9
$PDSIZE
 40
0.3125
  9
$PLINEWID
 40
0.0
  9
$COORDS
 70
     1
  9
$SPLFRAME
 70
     0
  9
$SPLINETYPE
 70
     6
  9
$SPLINESEGS
 70
     8
  9
$ATTDIA
 70
     1
  9
$ATTREQ
 70
     1
  9
$HANDLING
 70
     1
  9
$HANDSEED
  5
1A2C4
  9
$SURFTAB1
 70
     6
  9
$SURFTAB2
 70
     6
  9
$SURFTYPE
 70
     6
  9
$SURFU
 70
     6
  9
$SURFV
 70
     6
  9
$UCSNAME
  2

  9
$UCSORG
 10
0.0
 20
0.0
 30
0.0
  9
$UCSXDIR
 10
1.0
 20
0.0
 30
0.0
  9
$UCSYDIR
 10
0.0
 20
1.0
 30
0.0
  9
$PUCSNAME
  2

  9
$PUCSORG
 10
0.0
 20
0.0
 30
0.0
  9
$PUCSXDIR
 10
1.0
 20
0.0
 30
0.0
  9
$PUCSYDIR
 10
0.0
 20
1.0
 30
0.0
  9
$USERI1
 70
     0
  9
$USERI2
 70
     0
  9
$USERI3
 70
     0
  9
$USERI4
 70
     0
  9
$USERI5
 70
     0
  9
$USERR1
 40
0.0
  9
$USERR2
 40
0.0
  9
$USERR3
 40
0.0
  9
$USERR4
 40
0.0
  9
$USERR5
 40
0.0
  9
$WORLDVIEW
 70
     1
  9
$SHADEDGE
 70
     3
  9
$SHADEDIF
 70
    70
  9
$TILEMODE
 70
     1
  9
$MAXACTVP
 70
    64
  9
$PLIMCHECK
 70
     0
  9
$PEXTMIN
 10
1.0000000000000000E+20
 20
1.0000000000000000E+20
 30
1.0000000000000000E+20
  9
$PEXTMAX
 10
-1.0000000000000000E+20
 20
-1.0000000000000000E+20
 30
-1.0000000000000000E+20
  9
$PLIMMIN
 10
0.0
 20
0.0
  9
$PLIMMAX
 10
12.0
 20
9.0
  9
$UNITMODE
 70
     0
  9
$VISRETAIN
 70
     1
  9
$PLINEGEN
 70
     0
  9
$PSLTSCALE
 70
     1
  0
ENDSEC
  0
SECTION
  2
TABLES
  0
TABLE
  2
VPORT
 70
     1
  0
VPORT
  2
*ACTIVE
 70
     0
 10
0.0
 20
0.0
 11
1.0
 21
1.0
 12
628.1570944594891444
 22
328.8098418197103001
 13
0.0
 23
0.0
 14
1.0
 24
1.0
 15
0.0
 25
0.0
 16
0.0
 26
0.0
 36
60.4960186965801583
 17
3911.3653564453120453
 27
132.5796051025390057
 37
0.0
 40
6.0937681106664172
 41
2.481770833333333
 42
50.0
 43
0.0
 44
0.0
 50
0.0
 51
0.0
 71
     0
 72
   100
 73
     1
 74
     1
 75
     0
 76
     0
 77
     0
 78
     0
  0
ENDTAB
  0
TABLE
  2
LTYPE
 70
     2
  0
LTYPE
  2
CONTINUOUS
 70
     0
  3
Solid line
 72
    65
 73
     0
 40
0.0
  0
LTYPE
  2
PHANTOM2
 70
     0
  3
___ _ _ ___ _ _ ___ _ _ ___ _ _
 72
    65
 73
     6
 40
1.25
 49
0.625
 49
-0.125
 49
0.125
 49
-0.125
 49
0.125
 49
-0.125
  0
ENDTAB
  0
TABLE
  2
LAYER
 70
     2
  0
LAYER
  2
0
 70
     0
 62
   255
  6
CONTINUOUS
  0
LAYER
  2
DEFPOINTS
 70
     0
 62
     7
  6
CONTINUOUS
  0
ENDTAB
  0
TABLE
  2
STYLE
 70
     1
  0
STYLE
  2
STANDARD
 70
     0
 40
0.0
 41
0.8
 50
0.0
 71
     0
 42
0.2
  3
txt
  4

  0
ENDTAB
  0
TABLE
  2
VIEW
 70
     0
  0
ENDTAB
  0
TABLE
  2
UCS
 70
     0
  0
ENDTAB
  0
TABLE
  2
APPID
 70
    11
  0
APPID
  2
ACAD
 70
     0
  0
APPID
  2
ACAD_MLEADERVER
 70
     0
  0
APPID
  2
ACAD_EXEMPT_FROM_CAD_STANDARDS
 70
     0
  0
APPID
  2
ACAD_NAV_VCDISPLAY
 70
     0
  0
APPID
  2
ACAECLAYERSTANDARD
 70
     0
  0
APPID
  2
ACCMTRANSPARENCY
 70
     0
  0
APPID
  2
ACAD_DSTYLE_DIMJAG
 70
     0
  0
APPID
  2
ACAD_DSTYLE_DIMTALN
 70
     0
  0
APPID
  2
ACDBATTR
 70
     0
  0
APPID
  2
ACADANNOTATIVE
 70
     0
  0
APPID
  2
DCO15
 70
     0
  0
ENDTAB
  0
TABLE
  2
DIMSTYLE
 70
     1
  0
DIMSTYLE
  2
STANDARD
 70
     0
  3

  4

  5

  6

  7

 40
1.0
 41
0.1875
 42
0.0625
 43
0.38
 44
0.125
 45
0.0
 46
0.0
 47
0.01
 48
0.01
140
0.15625
141
0.09
142
0.0
143
25.3999999999999986
144
1.0
145
0.0
146
1.0
147
0.09
 71
     1
 72
     0
 73
     1
 74
     1
 75
     0
 76
     0
 77
     0
 78
     4
170
     0
171
     2
172
     0
173
     0
174
     0
175
     0
176
     0
177
     0
178
     0
  0
ENDTAB
  0
ENDSEC
  0
SECTION
  2
BLOCKS
  0
BLOCK
  8
0
  2
$MODEL_SPACE
 70
     0
 10
0.0
 20
0.0
 30
0.0
  3
$MODEL_SPACE
  1

  0
ENDBLK
  5
21
  8
0
  0
BLOCK
 67
     1
  8
0
  2
$PAPER_SPACE
 70
     0
 10
0.0
 20
0.0
 30
0.0
  3
$PAPER_SPACE
  1

  0
ENDBLK
  5
1D
 67
     1
  8
0
  0
ENDSEC
  0
SECTION
  2
ENTITIES
  0
ATTDEF
  5
194DB
  8
DEFPOINTS
 10
4541.1372241668277638
 20
461.3916722018935843
 30
0.0
 40
0.001
  1
P24925-LV
  3

  2
MODELNUMBER
 70
     0
1001
ACDBATTR
1070
     0
1070
     1
  0
ATTDEF
  5
194DC
  8
DEFPOINTS
 10
4541.1372241668277638
 20
461.3900053615146248
 30
0.0
 40
0.001
  1
PINNA PALETTA
  3

  2
TRADENAME
 70
     0
1001
ACDBATTR
1070
     0
1070
     1
  0
ATTDEF
  5
194DD
  8
DEFPOINTS
 10
4541.1372241668277638
 20
461.3883388685604245
 30
0.0
 40
0.001
  1
VALVE TRIM
  3

  2
PRODUCT
 70
     0
1001
ACDBATTR
1070
     0
1070
     1
  0
LINE
  5
1A1C0
  8
0
 10
4537.8970109761066851
 20
461.6754067745703196
 30
0.0
 11
4537.8970109761066851
 21
460.5095213030992909
 31
0.0
  0
LINE
  5
1A1C2
  8
0
 10
4538.0151255048231178
 20
461.7935213030992827
 30
0.0
 11
4539.0332717373667037
 21
461.7935213030992827
 31
0.0
  0
ARC
  5
1A1C3
  8
0
 10
4538.0151255046348524
 20
461.6754067745703196
 30
0.0
 40
0.1181145285289791
 50
89.9999999086508069
 51
180.0000000913427129
  0
LINE
  5
1A1C4
  8
0
 10
4538.6133059847643381
 20
458.5653874447992848
 30
0.0
 11
4537.9878025816487934
 21
458.5653874447992848
 31
0.0
  0
ARC
  5
1A1C5
  8
0
 10
4537.912010976106103
 20
460.5095213030992909
 30
0.0
 40
0.0149999999999988
 50
179.9999999999967031
 51
270.0
  0
LINE
  5
1A1C6
  8
0
 10
4538.7040975903064464
 20
460.8683244526993121
 30
0.0
 11
4538.7040975903064464
 21
460.5095213030992909
 31
0.0
  0
LINE
  5
1A1C7
  8
0
 10
4537.9009086139067222
 20
460.4945213030993045
 30
0.0
 11
4538.7001999525064093
 21
460.4945213030993045
 31
0.0
  0
LINE
  5
1A1C8
  8
0
 10
4537.9009086139067222
 20
460.4945213030993045
 30
0.0
 11
4537.9009086139067222
 21
458.6503408059510889
 31
0.0
  0
ARC
  5
1A1C9
  8
0
 10
4537.9159086146701156
 20
458.6503408059510889
 30
0.0
 40
0.0150000007635987
 50
180.0000005801690008
 51
224.9999983478095942
  0
LINE
  5
1A1CA
  8
0
 10
4537.9053020121064037
 20
458.6397342039992964
 30
0.0
 11
4537.9738831568065507
 21
458.5711530593993075
 31
0.0
  0
ARC
  5
1A1CB
  8
0
 10
4537.9878025815178262
 20
458.5850724837565053
 30
0.0
 40
0.0196850389572186
 50
224.9999992699731024
 51
270.0000003805607776
  0
LINE
  5
1A1CC
  8
0
 10
4538.7001999525064093
 20
460.4945213030993045
 30
0.0
 11
4538.7001999525064093
 21
458.6503408059510889
 31
0.0
  0
ARC
  5
1A1CD
  8
0
 10
4538.6851999517430158
 20
458.6503408059510889
 30
0.0
 40
0.0150000007635987
 50
315.0000016521904058
 51
359.9999994198278159
  0
LINE
  5
1A1CE
  8
0
 10
4538.6958065543067278
 20
458.6397342039992964
 30
0.0
 11
4538.6272254096056713
 21
458.5711530593993075
 31
0.0
  0
ARC
  5
1A1CF
  8
0
 10
4538.6133059848943958
 20
458.5850724837565053
 30
0.0
 40
0.0196850389572343
 50
269.9999996194911773
 51
315.000000730017689
  0
ARC
  5
1A1D0
  8
0
 10
4538.6890975903070284
 20
460.5095213030992909
 30
0.0
 40
0.0149999999999988
 50
270.0
 51
359.9999999999935199
  0
ARC
  5
1A1D1
  8
0
 10
4538.82221208125884
 20
460.8683201979470141
 30
0.0
 40
0.1181144910288809
 50
90.0020639241064231
 51
179.9979360758838141
  0
LINE
  5
1A1D2
  8
0
 10
4538.8222078265071104
 20
460.9864346888992941
 30
0.0
 11
4539.0332717373667037
 21
460.9864346888992941
 31
0.0
  0
LINE
  5
1A1D3
  8
0
 10
4537.9053020121064037
 20
458.6397342039992964
 30
0.0
 11
4538.6958065543067278
 21
458.6397342039992964
 31
0.0
  0
LINE
  5
1A1D4
  8
0
 10
4541.0561449996066585
 20
458.3661516466992794
 30
0.0
 11
4540.5944431017569514
 21
458.3661516466992794
 31
0.0
  0
LINE
  5
1A1D5
  8
0
 10
4541.1261449995972725
 20
464.4127421977992753
 30
0.0
 11
4540.5944431017569514
 21
464.4127421977992753
 31
0.0
  0
LINE
  5
1A1D6
  8
0
 10
4541.1361449996056763
 20
464.4027421977992844
 30
0.0
 11
4541.1361449996056763
 21
458.3778687910863141
 31
0.0
  0
LINE
  5
1A1D7
  8
0
 10
4540.4462237398056459
 20
464.2538106720360815
 30
0.0
 11
4540.4462237398056459
 21
458.5250741845993048
 31
0.0
  0
LINE
  5
1A1D8
  8
0
 10
4540.2493733461069496
 20
462.2789212646799228
 30
0.0
 11
4540.2493733461069496
 21
460.5010347273188245
 31
0.0
  0
LINE
  5
1A1D9
  8
0
 10
4539.068270983905677
 20
462.1059212646770789
 30
0.0
 11
4539.068270983905677
 21
460.6740347273214979
 31
0.0
  0
LINE
  5
1A1DA
  8
0
 10
4539.048271739806296
 20
461.7785314692238217
 30
0.0
 11
4539.048271739806296
 21
461.0014245227749257
 31
0.0
  0
ARC
  5
1A1DB
  8
0
 10
4540.5944431017569514
 20
464.3727421975606831
 30
0.0
 40
0.0400000002386007
 50
90.0000000721726536
 51
137.699999733451989
  0
LINE
  5
1A1DC
  8
0
 10
4540.5648578579066452
 20
464.3996626983994247
 30
0.0
 11
4540.4566384960071446
 21
464.2807311724992019
 31
0.0
  0
ARC
  5
1A1DD
  8
0
 10
4540.4862237396091587
 20
464.2538106720360815
 30
0.0
 40
0.039999999802919
 50
137.6999998926175124
 51
180.0000000583926862
  0
LINE
  5
1A1DE
  8
0
 10
4540.5648578579066452
 20
464.399662698399311
 30
0.0
 11
4540.5648578579066452
 21
458.3792311460993005
 31
0.0
  0
LINE
  5
1A1DF
  8
0
 10
4540.3445306869043634
 20
462.3742299644994205
 30
0.0
 11
4540.4362237398054276
 21
462.3742299644994205
 31
0.0
  0
LINE
  5
1A1E0
  8
0
 10
4540.209373346106986
 20
462.2169779959992866
 30
0.0
 11
4539.1793277155038595
 21
462.2169779959992866
 31
0.0
  0
ARC
  5
1A1E1
  8
0
 10
4539.1793277155038595
 20
462.1769779955113222
 30
0.0
 40
0.0400000004880488
 50
90.0000001390300355
 51
134.9999996039886128
  0
LINE
  5
1A1E2
  8
0
 10
4539.1510434441070174
 20
462.2052622672994175
 30
0.0
 11
4539.0799867127070684
 21
462.1342055357994241
 31
0.0
  0
ARC
  5
1A1E3
  8
0
 10
4539.1082709834654452
 20
462.1059212646870265
 30
0.0
 40
0.0399999995591126
 50
134.9999996422799882
 51
180.0000000142325973
  0
ARC
  5
1A1E4
  8
0
 10
4539.0332717373667037
 20
461.7785212972115119
 30
0.0
 40
0.0150000058877916
 50
0.0388542122598783
 51
90.0000000000521254
  0
ARC
  5
1A1E5
  8
0
 10
4540.209760482416641
 20
462.2565892924891955
 30
0.0
 40
0.0396131882602251
 50
269.4400443204067983
 51
0.2319381780549374
  0
ARC
  5
1A1E6
  8
0
 10
4540.2893733456767222
 20
462.2789212646799228
 30
0.0
 40
0.0399999995716523
 50
134.9999996458357998
 51
180.0005598952106141
  0
LINE
  5
1A1E7
  8
0
 10
4540.2610890749056125
 20
462.3072055357993122
 30
0.0
 11
4540.3162464155057023
 21
462.3625142357993241
 31
0.0
  0
ARC
  5
1A1E8
  8
0
 10
4540.3445306869043634
 20
462.3342299640112856
 30
0.0
 40
0.0400000004880295
 50
90.0000001390300355
 51
134.9999996040322969
  0
ARC
  5
1A1E9
  8
0
 10
4540.4362237398054276
 20
462.3642299644993159
 30
0.0
 40
0.0100000000000087
 50
0.0000000000097707
 51
89.9999999999478888
  0
ARC
  5
1A1EA
  8
0
 10
4541.1261449996063675
 20
464.4027421977992844
 30
0.0
 40
0.0100000000000034
 50
359.9999998721248176
 51
90.0000000529439745
  0
ARC
  5
1A1EB
  8
0
 10
4540.5944431017569514
 20
458.4061516469378716
 30
0.0
 40
0.0400000002386007
 50
222.300000266548011
 51
269.999999927827389
  0
LINE
  5
1A1EC
  8
0
 10
4540.5648578579066452
 20
458.3792311460991868
 30
0.0
 11
4540.4566384960062351
 21
458.498162671999296
 31
0.0
  0
ARC
  5
1A1ED
  8
0
 10
4540.4862237396091587
 20
458.5250831724624732
 30
0.0
 40
0.0399999998028786
 50
179.9999999415877028
 51
222.3000001074296108
  0
LINE
  5
1A1EE
  8
0
 10
4540.3445306869043634
 20
460.4057260274993268
 30
0.0
 11
4540.4362237398054276
 21
460.4057260274993268
 31
0.0
  0
ARC
  5
1A1EF
  8
0
 10
4539.1793277155038595
 20
460.6029779964873114
 30
0.0
 40
0.0400000004880488
 50
225.0000003960113872
 51
269.9999998609177965
  0
LINE
  5
1A1F0
  8
0
 10
4539.1510434441070174
 20
460.5746937246992729
 30
0.0
 11
4539.0799867127070684
 21
460.6457504561993233
 31
0.0
  0
ARC
  5
1A1F1
  8
0
 10
4539.1082709834654452
 20
460.6740347273116072
 30
0.0
 40
0.0399999995591163
 50
179.9999999857705859
 51
225.0000003577198981
  0
ARC
  5
1A1F2
  8
0
 10
4539.0332717373667037
 20
461.0014346947870081
 30
0.0
 40
0.0150000058877939
 50
270.0
 51
359.9611457877302882
  0
ARC
  5
1A1F3
  8
0
 10
4540.2893733456648988
 20
460.5010347273116054
 30
0.0
 40
0.0399999995591021
 50
179.9999999898188889
 51
225.0000003577222003
  0
LINE
  5
1A1F4
  8
0
 10
4540.2610890749056125
 20
460.4727504561993214
 30
0.0
 11
4540.3162464155057023
 21
460.4174417561993096
 31
0.0
  0
ARC
  5
1A1F5
  8
0
 10
4540.3445306869043634
 20
460.4457260279872912
 30
0.0
 40
0.0400000004880295
 50
225.0000003959677031
 51
269.9999998609699787
  0
ARC
  5
1A1F6
  8
0
 10
4541.1261398652522985
 20
458.3778687910863141
 30
0.0
 40
0.0100051343540088
 50
270.0483812409406141
 51
0.0000002209016851
  0
LINE
  5
1A1F7
  8
0
 10
4540.3162464155057023
 20
462.3625142357993241
 30
0.0
 11
4540.3162464155057023
 21
460.4174417561993096
 31
0.0
  0
LINE
  5
1A1F8
  8
0
 10
4539.1510434441070174
 20
462.2052622672994175
 30
0.0
 11
4539.1510434441070174
 21
460.5746937246992729
 31
0.0
  0
ARC
  5
1A1F9
  8
0
 10
4539.0482709839070594
 20
461.7399779959994248
 30
0.0
 40
0.0199999999999978
 50
270.0
 51
0.0000000000065138
  0
ARC
  5
1A1FA
  8
0
 10
4539.0482709839070594
 20
461.0399779959993225
 30
0.0
 40
0.0199999999999978
 50
359.9999999999968168
 51
90.0
  0
ARC
  5
1A1FB
  8
0
 10
4540.4362237398054276
 20
460.4157260274993746
 30
0.0
 40
0.0100000000000087
 50
270.0000000000521254
 51
359.9999999999902229
  0
LINE
  5
1A1FC
  8
0
 10
4540.209373346106986
 20
460.5629779959992902
 30
0.0
 11
4539.1793277155038595
 21
460.5629779959992902
 31
0.0
  0
ARC
  5
1A1FD
  8
0
 10
4540.209760482416641
 20
460.5233666995093245
 30
0.0
 40
0.0396131882602251
 50
359.7680618219450253
 51
90.5599556795411758
  0
LINE
  5
1A1FE
  8
0
 10
4541.0561449996066585
 20
458.3661516512992762
 30
0.0
 11
4541.0561449996066585
 21
458.3668202153992866
 31
0.0
  0
LINE
  5
1A1FF
  8
0
 10
4541.0561449996066585
 20
458.3668202153992866
 30
0.0
 11
4541.0861449996064039
 21
458.3678636602992924
 31
0.0
  0
LINE
  5
1A200
  8
0
 10
4541.0861449996064039
 20
458.3678636602992924
 30
0.0
 11
4541.1261483137068353
 21
458.3678636602992924
 31
0.0
  0
LINE
  5
1A201
  8
0
 10
4537.9316059205548299
 20
461.7589263586497736
 30
0.0
 11
4538.7386925236960451
 21
460.9518397555099796
 31
0.0
  0
ENDSEC
  0
EOF
