  0
SECTION
  2
HEADER
  9
$ACADVER
  1
AC1009
  9
$INSBASE
 10
4511.1743295547857997
 20
444.3039869720267916
 30
0.0
  9
$EXTMIN
 10
4507.7688177812851791
 20
443.1631208302268874
 30
0.0
  9
$EXTMAX
 10
4511.1849970176817806
 20
445.4448531138269232
 30
0.0
  9
$LIMMIN
 10
0.0
 20
0.0
  9
$LIMMAX
 10
11.6929133858000007
 20
8.2677165353999982
  9
$ORTHOMODE
 70
     0
  9
$REGENMODE
 70
     1
  9
$FILLMODE
 70
     1
  9
$QTEXTMODE
 70
     0
  9
$MIRRTEXT
 70
     0
  9
$DRAGMODE
 70
     2
  9
$LTSCALE
 40
0.6431102362
  9
$OSMODE
 70
  4095
  9
$ATTMODE
 70
     1
  9
$TEXTSIZE
 40
0.2
  9
$TRACEWID
 40
0.05
  9
$TEXTSTYLE
  7
STANDARD
  9
$CLAYER
  8
0
  9
$CELTYPE
  6
BYLAYER
  9
$CECOLOR
 62
   256
  9
$DIMSCALE
 40
1.0
  9
$DIMASZ
 40
0.1875
  9
$DIMEXO
 40
0.0625
  9
$DIMDLI
 40
0.4443307087
  9
$DIMRND
 40
0.0
  9
$DIMDLE
 40
0.0
  9
$DIMEXE
 40
0.125
  9
$DIMTP
 40
0.01
  9
$DIMTM
 40
0.01
  9
$DIMTXT
 40
2.0
  9
$DIMCEN
 40
0.1052362205
  9
$DIMTSZ
 40
0.0
  9
$DIMTOL
 70
     1
  9
$DIMLIM
 70
     0
  9
$DIMTIH
 70
     1
  9
$DIMTOH
 70
     1
  9
$DIMSE1
 70
     0
  9
$DIMSE2
 70
     0
  9
$DIMTAD
 70
     0
  9
$DIMZIN
 70
     0
  9
$DIMBLK
  1

  9
$DIMASO
 70
     1
  9
$DIMSHO
 70
     1
  9
$DIMPOST
  1
\X
  9
$DIMAPOST
  1

  9
$DIMALT
 70
     1
  9
$DIMALTD
 70
     2
  9
$DIMALTF
 40
25.3999999999999986
  9
$DIMLFAC
 40
1.0
  9
$DIMTOFL
 70
     0
  9
$DIMTVP
 40
0.0
  9
$DIMTIX
 70
     0
  9
$DIMSOXD
 70
     0
  9
$DIMSAH
 70
     0
  9
$DIMBLK1
  1

  9
$DIMBLK2
  1

  9
$DIMSTYLE
  2
STANDARD
  9
$DIMCLRD
 70
     0
  9
$DIMCLRE
 70
     0
  9
$DIMCLRT
 70
     0
  9
$DIMTFAC
 40
1.0
  9
$DIMGAP
 40
0.09
  9
$LUNITS
 70
     2
  9
$LUPREC
 70
     4
  9
$SKETCHINC
 40
0.1
  9
$FILLETRAD
 40
0.0
  9
$AUNITS
 70
     0
  9
$AUPREC
 70
     0
  9
$MENU
  1
.
  9
$ELEVATION
 40
0.0
  9
$PELEVATION
 40
0.0
  9
$THICKNESS
 40
0.0
  9
$LIMCHECK
 70
     0
  9
$BLIPMODE
 70
     0
  9
$CHAMFERA
 40
0.0
  9
$CHAMFERB
 40
0.0
  9
$SKPOLY
 70
     0
  9
$TDCREATE
 40
2458060.468368056230247
  9
$TDUPDATE
 40
2459405.431759259197861
  9
$TDINDWG
 40
1.5310893750000001
  9
$TDUSRTIMER
 40
1.5310893750000001
  9
$USRTIMER
 70
     1
  9
$ANGBASE
 50
0.0
  9
$ANGDIR
 70
     0
  9
$PDMODE
 70
     0
  9
$PDSIZE
 40
0.3125
  9
$PLINEWID
 40
0.0
  9
$COORDS
 70
     1
  9
$SPLFRAME
 70
     0
  9
$SPLINETYPE
 70
     6
  9
$SPLINESEGS
 70
     8
  9
$ATTDIA
 70
     1
  9
$ATTREQ
 70
     1
  9
$HANDLING
 70
     1
  9
$HANDSEED
  5
19DD5
  9
$SURFTAB1
 70
     6
  9
$SURFTAB2
 70
     6
  9
$SURFTYPE
 70
     6
  9
$SURFU
 70
     6
  9
$SURFV
 70
     6
  9
$UCSNAME
  2

  9
$UCSORG
 10
0.0
 20
0.0
 30
0.0
  9
$UCSXDIR
 10
1.0
 20
0.0
 30
0.0
  9
$UCSYDIR
 10
0.0
 20
1.0
 30
0.0
  9
$PUCSNAME
  2

  9
$PUCSORG
 10
0.0
 20
0.0
 30
0.0
  9
$PUCSXDIR
 10
1.0
 20
0.0
 30
0.0
  9
$PUCSYDIR
 10
0.0
 20
1.0
 30
0.0
  9
$USERI1
 70
     0
  9
$USERI2
 70
     0
  9
$USERI3
 70
     0
  9
$USERI4
 70
     0
  9
$USERI5
 70
     0
  9
$USERR1
 40
0.0
  9
$USERR2
 40
0.0
  9
$USERR3
 40
0.0
  9
$USERR4
 40
0.0
  9
$USERR5
 40
0.0
  9
$WORLDVIEW
 70
     1
  9
$SHADEDGE
 70
     3
  9
$SHADEDIF
 70
    70
  9
$TILEMODE
 70
     1
  9
$MAXACTVP
 70
    64
  9
$PLIMCHECK
 70
     0
  9
$PEXTMIN
 10
1.0000000000000000E+20
 20
1.0000000000000000E+20
 30
1.0000000000000000E+20
  9
$PEXTMAX
 10
-1.0000000000000000E+20
 20
-1.0000000000000000E+20
 30
-1.0000000000000000E+20
  9
$PLIMMIN
 10
0.0
 20
0.0
  9
$PLIMMAX
 10
12.0
 20
9.0
  9
$UNITMODE
 70
     0
  9
$VISRETAIN
 70
     1
  9
$PLINEGEN
 70
     0
  9
$PSLTSCALE
 70
     1
  0
ENDSEC
  0
SECTION
  2
TABLES
  0
TABLE
  2
VPORT
 70
     1
  0
VPORT
  2
*ACTIVE
 70
     0
 10
0.0
 20
0.0
 11
1.0
 21
1.0
 12
598.1115509541714346
 22
311.8484523260891024
 13
0.0
 23
0.0
 14
1.0
 24
1.0
 15
0.0
 25
0.0
 16
0.0
 26
0.0
 36
60.4960186965801583
 17
3911.3653564453120453
 27
132.5796051025390057
 37
0.0
 40
2.3025311232963119
 41
2.8398203592814371
 42
50.0
 43
0.0
 44
0.0
 50
0.0
 51
0.0
 71
     0
 72
   100
 73
     1
 74
     1
 75
     0
 76
     0
 77
     0
 78
     0
  0
ENDTAB
  0
TABLE
  2
LTYPE
 70
     2
  0
LTYPE
  2
CONTINUOUS
 70
     0
  3
Solid line
 72
    65
 73
     0
 40
0.0
  0
LTYPE
  2
PHANTOM2
 70
     0
  3
___ _ _ ___ _ _ ___ _ _ ___ _ _
 72
    65
 73
     6
 40
1.25
 49
0.625
 49
-0.125
 49
0.125
 49
-0.125
 49
0.125
 49
-0.125
  0
ENDTAB
  0
TABLE
  2
LAYER
 70
     2
  0
LAYER
  2
0
 70
     0
 62
   255
  6
CONTINUOUS
  0
LAYER
  2
DEFPOINTS
 70
     0
 62
     7
  6
CONTINUOUS
  0
ENDTAB
  0
TABLE
  2
STYLE
 70
     1
  0
STYLE
  2
STANDARD
 70
     0
 40
0.0
 41
0.8
 50
0.0
 71
     0
 42
0.2
  3
txt
  4

  0
ENDTAB
  0
TABLE
  2
VIEW
 70
     0
  0
ENDTAB
  0
TABLE
  2
UCS
 70
     0
  0
ENDTAB
  0
TABLE
  2
APPID
 70
    11
  0
APPID
  2
ACAD
 70
     0
  0
APPID
  2
ACAD_MLEADERVER
 70
     0
  0
APPID
  2
ACAD_EXEMPT_FROM_CAD_STANDARDS
 70
     0
  0
APPID
  2
ACAD_NAV_VCDISPLAY
 70
     0
  0
APPID
  2
ACAECLAYERSTANDARD
 70
     0
  0
APPID
  2
ACCMTRANSPARENCY
 70
     0
  0
APPID
  2
ACAD_DSTYLE_DIMJAG
 70
     0
  0
APPID
  2
ACAD_DSTYLE_DIMTALN
 70
     0
  0
APPID
  2
ACDBATTR
 70
     0
  0
APPID
  2
ACADANNOTATIVE
 70
     0
  0
APPID
  2
DCO15
 70
     0
  0
ENDTAB
  0
TABLE
  2
DIMSTYLE
 70
     1
  0
DIMSTYLE
  2
STANDARD
 70
     0
  3

  4

  5

  6

  7

 40
1.0
 41
0.1875
 42
0.0625
 43
0.38
 44
0.125
 45
0.0
 46
0.0
 47
0.01
 48
0.01
140
0.15625
141
0.09
142
0.0
143
25.3999999999999986
144
1.0
145
0.0
146
1.0
147
0.09
 71
     1
 72
     0
 73
     1
 74
     1
 75
     0
 76
     0
 77
     0
 78
     4
170
     0
171
     2
172
     0
173
     0
174
     0
175
     0
176
     0
177
     0
178
     0
  0
ENDTAB
  0
ENDSEC
  0
SECTION
  2
BLOCKS
  0
BLOCK
  8
0
  2
$MODEL_SPACE
 70
     0
 10
0.0
 20
0.0
 30
0.0
  3
$MODEL_SPACE
  1

  0
ENDBLK
  5
21
  8
0
  0
BLOCK
 67
     1
  8
0
  2
$PAPER_SPACE
 70
     0
 10
0.0
 20
0.0
 30
0.0
  3
$PAPER_SPACE
  1

  0
ENDBLK
  5
1D
 67
     1
  8
0
  0
ENDSEC
  0
SECTION
  2
ENTITIES
  0
ATTDEF
  5
194DB
  8
DEFPOINTS
 10
4511.1743303510129408
 20
444.3073198628499085
 30
0.0
 40
0.001
  1
P24931-BAF
  3

  2
MODELNUMBER
 70
     0
1001
ACDBATTR
1070
     0
1070
     1
  0
ATTDEF
  5
194DC
  8
DEFPOINTS
 10
4511.1743303510129408
 20
444.3056530224707217
 30
0.0
 40
0.001
  1
PINNA PALETTA
  3

  2
TRADENAME
 70
     0
1001
ACDBATTR
1070
     0
1070
     1
  0
ATTDEF
  5
194DD
  8
DEFPOINTS
 10
4511.1743303510129408
 20
444.3039865295165214
 30
0.0
 40
0.001
  1
TOWEL BAR
  3

  2
PRODUCT
 70
     0
1001
ACDBATTR
1070
     0
1070
     1
  0
LINE
  5
19BDC
  8
0
 10
4511.1743295547857997
 20
443.2661523263345771
 30
0.0
 11
4511.1743295547857997
 21
445.3418216177191198
 31
0.0
  0
LINE
  5
19BDD
  8
0
 10
4511.1483295547841408
 20
443.1831208302367031
 30
0.0
 11
4511.1483295547841408
 21
445.4248531138169938
 31
0.0
  0
LINE
  5
19BDE
  8
0
 10
4510.761329554785334
 20
443.2791206844000271
 30
0.0
 11
4510.761329554785334
 21
445.3288532596537266
 31
0.0
  0
LINE
  5
19BDF
  8
0
 10
4510.5640933342847347
 20
443.5165114007015745
 30
0.0
 11
4510.5640933342847347
 21
445.0914625433521223
 31
0.0
  0
LINE
  5
19BE0
  8
0
 10
4508.7530697497850269
 20
443.900443664926911
 30
0.0
 11
4510.5640933342847347
 21
443.900443664926911
 31
0.0
  0
LINE
  5
19BE1
  8
0
 10
4508.7530697497850269
 20
443.900443664926911
 30
0.0
 11
4508.7530697497850269
 21
444.707530279026912
 31
0.0
  0
LINE
  5
19BE2
  8
0
 10
4511.1283295547809757
 20
443.163120830326875
 30
0.0
 11
4511.1094410802852508
 21
443.163120830326875
 31
0.0
  0
LINE
  5
19BE3
  8
0
 10
4510.9029015660853474
 20
443.163120830326875
 30
0.0
 11
4510.8686021492403597
 21
443.163120830326875
 31
0.0
  0
LINE
  5
19BE4
  8
0
 10
4510.8686021492403597
 20
445.4448531137268219
 30
0.0
 11
4511.1283295547809757
 21
445.4448531137268219
 31
0.0
  0
LINE
  5
19BE5
  8
0
 10
4510.5640933342847347
 20
444.707530279026912
 30
0.0
 11
4508.7530697497850269
 21
444.707530279026912
 31
0.0
  0
LINE
  5
19BE6
  8
0
 10
4510.8538033478853322
 20
443.1696673743268207
 30
0.0
 11
4510.7665307532861334
 21
443.2656672284268211
 31
0.0
  0
ARC
  5
19BE7
  8
0
 10
4511.1543295547853631
 20
443.2661523263269032
 30
0.0
 40
0.019999999999996
 50
269.9999999999478746
 51
0.0000000221142695
  0
LINE
  5
19BE8
  8
0
 10
4511.1543295547853631
 20
443.2461523263269214
 30
0.0
 11
4511.1483295547841408
 21
443.2461523263269214
 31
0.0
  0
ARC
  5
19BE9
  8
0
 10
4511.1283295547846137
 20
443.183120830226926
 30
0.0
 40
0.019999999999996
 50
270.0
 51
0.000000028146026
  0
ARC
  5
19BEA
  8
0
 10
4510.8686021492403597
 20
443.1831208300118874
 30
0.0
 40
0.0199999997850446
 50
222.2736888114168039
 51
270.0000001301191901
  0
ARC
  5
19BEB
  8
0
 10
4510.781329555062257
 20
443.2791206843784835
 30
0.0
 40
0.0200000002767826
 50
179.9999999383209968
 51
222.273688562915396
  0
ARC
  5
19BEC
  8
0
 10
4510.7413295547848975
 20
443.4094869720269116
 30
0.0
 40
0.0199999999999978
 50
359.9999999999968168
 51
90.0
  0
LINE
  5
19BED
  8
0
 10
4510.7413295547848975
 20
443.4294869720267798
 30
0.0
 11
4510.6511177630336533
 21
443.4294869720267798
 31
0.0
  0
ARC
  5
19BEE
  8
0
 10
4510.6511177630336533
 20
443.4494869722707904
 30
0.0
 40
0.0200000002440268
 50
225.0000005985573921
 51
269.9999998609699787
  0
LINE
  5
19BEF
  8
0
 10
4510.6369756273852545
 20
443.4353448363268058
 30
0.0
 11
4510.5699511986858852
 21
443.5023692651267879
 31
0.0
  0
ARC
  5
19BF0
  8
0
 10
4510.5840933340650736
 20
443.5165114006829867
 30
0.0
 40
0.0199999997795537
 50
179.9999999467628982
 51
225.0000003577222003
  0
LINE
  5
19BF1
  8
0
 10
4511.1283295547809757
 20
445.4448531137268219
 30
0.0
 11
4510.8686021492403597
 21
445.4448531137268219
 31
0.0
  0
LINE
  5
19BF2
  8
0
 10
4510.8538033478853322
 20
445.4383065697268194
 30
0.0
 11
4510.7665307532861334
 21
445.3423067156268189
 31
0.0
  0
ARC
  5
19BF3
  8
0
 10
4511.1543295547853631
 20
445.3418216177269073
 30
0.0
 40
0.0199999999999925
 50
359.9999999778825099
 51
90.0
  0
LINE
  5
19BF4
  8
0
 10
4511.1543295547853631
 20
445.3618216177267755
 30
0.0
 11
4511.1483295547841408
 21
445.3618216177267755
 31
0.0
  0
ARC
  5
19BF5
  8
0
 10
4511.1283295547846137
 20
445.4248531138268845
 30
0.0
 40
0.019999999999996
 50
359.999999971847501
 51
90.0
  0
ARC
  5
19BF6
  8
0
 10
4510.8686021492403597
 20
445.4248531140418095
 30
0.0
 40
0.0199999997850446
 50
89.9999998698808099
 51
137.7263111885831108
  0
ARC
  5
19BF7
  8
0
 10
4510.781329555062257
 20
445.3288532596753271
 30
0.0
 40
0.0200000002767774
 50
137.7263114370821881
 51
180.0000000616853981
  0
ARC
  5
19BF8
  8
0
 10
4510.7413295547848975
 20
445.1984869720268989
 30
0.0
 40
0.0199999999999978
 50
270.0
 51
0.0000000000032569
  0
LINE
  5
19BF9
  8
0
 10
4510.7413295547848975
 20
445.1784869720269171
 30
0.0
 11
4510.6511177630336533
 21
445.1784869720269171
 31
0.0
  0
ARC
  5
19BFA
  8
0
 10
4510.6511177630336533
 20
445.1584869717827928
 30
0.0
 40
0.0200000002440268
 50
90.0000001390300355
 51
134.9999994014426079
  0
LINE
  5
19BFB
  8
0
 10
4510.6369756273852545
 20
445.1726291077267774
 30
0.0
 11
4510.5699511986858852
 21
445.1056046789267953
 31
0.0
  0
ARC
  5
19BFC
  8
0
 10
4510.5840933340650736
 20
445.0914625433707101
 30
0.0
 40
0.0199999997795327
 50
134.9999996422247079
 51
180.0000000532533875
  0
ARC
  5
19BFD
  8
0
 10
4508.7333847105746827
 20
443.920128704125375
 30
0.0
 40
0.0196850391985143
 50
269.9999994473711808
 51
0.0
  0
ARC
  5
19BFE
  8
0
 10
4508.7333847105746827
 20
444.6878452398283912
 30
0.0
 40
0.0196850391985158
 50
0.0
 51
90.0000005526287623
  0
LINE
  5
19BFF
  8
0
 10
4508.172361088384605
 20
444.7075302791268996
 30
0.0
 11
4508.7333847105746827
 21
444.7075302791268996
 31
0.0
  0
LINE
  5
19C00
  8
0
 10
4508.172361088384605
 20
443.900443664926911
 30
0.0
 11
4508.7333847105746827
 21
443.900443664926911
 31
0.0
  0
ARC
  5
19C02
  8
0
 10
4508.172361088384605
 20
444.3039869720267916
 30
0.0
 40
0.4035433070999988
 50
90.0
 51
270.0
  0
LINE
  5
19C03
  8
0
 10
4510.6369756273852545
 20
445.1726291076267898
 30
0.0
 11
4510.6369756273852545
 21
443.435344836426907
 31
0.0
  0
LINE
  5
19C04
  8
0
 10
4510.8538033478853322
 20
443.1696673744268082
 30
0.0
 11
4510.8538033478853322
 21
445.4383065696267749
 31
0.0
  0
ARC
  5
19C05
  8
0
 10
4511.0061713231852991
 20
442.0399830015282987
 30
0.0
 40
1.1278755362227471
 50
84.7465657513035779
 51
95.2534342486964221
  0
ARC
  5
19C06
  8
0
 10
4509.0052146331690892
 20
442.9976231124483093
 30
0.0
 40
1.71617213293269
 50
94.8972106478200743
 51
98.4486424829098041
  0
ARC
  5
19C07
  8
0
 10
4509.0573656499609569
 20
443.2320991231069911
 30
0.0
 40
1.478300322126052
 50
93.5702975741420033
 51
101.8787723567362065
  0
ARC
  5
19C08
  8
0
 10
4508.9314240619605698
 20
444.2747950467397118
 30
0.0
 40
0.4186788190119322
 50
97.3890564379844648
 51
115.2134915148672007
  0
ARC
  5
19C09
  8
0
 10
4509.1813841269713521
 20
442.3473268231647921
 30
0.0
 40
2.3622872638872932
 50
92.4067559773351945
 51
97.3890564379844648
  0
ARC
  5
19C0A
  8
0
 10
4509.032974944306261
 20
444.0670633909704748
 30
0.0
 40
0.6251289924814833
 50
95.0025953861954235
 51
116.5997989968116997
  0
ARC
  5
19C0B
  8
0
 10
4509.3152212054137635
 20
440.8426561150325256
 30
0.0
 40
3.861865811104745
 50
91.5084162992617962
 51
95.0025953861954235
  0
ARC
  5
19C0C
  8
0
 10
4509.4774074721335637
 20
439.2273029796048149
 30
0.0
 40
5.48223345269282
 50
91.550080194375056
 51
92.7585580009817221
  0
ARC
  5
19C0D
  8
0
 10
4509.0946115318492957
 20
443.9366470810638248
 30
0.0
 40
0.7497792008703686
 50
97.377650580897992
 51
117.0986076533950069
  0
ARC
  5
19C0E
  8
0
 10
4509.4587848316668897
 20
441.1240787269611019
 30
0.0
 40
3.5858262630327542
 50
93.6380681461295552
 51
97.377650580897992
  0
ARC
  5
19C0F
  8
0
 10
4509.4355960760467497
 20
440.7649250174083022
 30
0.0
 40
3.9430523239669242
 50
90.8627987577608138
 51
92.97062893091109
  0
ARC
  5
19C10
  8
0
 10
4509.2139020437698491
 20
443.7615445096520261
 30
0.0
 40
0.9232179098075507
 50
96.0282417936735584
 51
119.944390261105994
  0
ARC
  5
19C11
  8
0
 10
4509.9137672219885644
 20
436.2835620519579152
 30
0.0
 40
8.4338210351395269
 50
92.7697957248432346
 51
95.4213427821599538
  0
ARC
  5
19C12
  8
0
 10
4509.2956795532500109
 20
443.6571702533237271
 30
0.0
 40
1.026485065716344
 50
95.3453051035616426
 51
121.9115620905784994
  0
ARC
  5
19C13
  8
0
 10
4509.741680653955882
 20
440.0093864809056754
 30
0.0
 40
4.701110282188262
 50
92.0355475907473846
 51
96.6158772891123903
  0
ARC
  5
19C14
  8
0
 10
4509.3618950477230101
 20
443.5865160061454731
 30
0.0
 40
1.085872090794606
 50
96.6422657769540052
 51
124.1027662802377023
  0
ARC
  5
19C15
  8
0
 10
4509.8975299692510816
 20
439.773237138010586
 30
0.0
 40
4.9363500367974931
 50
91.6540776040439766
 51
97.6980666695776847
  0
ARC
  5
19C16
  8
0
 10
4509.5481812920115772
 20
443.071771218447509
 30
0.0
 40
1.606126153988056
 50
101.0427972719363936
 51
119.6730009212547969
  0
ARC
  5
19C17
  8
0
 10
4509.7682138145110002
 20
441.944298960617914
 30
0.0
 40
2.754868075889044
 50
93.339118089666286
 51
101.0427972719363936
  0
ARC
  5
19C18
  8
0
 10
4517.9180526904892758
 20
328.0910763946855013
 30
0.0
 40
116.8991750472457056
 50
93.9856451846210064
 51
94.0765639214273648
  0
ARC
  5
19C19
  8
0
 10
4509.7367445518357272
 20
442.6713138477362008
 30
0.0
 40
2.0111293979495581
 50
102.449337937176395
 51
119.2824843089987041
  0
ARC
  5
19C1A
  8
0
 10
4509.8125800994439487
 20
442.3278046707426938
 30
0.0
 40
2.362909990023347
 50
94.8721326831806664
 51
102.449337937176395
  0
ARC
  5
19C1B
  8
0
 10
4510.6421088568431514
 20
430.7072186286312103
 30
0.0
 40
14.01287984699551
 50
92.4268496939825752
 51
94.2161456654410898
  0
ARC
  5
19C1C
  8
0
 10
4509.8311298785956751
 20
442.5199971562540782
 30
0.0
 40
2.1614904047601522
 50
102.1055988059093949
 51
119.917860068914905
  0
ARC
  5
19C1D
  8
0
 10
4510.0822023707642074
 20
440.9647114450506251
 30
0.0
 40
3.7357155166622049
 50
93.2004025326019843
 51
100.8681504042876043
  0
ARC
  5
19C1E
  8
0
 10
4509.6076968107227003
 20
452.4541434162027826
 30
0.0
 40
7.7640988849878321
 50
271.9629541309532783
 51
273.8460572749169728
  0
ARC
  5
19C1F
  8
0
 10
4510.0440926520768699
 20
442.0772060941612835
 30
0.0
 40
2.6109506637519702
 50
93.3907826754208799
 51
119.6344538943741043
  0
ARC
  5
19C20
  8
0
 10
4513.0448536350404538
 20
391.431030653877599
 30
0.0
 40
53.3459450286364572
 50
92.9238547975938047
 51
93.3907826754208799
  0
ARC
  5
19C21
  8
0
 10
4510.1890479520498047
 20
441.7571423507305894
 30
0.0
 40
2.9321117929488252
 50
95.8880792198501695
 51
119.3236347072888037
  0
ARC
  5
19C22
  8
0
 10
4510.568936465077968
 20
437.2952832642964154
 30
0.0
 40
7.4098321325869652
 50
90.037449022959521
 51
95.2707271349939049
  0
ARC
  5
19C23
  8
0
 10
4507.8946385352182915
 20
446.7751803481284014
 30
0.0
 40
2.6291523440968079
 50
290.5408107731838072
 51
296.0743377962648992
  0
ARC
  5
19C24
  8
0
 10
4510.2426679233758477
 20
441.8539432990160094
 30
0.0
 40
2.823785592196177
 50
100.7259733943376006
 51
114.9784318897218043
  0
ARC
  5
19C25
  8
0
 10
4510.5509602337488104
 20
439.7141624846181003
 30
0.0
 40
4.9844699501066643
 50
89.8490366857655118
 51
99.6300674878053627
  0
ARC
  5
19C26
  8
0
 10
4508.3703884251663112
 20
445.8481936676736268
 30
0.0
 40
1.621694684695236
 50
289.0488366796319042
 51
295.4840330458013113
  0
ARC
  5
19C27
  8
0
 10
4510.3301956117284135
 20
441.7364239770670906
 30
0.0
 40
2.9332470489708888
 50
96.8431380854099757
 51
115.4840330458012971
  0
ARC
  5
19C28
  8
0
 10
4510.7482554235293719
 20
438.9454594393586717
 30
0.0
 40
5.7547333264156793
 50
91.8338838178586201
 51
97.6648971411926823
  0
ARC
  5
19C29
  8
0
 10
4510.5497363079875868
 20
441.124567204453399
 30
0.0
 40
3.5560502580703188
 50
102.7604003711968943
 51
115.9670374424990058
  0
ARC
  5
19C2A
  8
0
 10
4510.7574805957656281
 20
439.7488954893271966
 30
0.0
 40
4.9446678552121464
 50
92.2414246860726905
 51
101.587242640310194
  0
ARC
  5
19C2B
  8
0
 10
4510.5724645320196942
 20
441.1700834151301933
 30
0.0
 40
3.494031872025618
 50
104.754018240533
 51
115.3068882209448986
  0
ARC
  5
19C2C
  8
0
 10
4510.6848260408360147
 20
440.7434260419473731
 30
0.0
 40
3.9352366122026021
 50
91.7581052584700814
 51
104.754018240533
  0
ARC
  5
19C2D
  8
0
 10
4510.7742866758244418
 20
440.5338216267311964
 30
0.0
 40
4.1334608378885642
 50
103.0359509871657053
 51
113.202974438814806
  0
ARC
  5
19C2E
  8
0
 10
4510.8431571161600004
 20
440.2363626360580042
 30
0.0
 40
4.4387885121736206
 50
93.6045260257590428
 51
103.0359509871657053
  0
ARC
  5
19C2F
  8
0
 10
4511.2630116931968587
 20
439.0040865870183211
 30
0.0
 40
5.7146203565175497
 50
104.5869110755814972
 51
111.1401980507363021
  0
ARC
  5
19C30
  8
0
 10
4510.7442234809695947
 20
440.9976120709885095
 30
0.0
 40
3.6546967986191672
 50
92.8250990118765742
 51
104.5869110755814972
  0
ARC
  5
19C31
  8
0
 10
4511.0156844074354012
 20
439.8435385332178953
 30
0.0
 40
4.8130193245183968
 50
95.3838092104595745
 51
110.9351603756456939
  0
ARC
  5
19C32
  8
0
 10
4510.9776760042768728
 20
439.8923033799400173
 30
0.0
 40
4.7378130027668046
 50
95.0079521281519987
 51
110.1757044214457011
  0
ARC
  5
19C33
  8
0
 10
4511.0583956458212924
 20
439.8911701425981846
 30
0.0
 40
4.7333245974008218
 50
95.9943423203229571
 51
109.8935922638116978
  0
ARC
  5
19C34
  8
0
 10
4509.0320963170479445
 20
446.4713043460699851
 30
0.0
 40
2.1832325545043711
 50
282.7276125288183835
 51
287.7207354397444874
  0
ARC
  5
19C35
  8
0
 10
4510.9704193338220648
 20
440.4053159068491823
 30
0.0
 40
4.1849156741499414
 50
95.5717966376607109
 51
107.7207354397446011
  0
ARC
  5
19C36
  8
0
 10
4511.2261952699145695
 20
439.4682482398411025
 30
0.0
 40
5.1267019442665323
 50
97.4203458736625834
 51
107.7751179642879009
  0
ARC
  5
19C37
  8
0
 10
4511.2777545777189516
 20
439.010801932020911
 30
0.0
 40
5.5554912755190253
 50
97.3806401381513496
 51
106.0531927575953972
  0
ARC
  5
19C38
  8
0
 10
4511.3899376535482588
 20
438.7471210959587893
 30
0.0
 40
5.8053099054963431
 50
98.1784537578219414
 51
105.1275622270387942
  0
ARC
  5
19C39
  8
0
 10
4511.5821687845464112
 20
436.7819964051632837
 30
0.0
 40
7.7404760935212122
 50
97.5577948041960354
 51
102.347127849290203
  0
ARC
  5
19C3A
  8
0
 10
4511.3983440464317027
 20
438.6039422168282726
 30
0.0
 40
5.8846643762122177
 50
98.1501029003612899
 51
103.2019319774189938
  0
ARC
  5
19C3B
  8
0
 10
4510.7743480270328291
 20
441.4295578143858734
 30
0.0
 40
2.969952880877015
 50
94.0595902841412936
 51
102.625187128601695
  0
ARC
  5
19C3C
  8
0
 10
4511.0937249758226244
 20
439.7785989303073961
 30
0.0
 40
4.616162298246552
 50
96.5882937695808153
 51
100.2760486921090006
  0
ARC
  5
19C3D
  8
0
 10
4510.9350736903415964
 20
440.4032600548821961
 30
0.0
 40
3.9502053186082482
 50
97.5951692979790408
 51
98.4297998521963677
  0
ARC
  5
19C3E
  8
0
 10
4510.5411354119860334
 20
443.3575901386283249
 30
0.0
 40
0.9697265632936835
 50
88.6434165960640144
 51
97.5951692979790408
  0
ARC
  5
19C3F
  8
0
 10
4509.0052146331690892
 20
445.6103508316055013
 30
0.0
 40
1.71617213293269
 50
261.5513575170901959
 51
265.1027893521799115
  0
ARC
  5
19C40
  8
0
 10
4509.0573656499609569
 20
445.3758748209468195
 30
0.0
 40
1.478300322126052
 50
258.1212276432638077
 51
266.4297024258580109
  0
ARC
  5
19C41
  8
0
 10
4508.9314240619605698
 20
444.3331788973139851
 30
0.0
 40
0.4186788190119322
 50
244.7865084851327993
 51
262.6109435620155068
  0
ARC
  5
19C42
  8
0
 10
4509.1813841269713521
 20
446.2606471208889047
 30
0.0
 40
2.3622872638872932
 50
262.6109435620155068
 51
267.5932440226648055
  0
ARC
  5
19C43
  8
0
 10
4509.032974944306261
 20
444.5409105530832221
 30
0.0
 40
0.6251289924814833
 50
243.4002010031883003
 51
264.9974046138045196
  0
ARC
  5
19C44
  8
0
 10
4509.3152212054137635
 20
447.7653178290212281
 30
0.0
 40
3.861865811104745
 50
264.9974046138045196
 51
268.4915837007382038
  0
ARC
  5
19C45
  8
0
 10
4509.4774074721335637
 20
449.3806709644488819
 30
0.0
 40
5.48223345269282
 50
267.2414419990182068
 51
268.4499198056249156
  0
ARC
  5
19C46
  8
0
 10
4509.0946115318492957
 20
444.6713268629899858
 30
0.0
 40
0.7497792008703686
 50
242.9013923466050073
 51
262.6223494191020222
  0
ARC
  5
19C47
  8
0
 10
4509.4587848316668897
 20
447.483895217092595
 30
0.0
 40
3.5858262630327542
 50
262.6223494191020222
 51
266.3619318538703737
  0
ARC
  5
19C48
  8
0
 10
4509.4355960760467497
 20
447.8430489266453947
 30
0.0
 40
3.9430523239669242
 50
267.0293710690888815
 51
269.1372012422392004
  0
ARC
  5
19C49
  8
0
 10
4509.2139020437698491
 20
444.8464294344017276
 30
0.0
 40
0.9232179098075507
 50
240.0556097388939918
 51
263.9717582063261148
  0
ARC
  5
19C4A
  8
0
 10
4509.9137672219885644
 20
452.3244118920957817
 30
0.0
 40
8.4338210351395269
 50
264.5786572178399751
 51
267.2302042751567797
  0
ARC
  5
19C4B
  8
0
 10
4509.2956795532500109
 20
444.9508036907300834
 30
0.0
 40
1.026485065716344
 50
238.0884379094214864
 51
264.6546948964382864
  0
ARC
  5
19C4C
  8
0
 10
4509.741680653955882
 20
448.5985874631480783
 30
0.0
 40
4.701110282188262
 50
263.3841227108875955
 51
267.9644524092526012
  0
ARC
  5
19C4D
  8
0
 10
4509.3618950477230101
 20
445.0214579379082238
 30
0.0
 40
1.085872090794606
 50
235.8972337197623119
 51
263.357734223046009
  0
ARC
  5
19C4E
  8
0
 10
4509.8975299692510816
 20
448.8347368060431108
 30
0.0
 40
4.9363500367974931
 50
262.3019333304222869
 51
268.3459223959559949
  0
ARC
  5
19C4F
  8
0
 10
4509.5481812920115772
 20
445.5362027256063016
 30
0.0
 40
1.606126153988056
 50
240.3269990787451036
 51
258.9572027280635211
  0
ARC
  5
19C50
  8
0
 10
4509.7682138145110002
 20
446.6636749834358966
 30
0.0
 40
2.754868075889044
 50
258.9572027280635211
 51
266.6608819103337282
  0
ARC
  5
19C51
  8
0
 10
4517.9180526904892758
 20
560.5168975493683092
 30
0.0
 40
116.8991750472457056
 50
265.9234360785727063
 51
266.0143548153790221
  0
ARC
  5
19C52
  8
0
 10
4509.7367445518357272
 20
445.9366600963176097
 30
0.0
 40
2.0111293979495581
 50
240.7175156910012959
 51
257.5506620628236192
  0
ARC
  5
19C53
  8
0
 10
4509.8125800994439487
 20
446.2801692733110031
 30
0.0
 40
2.362909990023347
 50
257.5506620628236192
 51
265.1278673168192768
  0
ARC
  5
19C54
  8
0
 10
4510.6421088568431514
 20
457.9007553154226002
 30
0.0
 40
14.01287984699551
 50
265.783854334558896
 51
267.57315030601751
  0
ARC
  5
19C55
  8
0
 10
4509.8311298785956751
 20
446.0879767877996187
 30
0.0
 40
2.1614904047601522
 50
240.082139931085095
 51
257.8944011940905057
  0
ARC
  5
19C56
  8
0
 10
4510.0822023707642074
 20
447.6432624990031854
 30
0.0
 40
3.7357155166622049
 50
259.1318495957124242
 51
266.7995974673979731
  0
ARC
  5
19C57
  8
0
 10
4509.6076968107227003
 20
436.1538305278509142
 30
0.0
 40
7.7640988849878321
 50
86.153942725083013
 51
88.0370458690467643
  0
ARC
  5
19C58
  8
0
 10
4510.0440926520768699
 20
446.530767849892527
 30
0.0
 40
2.6109506637519702
 50
240.3655461056258957
 51
266.6092173245791059
  0
ARC
  5
19C59
  8
0
 10
4513.0448536350404538
 20
497.1769432901760979
 30
0.0
 40
53.3459450286364572
 50
266.6092173245791059
 51
267.0761452024062237
  0
ARC
  5
19C5A
  8
0
 10
4510.1890479520498047
 20
446.8508315933232211
 30
0.0
 40
2.9321117929488252
 50
240.6763652927110968
 51
264.1119207801497737
  0
ARC
  5
19C5B
  8
0
 10
4510.568936465077968
 20
451.3126906797573952
 30
0.0
 40
7.4098321325869652
 50
264.7292728650061235
 51
269.9625509770405074
  0
ARC
  5
19C5C
  8
0
 10
4507.8946385352182915
 20
441.8327935959252954
 30
0.0
 40
2.6291523440968079
 50
63.9256622037351434
 51
69.4591892268160933
  0
ARC
  5
19C5D
  8
0
 10
4510.2426679233758477
 20
446.7540306450376875
 30
0.0
 40
2.823785592196177
 50
245.0215681102781957
 51
259.2740266056623
  0
ARC
  5
19C5E
  8
0
 10
4510.5509602337488104
 20
448.8938114594355966
 30
0.0
 40
4.9844699501066643
 50
260.3699325121946799
 51
270.1509633142345024
  0
ARC
  5
19C5F
  8
0
 10
4508.3703884251663112
 20
442.7597802763801269
 30
0.0
 40
1.621694684695236
 50
64.5159669541987171
 51
70.9511633203680248
  0
ARC
  5
19C60
  8
0
 10
4510.3301956117284135
 20
446.8715499669866063
 30
0.0
 40
2.9332470489708888
 50
244.5159669541986887
 51
263.1568619145900243
  0
ARC
  5
19C61
  8
0
 10
4510.7482554235293719
 20
449.6625145046950252
 30
0.0
 40
5.7547333264156793
 50
262.3351028588073177
 51
268.1661161821414225
  0
ARC
  5
19C62
  8
0
 10
4510.5497363079875868
 20
447.4834067396001842
 30
0.0
 40
3.5560502580703188
 50
244.0329625575010084
 51
257.2395996288029778
  0
ARC
  5
19C63
  8
0
 10
4510.7574805957656281
 20
448.8590784547266139
 30
0.0
 40
4.9446678552121464
 50
258.412757359689806
 51
267.7585753139272811
  0
ARC
  5
19C64
  8
0
 10
4510.5724645320196942
 20
447.4378905289235036
 30
0.0
 40
3.494031872025618
 50
244.6931117790549877
 51
255.2459817594670142
  0
ARC
  5
19C65
  8
0
 10
4510.6848260408360147
 20
447.8645479021063238
 30
0.0
 40
3.9352366122026021
 50
255.2459817594670142
 51
268.2418947415299044
  0
ARC
  5
19C66
  8
0
 10
4510.7742866758244418
 20
448.0741523173223868
 30
0.0
 40
4.1334608378885642
 50
246.7970255611851087
 51
256.9640490128342094
  0
ARC
  5
19C67
  8
0
 10
4510.8431571161600004
 20
448.3716113079958063
 30
0.0
 40
4.4387885121736206
 50
256.9640490128342094
 51
266.3954739742408719
  0
ARC
  5
19C68
  8
0
 10
4511.2630116931968587
 20
449.6038873570353758
 30
0.0
 40
5.7146203565175497
 50
248.8598019492636979
 51
255.4130889244185028
  0
ARC
  5
19C69
  8
0
 10
4510.7442234809695947
 20
447.6103618730651874
 30
0.0
 40
3.6546967986191672
 50
255.4130889244185028
 51
267.1749009881233974
  0
ARC
  5
19C6A
  8
0
 10
4511.0156844074354012
 20
448.7644354108359153
 30
0.0
 40
4.8130193245183968
 50
249.0648396243543061
 51
264.6161907895403829
  0
ARC
  5
19C6B
  8
0
 10
4510.9776760042768728
 20
448.7156705641136796
 30
0.0
 40
4.7378130027668046
 50
249.8242955785541994
 51
264.9920478718480013
  0
ARC
  5
19C6C
  8
0
 10
4511.0583956458212924
 20
448.7168038014556259
 30
0.0
 40
4.7333245974008218
 50
250.106407736188288
 51
264.0056576796769718
  0
ARC
  5
19C6D
  8
0
 10
4509.0320963170479445
 20
442.1366695979838255
 30
0.0
 40
2.1832325545043711
 50
72.2792645602554416
 51
77.2723874711815881
  0
ARC
  5
19C6E
  8
0
 10
4510.9704193338220648
 20
448.2026580372044009
 30
0.0
 40
4.1849156741499414
 50
252.2792645602553989
 51
264.4282033623392749
  0
ARC
  5
19C6F
  8
0
 10
4511.2261952699145695
 20
449.1397257042125943
 30
0.0
 40
5.1267019442665323
 50
252.2248820357121133
 51
262.5796541263374024
  0
ARC
  5
19C70
  8
0
 10
4511.2777545777189516
 20
449.5971720120326722
 30
0.0
 40
5.5554912755190253
 50
253.9468072424045033
 51
262.6193598618486931
  0
ARC
  5
19C71
  8
0
 10
4511.3899376535482588
 20
449.8608528480949076
 30
0.0
 40
5.8053099054963431
 50
254.8724377729610922
 51
261.8215462421781012
  0
ARC
  5
19C72
  8
0
 10
4511.5821687845464112
 20
451.8259775388905268
 30
0.0
 40
7.7404760935212122
 50
257.6528721507098112
 51
262.4422051958039788
  0
ARC
  5
19C73
  8
0
 10
4511.3983440464317027
 20
450.0040317272254242
 30
0.0
 40
5.8846643762122177
 50
256.798068022580992
 51
261.8498970996387243
  0
ARC
  5
19C74
  8
0
 10
4510.7743480270328291
 20
447.1784161296678803
 30
0.0
 40
2.969952880877015
 50
257.3748128713983192
 51
265.9404097158587206
  0
ARC
  5
19C75
  8
0
 10
4511.0937249758226244
 20
448.8293750137463007
 30
0.0
 40
4.616162298246552
 50
259.7239513078910136
 51
263.4117062304190995
  0
ARC
  5
19C76
  8
0
 10
4510.9350736903415964
 20
448.2047138891716145
 30
0.0
 40
3.9502053186082482
 50
261.5702001478035754
 51
262.4048307020208881
  0
ARC
  5
19C77
  8
0
 10
4510.5411354119860334
 20
445.250383805425372
 30
0.0
 40
0.9697265632936835
 50
262.4048307020208881
 51
271.3565834039359856
  0
ARC
  5
19C78
  8
0
 10
4508.8230046572889478
 20
444.3039869720267916
 30
0.0
 40
0.0109063481135023
 50
122.5231555353095985
 51
237.4768444646904015
  0
ARC
  5
19C79
  8
0
 10
4508.9044656355226834
 20
444.3039869720267916
 30
0.0
 40
0.0122901974052961
 50
112.9804166235790035
 51
247.0195833764209965
  0
ARC
  5
19C7A
  8
0
 10
4509.0138120775618518
 20
444.3039869720267916
 30
0.0
 40
0.0275031245136912
 50
140.1231851561013002
 51
219.8768148438985861
  0
ARC
  5
19C7B
  8
0
 10
4509.0912237612074023
 20
444.3039869720267916
 30
0.0
 40
0.0277099853556749
 50
116.4465207386382986
 51
243.5534792613617014
  0
ARC
  5
19C7C
  8
0
 10
4509.1707929588555999
 20
444.3039869720267916
 30
0.0
 40
0.0382888344227271
 50
130.8558762555466899
 51
229.1441237444533101
  0
ARC
  5
19C7D
  8
0
 10
4509.2147300775368421
 20
444.3039869720267916
 30
0.0
 40
0.0326987546723539
 50
112.8611978575603985
 51
247.1388021424394879
  0
ARC
  5
19C7E
  8
0
 10
4509.3123582225289283
 20
444.3039869720267916
 30
0.0
 40
0.0385164461395762
 50
115.233077518959405
 51
244.7669224810406092
  0
ARC
  5
19C7F
  8
0
 10
4509.3510452958626047
 20
444.3039869720267916
 30
0.0
 40
0.0361876532131238
 50
101.8675633860465979
 51
258.1324366139534163
  0
ARC
  5
19C80
  8
0
 10
4509.4531621616533812
 20
444.3039869720267916
 30
0.0
 40
0.0384328824856712
 50
98.070509641993894
 51
261.9294903580060918
  0
ARC
  5
19C81
  8
0
 10
4509.5214552473826188
 20
444.3039869720267916
 30
0.0
 40
0.0386446298414099
 50
102.4892854280377037
 51
257.5107145719622963
  0
ARC
  5
19C82
  8
0
 10
4509.6670617741992828
 20
444.3039869720267916
 30
0.0
 40
0.0466070487399395
 50
97.3410906734026753
 51
262.6589093265973247
  0
ARC
  5
19C83
  8
0
 10
4509.7544100051882197
 20
444.3039869720267916
 30
0.0
 40
0.0474625077778453
 50
105.7880137926673996
 51
254.2119862073325862
  0
ARC
  5
19C84
  8
0
 10
4509.8925988470437005
 20
444.3039869720267916
 30
0.0
 40
0.0504670506570229
 50
110.4911762847320063
 51
249.5088237152679937
  0
ARC
  5
19C85
  8
0
 10
4509.9330670918552642
 20
444.3039869720267916
 30
0.0
 40
0.0399134943447796
 50
98.7547343286652932
 51
261.245265671334721
  0
ARC
  5
19C86
  8
0
 10
4510.0621848409919039
 20
444.3039869720267916
 30
0.0
 40
0.0301229898713572
 50
105.0114321256451007
 51
254.9885678743540041
  0
ARC
  5
19C87
  8
0
 10
4510.1280195108993212
 20
444.3039869720267916
 30
0.0
 40
0.0238797348960087
 50
96.7837084078841343
 51
263.2162915921159083
  0
ARC
  5
19C88
  8
0
 10
4510.2742852990922984
 20
444.3039869720267916
 30
0.0
 40
0.0172109058798819
 50
103.5818239283108966
 51
256.4181760716897998
  0
ARC
  5
19C89
  8
0
 10
4510.3569674500558904
 20
444.3039869720267916
 30
0.0
 40
0.0068720853927498
 50
98.2333854130340853
 51
261.7666145869658862
  0
ENDSEC
  0
EOF
