  0
SECTION
  2
HEADER
  9
$ACADVER
  1
AC1009
  9
$INSBASE
 10
4507.6117123415697279
 20
445.6039598183807016
 30
0.0
  9
$EXTMIN
 10
4494.3163624079552392
 20
444.4436590091078756
 30
-0.0000000000112498
  9
$EXTMAX
 10
4520.8760642036404533
 20
446.761380561932981
 30
0.0000000000002956
  9
$LIMMIN
 10
0.0
 20
0.0
  9
$LIMMAX
 10
11.6929133858000007
 20
8.2677165353999982
  9
$ORTHOMODE
 70
     0
  9
$REGENMODE
 70
     1
  9
$FILLMODE
 70
     1
  9
$QTEXTMODE
 70
     0
  9
$MIRRTEXT
 70
     0
  9
$DRAGMODE
 70
     2
  9
$LTSCALE
 40
0.6431102362
  9
$OSMODE
 70
  4095
  9
$ATTMODE
 70
     1
  9
$TEXTSIZE
 40
0.2
  9
$TRACEWID
 40
0.05
  9
$TEXTSTYLE
  7
STANDARD
  9
$CLAYER
  8
0
  9
$CELTYPE
  6
BYLAYER
  9
$CECOLOR
 62
   256
  9
$DIMSCALE
 40
1.0
  9
$DIMASZ
 40
0.1875
  9
$DIMEXO
 40
0.0625
  9
$DIMDLI
 40
0.4443307087
  9
$DIMRND
 40
0.0
  9
$DIMDLE
 40
0.0
  9
$DIMEXE
 40
0.125
  9
$DIMTP
 40
0.01
  9
$DIMTM
 40
0.01
  9
$DIMTXT
 40
2.0
  9
$DIMCEN
 40
0.1052362205
  9
$DIMTSZ
 40
0.0
  9
$DIMTOL
 70
     1
  9
$DIMLIM
 70
     0
  9
$DIMTIH
 70
     1
  9
$DIMTOH
 70
     1
  9
$DIMSE1
 70
     0
  9
$DIMSE2
 70
     0
  9
$DIMTAD
 70
     0
  9
$DIMZIN
 70
     0
  9
$DIMBLK
  1

  9
$DIMASO
 70
     1
  9
$DIMSHO
 70
     1
  9
$DIMPOST
  1
\X
  9
$DIMAPOST
  1

  9
$DIMALT
 70
     1
  9
$DIMALTD
 70
     2
  9
$DIMALTF
 40
25.3999999999999986
  9
$DIMLFAC
 40
1.0
  9
$DIMTOFL
 70
     0
  9
$DIMTVP
 40
0.0
  9
$DIMTIX
 70
     0
  9
$DIMSOXD
 70
     0
  9
$DIMSAH
 70
     0
  9
$DIMBLK1
  1

  9
$DIMBLK2
  1

  9
$DIMSTYLE
  2
STANDARD
  9
$DIMCLRD
 70
     0
  9
$DIMCLRE
 70
     0
  9
$DIMCLRT
 70
     0
  9
$DIMTFAC
 40
1.0
  9
$DIMGAP
 40
0.09
  9
$LUNITS
 70
     2
  9
$LUPREC
 70
     4
  9
$SKETCHINC
 40
0.1
  9
$FILLETRAD
 40
0.0
  9
$AUNITS
 70
     0
  9
$AUPREC
 70
     0
  9
$MENU
  1
.
  9
$ELEVATION
 40
0.0
  9
$PELEVATION
 40
0.0
  9
$THICKNESS
 40
0.0
  9
$LIMCHECK
 70
     0
  9
$BLIPMODE
 70
     0
  9
$CHAMFERA
 40
0.0
  9
$CHAMFERB
 40
0.0
  9
$SKPOLY
 70
     0
  9
$TDCREATE
 40
2458060.468368056230247
  9
$TDUPDATE
 40
2460896.359212962910533
  9
$TDINDWG
 40
1.5328862847
  9
$TDUSRTIMER
 40
1.5328862847
  9
$USRTIMER
 70
     1
  9
$ANGBASE
 50
0.0
  9
$ANGDIR
 70
     0
  9
$PDMODE
 70
     0
  9
$PDSIZE
 40
0.3125
  9
$PLINEWID
 40
0.0
  9
$COORDS
 70
     1
  9
$SPLFRAME
 70
     0
  9
$SPLINETYPE
 70
     6
  9
$SPLINESEGS
 70
     8
  9
$ATTDIA
 70
     1
  9
$ATTREQ
 70
     1
  9
$HANDLING
 70
     1
  9
$HANDSEED
  5
198DB
  9
$SURFTAB1
 70
     6
  9
$SURFTAB2
 70
     6
  9
$SURFTYPE
 70
     6
  9
$SURFU
 70
     6
  9
$SURFV
 70
     6
  9
$UCSNAME
  2

  9
$UCSORG
 10
0.0
 20
0.0
 30
0.0
  9
$UCSXDIR
 10
1.0
 20
0.0
 30
0.0
  9
$UCSYDIR
 10
0.0
 20
1.0
 30
0.0
  9
$PUCSNAME
  2

  9
$PUCSORG
 10
0.0
 20
0.0
 30
0.0
  9
$PUCSXDIR
 10
1.0
 20
0.0
 30
0.0
  9
$PUCSYDIR
 10
0.0
 20
1.0
 30
0.0
  9
$USERI1
 70
     0
  9
$USERI2
 70
     0
  9
$USERI3
 70
     0
  9
$USERI4
 70
     0
  9
$USERI5
 70
     0
  9
$USERR1
 40
0.0
  9
$USERR2
 40
0.0
  9
$USERR3
 40
0.0
  9
$USERR4
 40
0.0
  9
$USERR5
 40
0.0
  9
$WORLDVIEW
 70
     1
  9
$SHADEDGE
 70
     3
  9
$SHADEDIF
 70
    70
  9
$TILEMODE
 70
     1
  9
$MAXACTVP
 70
    64
  9
$PLIMCHECK
 70
     0
  9
$PEXTMIN
 10
1.0000000000000000E+20
 20
1.0000000000000000E+20
 30
1.0000000000000000E+20
  9
$PEXTMAX
 10
-1.0000000000000000E+20
 20
-1.0000000000000000E+20
 30
-1.0000000000000000E+20
  9
$PLIMMIN
 10
0.0
 20
0.0
  9
$PLIMMAX
 10
12.0
 20
9.0
  9
$UNITMODE
 70
     0
  9
$VISRETAIN
 70
     1
  9
$PLINEGEN
 70
     0
  9
$PSLTSCALE
 70
     1
  0
ENDSEC
  0
SECTION
  2
TABLES
  0
TABLE
  2
VPORT
 70
     1
  0
VPORT
  2
*ACTIVE
 70
     0
 10
0.0
 20
0.0
 11
1.0
 21
1.0
 12
596.2308568604847778
 22
313.0229146829814226
 13
0.0
 23
0.0
 14
1.0
 24
1.0
 15
0.0
 25
0.0
 16
0.0
 26
0.0
 36
60.4960186965801583
 17
3911.3653564453120453
 27
132.5796051025390057
 37
0.0
 40
12.01303432502087
 41
2.2182448036951499
 42
50.0
 43
0.0
 44
0.0
 50
0.0
 51
0.0
 71
     0
 72
   100
 73
     1
 74
     1
 75
     0
 76
     0
 77
     0
 78
     0
  0
ENDTAB
  0
TABLE
  2
LTYPE
 70
     2
  0
LTYPE
  2
CONTINUOUS
 70
     0
  3
Solid line
 72
    65
 73
     0
 40
0.0
  0
LTYPE
  2
PHANTOM2
 70
     0
  3
___ _ _ ___ _ _ ___ _ _ ___ _ _
 72
    65
 73
     6
 40
1.25
 49
0.625
 49
-0.125
 49
0.125
 49
-0.125
 49
0.125
 49
-0.125
  0
ENDTAB
  0
TABLE
  2
LAYER
 70
     2
  0
LAYER
  2
0
 70
     0
 62
   255
  6
CONTINUOUS
  0
LAYER
  2
DEFPOINTS
 70
     0
 62
     7
  6
CONTINUOUS
  0
ENDTAB
  0
TABLE
  2
STYLE
 70
     1
  0
STYLE
  2
STANDARD
 70
     0
 40
0.0
 41
0.8
 50
0.0
 71
     0
 42
0.2
  3
txt
  4

  0
ENDTAB
  0
TABLE
  2
VIEW
 70
     0
  0
ENDTAB
  0
TABLE
  2
UCS
 70
     0
  0
ENDTAB
  0
TABLE
  2
APPID
 70
    11
  0
APPID
  2
ACAD
 70
     0
  0
APPID
  2
ACAD_MLEADERVER
 70
     0
  0
APPID
  2
ACAD_EXEMPT_FROM_CAD_STANDARDS
 70
     0
  0
APPID
  2
ACAD_NAV_VCDISPLAY
 70
     0
  0
APPID
  2
ACAECLAYERSTANDARD
 70
     0
  0
APPID
  2
ACCMTRANSPARENCY
 70
     0
  0
APPID
  2
ACAD_DSTYLE_DIMJAG
 70
     0
  0
APPID
  2
ACAD_DSTYLE_DIMTALN
 70
     0
  0
APPID
  2
ACDBATTR
 70
     0
  0
APPID
  2
ACADANNOTATIVE
 70
     0
  0
APPID
  2
DCO15
 70
     0
  0
ENDTAB
  0
TABLE
  2
DIMSTYLE
 70
     1
  0
DIMSTYLE
  2
STANDARD
 70
     0
  3

  4

  5

  6

  7

 40
1.0
 41
0.1875
 42
0.0625
 43
0.38
 44
0.125
 45
0.0
 46
0.0
 47
0.01
 48
0.01
140
0.15625
141
0.09
142
0.0
143
25.3999999999999986
144
1.0
145
0.0
146
1.0
147
0.09
 71
     1
 72
     0
 73
     1
 74
     1
 75
     0
 76
     0
 77
     0
 78
     4
170
     0
171
     2
172
     0
173
     0
174
     0
175
     0
176
     0
177
     0
178
     0
  0
ENDTAB
  0
ENDSEC
  0
SECTION
  2
BLOCKS
  0
BLOCK
  8
0
  2
$MODEL_SPACE
 70
     0
 10
0.0
 20
0.0
 30
0.0
  3
$MODEL_SPACE
  1

  0
ENDBLK
  5
21
  8
0
  0
BLOCK
 67
     1
  8
0
  2
$PAPER_SPACE
 70
     0
 10
0.0
 20
0.0
 30
0.0
  3
$PAPER_SPACE
  1

  0
ENDBLK
  5
1D
 67
     1
  8
0
  0
BLOCK
  8
0
  2
_FILLED
 70
     0
 10
0.0
 20
0.0
 30
0.0
  3
_FILLED
  1

  0
SOLID
  5
197DA
  8
0
  6
BYBLOCK
 62
     0
 10
0.0
 20
0.0
 30
0.0
 11
-1.0
 21
0.1666666667
 31
0.0
 12
-1.0
 22
-0.1666666667
 32
0.0
 13
-1.0
 23
-0.1666666667
 33
0.0
  0
ENDBLK
  5
197DB
  8
0
  6
BYBLOCK
 62
     0
  0
ENDSEC
  0
SECTION
  2
ENTITIES
  0
ATTDEF
  5
194DB
  8
DEFPOINTS
 10
4507.6078956525298054
 20
445.6074981014176046
 30
0.0
 40
0.001
  1
P24931-ULB
  3

  2
MODELNUMBER
 70
     0
1001
ACDBATTR
1070
     0
1070
     1
  0
ATTDEF
  5
194DC
  8
DEFPOINTS
 10
4507.6078956525298054
 20
445.6058312610384746
 30
0.0
 40
0.001
  1
KALLISTA
  3

  2
BRANDNAME
 70
     0
1001
ACDBATTR
1070
     0
1070
     1
  0
ATTDEF
  5
194DD
  8
DEFPOINTS
 10
4507.6078956525298054
 20
445.6041647680842743
 30
0.0
 40
0.001
  1
TOWEL BAR
  3

  2
PRODUCT
 70
     0
1001
ACDBATTR
1070
     0
1070
     1
  0
ARC
  5
197FB
  8
0
 10
4495.6215548612190105
 20
445.6039598183807016
 30
0.0
 40
1.1408661416999999
 50
20.7148090218566594
 51
339.2851909781434188
  0
ARC
  5
197FC
  8
0
 10
4519.6018698219204452
 20
445.6039598183807016
 30
0.0
 40
1.1408661416999999
 50
200.7148090218566949
 51
159.2851909781433051
  0
ARC
  5
197FD
  8
0
 10
4495.6215548612190105
 20
445.6039598183807016
 30
0.0
 40
0.8745000000000001
 50
27.4811030886087906
 51
332.5188969113884241
  0
ARC
  5
197FE
  8
0
 10
4495.6215548612190105
 20
445.6039598183807016
 30
0.0
 40
0.8016177069000001
 50
30.2259389231601396
 51
329.7740610768399279
  0
LINE
  5
197FF
  8
0
 10
4495.6215548612190105
 20
446.0075031254806959
 30
0.0
 11
4496.9601375384108906
 21
446.0075031254806959
 31
0.0
  0
LINE
  5
19800
  8
0
 10
4495.6215548612190105
 20
445.2004165112807073
 30
0.0
 11
4496.9601375384108906
 21
445.2004165112807073
 31
0.0
  0
ARC
  5
19801
  8
0
 10
4495.6215548612190105
 20
445.6039598183807016
 30
0.0
 40
0.4035433070999997
 50
90.0
 51
270.0
  0
ARC
  5
19802
  8
0
 10
4496.9601375384108906
 20
445.9878180860599741
 30
0.0
 40
0.0196850394207378
 50
359.9979870716986738
 51
89.9999999749871051
  0
LINE
  5
19803
  8
0
 10
4496.9798225778185952
 20
445.9878173944807145
 30
0.0
 11
4496.9798225778185952
 21
445.2201022421808148
 31
0.0
  0
ARC
  5
19804
  8
0
 10
4496.9601375384108906
 20
445.2201015507013722
 30
0.0
 40
0.0196850394207324
 50
270.0000000250129233
 51
0.0020126372495469
  0
ARC
  5
19805
  8
0
 10
4519.6018698219204452
 20
445.6039598183807016
 30
0.0
 40
0.8745000000000001
 50
207.4811030886116896
 51
152.5188969113912094
  0
ARC
  5
19806
  8
0
 10
4519.6018698219204452
 20
445.6039598183807016
 30
0.0
 40
0.8016177069000001
 50
210.2259389231601006
 51
149.7740610768398142
  0
LINE
  5
19807
  8
0
 10
4519.6018698219204452
 20
446.0075031254806959
 30
0.0
 11
4518.2632871447285652
 21
446.0075031254806959
 31
0.0
  0
LINE
  5
19808
  8
0
 10
4519.6018698219204452
 20
445.2004165112807073
 30
0.0
 11
4518.2632871447285652
 21
445.2004165112807073
 31
0.0
  0
ARC
  5
19809
  8
0
 10
4519.6018698219204452
 20
445.6039598183807016
 30
0.0
 40
0.4035433070999997
 50
270.0
 51
90.0
  0
ARC
  5
1980A
  8
0
 10
4518.2632871447285652
 20
445.9878180860599741
 30
0.0
 40
0.0196850394207378
 50
90.0000000250128807
 51
180.0020129283012977
  0
LINE
  5
1980B
  8
0
 10
4518.2436021053199511
 20
445.9878173944807145
 30
0.0
 11
4518.2436021053199511
 21
445.2201022421808148
 31
0.0
  0
ARC
  5
1980C
  8
0
 10
4518.2632871447285652
 20
445.2201015507013722
 30
0.0
 40
0.0196850394207324
 50
179.9979873627503935
 51
269.9999999749870767
  0
LINE
  5
1980D
  8
0
 10
4518.2236003453435842
 20
446.0075031254806959
 30
0.0
 11
4496.999824337794962
 21
446.0075031254806959
 31
0.0
  0
LINE
  5
1980E
  8
0
 10
4518.2236003453426747
 20
445.2004165112807073
 30
0.0
 11
4496.999824337794962
 21
445.2004165112807073
 31
0.0
  0
ARC
  5
1980F
  8
0
 10
4496.9998243376612663
 20
445.9874988289230942
 30
0.0
 40
0.0200042965575413
 50
89.9999996166252032
 51
179.0875343476942021
  0
ARC
  5
19810
  8
0
 10
4496.9998243376621758
 20
445.2204208078410943
 30
0.0
 40
0.0200042965603139
 50
180.912465946580113
 51
270.000000383374811
  0
ARC
  5
19811
  8
0
 10
4518.2236003454781894
 20
445.9874988289229805
 30
0.0
 40
0.0200042965577942
 50
0.9124656530254139
 51
90.0000003833747826
  0
ARC
  5
19812
  8
0
 10
4518.2236003454781894
 20
445.2204208078406964
 30
0.0
 40
0.0200042965600664
 50
269.999999616625189
 51
359.087534054116702
  0
ARC
  5
19813
  8
0
 10
4495.6215548612190105
 20
445.6039598183807016
 30
0.0
 40
1.0383197435999989
 50
22.8705447948538882
 51
337.1294552051460869
  0
ARC
  5
19814
  8
0
 10
4519.6018698219204452
 20
445.6039598183807016
 30
0.0
 40
1.038319743599998
 50
202.8705447948539131
 51
157.1294552051460869
  0
ENDSEC
  0
EOF
