  0
SECTION
  2
HEADER
  9
$ACADVER
  1
AC1009
  9
$INSBASE
 10
4510.1546395772720643
 20
448.0403299658121909
 30
0.0
  9
$EXTMIN
 10
4500.0236159551213859
 20
444.6348181923121956
 30
0.0
  9
$EXTMAX
 10
4520.2856631994209238
 20
448.0446636247913261
 30
0.0
  9
$LIMMIN
 10
0.0
 20
0.0
  9
$LIMMAX
 10
11.6929133858000007
 20
8.2677165353999982
  9
$ORTHOMODE
 70
     0
  9
$REGENMODE
 70
     1
  9
$FILLMODE
 70
     1
  9
$QTEXTMODE
 70
     0
  9
$MIRRTEXT
 70
     0
  9
$DRAGMODE
 70
     2
  9
$LTSCALE
 40
0.6431102362
  9
$OSMODE
 70
  4095
  9
$ATTMODE
 70
     1
  9
$TEXTSIZE
 40
0.2
  9
$TRACEWID
 40
0.05
  9
$TEXTSTYLE
  7
STANDARD
  9
$CLAYER
  8
0
  9
$CELTYPE
  6
BYLAYER
  9
$CECOLOR
 62
   256
  9
$DIMSCALE
 40
1.0
  9
$DIMASZ
 40
0.1875
  9
$DIMEXO
 40
0.0625
  9
$DIMDLI
 40
0.4443307087
  9
$DIMRND
 40
0.0
  9
$DIMDLE
 40
0.0
  9
$DIMEXE
 40
0.125
  9
$DIMTP
 40
0.01
  9
$DIMTM
 40
0.01
  9
$DIMTXT
 40
2.0
  9
$DIMCEN
 40
0.1052362205
  9
$DIMTSZ
 40
0.0
  9
$DIMTOL
 70
     1
  9
$DIMLIM
 70
     0
  9
$DIMTIH
 70
     1
  9
$DIMTOH
 70
     1
  9
$DIMSE1
 70
     0
  9
$DIMSE2
 70
     0
  9
$DIMTAD
 70
     0
  9
$DIMZIN
 70
     0
  9
$DIMBLK
  1

  9
$DIMASO
 70
     1
  9
$DIMSHO
 70
     1
  9
$DIMPOST
  1
\X
  9
$DIMAPOST
  1

  9
$DIMALT
 70
     1
  9
$DIMALTD
 70
     2
  9
$DIMALTF
 40
25.3999999999999986
  9
$DIMLFAC
 40
1.0
  9
$DIMTOFL
 70
     0
  9
$DIMTVP
 40
0.0
  9
$DIMTIX
 70
     0
  9
$DIMSOXD
 70
     0
  9
$DIMSAH
 70
     0
  9
$DIMBLK1
  1

  9
$DIMBLK2
  1

  9
$DIMSTYLE
  2
STANDARD
  9
$DIMCLRD
 70
     0
  9
$DIMCLRE
 70
     0
  9
$DIMCLRT
 70
     0
  9
$DIMTFAC
 40
1.0
  9
$DIMGAP
 40
0.09
  9
$LUNITS
 70
     2
  9
$LUPREC
 70
     4
  9
$SKETCHINC
 40
0.1
  9
$FILLETRAD
 40
0.0
  9
$AUNITS
 70
     0
  9
$AUPREC
 70
     0
  9
$MENU
  1
.
  9
$ELEVATION
 40
0.0
  9
$PELEVATION
 40
0.0
  9
$THICKNESS
 40
0.0
  9
$LIMCHECK
 70
     0
  9
$BLIPMODE
 70
     0
  9
$CHAMFERA
 40
0.0
  9
$CHAMFERB
 40
0.0
  9
$SKPOLY
 70
     0
  9
$TDCREATE
 40
2458060.468368056230247
  9
$TDUPDATE
 40
2459387.4224305548705161
  9
$TDINDWG
 40
1.5263499190000001
  9
$TDUSRTIMER
 40
1.5263499190000001
  9
$USRTIMER
 70
     1
  9
$ANGBASE
 50
0.0
  9
$ANGDIR
 70
     0
  9
$PDMODE
 70
     0
  9
$PDSIZE
 40
0.3125
  9
$PLINEWID
 40
0.0
  9
$COORDS
 70
     1
  9
$SPLFRAME
 70
     0
  9
$SPLINETYPE
 70
     6
  9
$SPLINESEGS
 70
     8
  9
$ATTDIA
 70
     1
  9
$ATTREQ
 70
     1
  9
$HANDLING
 70
     1
  9
$HANDSEED
  5
19C29
  9
$SURFTAB1
 70
     6
  9
$SURFTAB2
 70
     6
  9
$SURFTYPE
 70
     6
  9
$SURFU
 70
     6
  9
$SURFV
 70
     6
  9
$UCSNAME
  2

  9
$UCSORG
 10
0.0
 20
0.0
 30
0.0
  9
$UCSXDIR
 10
1.0
 20
0.0
 30
0.0
  9
$UCSYDIR
 10
0.0
 20
1.0
 30
0.0
  9
$PUCSNAME
  2

  9
$PUCSORG
 10
0.0
 20
0.0
 30
0.0
  9
$PUCSXDIR
 10
1.0
 20
0.0
 30
0.0
  9
$PUCSYDIR
 10
0.0
 20
1.0
 30
0.0
  9
$USERI1
 70
     0
  9
$USERI2
 70
     0
  9
$USERI3
 70
     0
  9
$USERI4
 70
     0
  9
$USERI5
 70
     0
  9
$USERR1
 40
0.0
  9
$USERR2
 40
0.0
  9
$USERR3
 40
0.0
  9
$USERR4
 40
0.0
  9
$USERR5
 40
0.0
  9
$WORLDVIEW
 70
     1
  9
$SHADEDGE
 70
     3
  9
$SHADEDIF
 70
    70
  9
$TILEMODE
 70
     1
  9
$MAXACTVP
 70
    64
  9
$PLIMCHECK
 70
     0
  9
$PEXTMIN
 10
1.0000000000000000E+20
 20
1.0000000000000000E+20
 30
1.0000000000000000E+20
  9
$PEXTMAX
 10
-1.0000000000000000E+20
 20
-1.0000000000000000E+20
 30
-1.0000000000000000E+20
  9
$PLIMMIN
 10
0.0
 20
0.0
  9
$PLIMMAX
 10
12.0
 20
9.0
  9
$UNITMODE
 70
     0
  9
$VISRETAIN
 70
     1
  9
$PLINEGEN
 70
     0
  9
$PSLTSCALE
 70
     1
  0
ENDSEC
  0
SECTION
  2
TABLES
  0
TABLE
  2
VPORT
 70
     1
  0
VPORT
  2
*ACTIVE
 70
     0
 10
0.0
 20
0.0
 11
1.0
 21
1.0
 12
604.5384771488402293
 22
313.7524867615264839
 13
0.0
 23
0.0
 14
1.0
 24
1.0
 15
0.0
 25
0.0
 16
0.0
 26
0.0
 36
60.4960186965801583
 17
3911.3653564453120453
 27
132.5796051025390057
 37
0.0
 40
12.68993757341158
 41
2.5612648221343872
 42
50.0
 43
0.0
 44
0.0
 50
0.0
 51
0.0
 71
     0
 72
   100
 73
     1
 74
     1
 75
     0
 76
     0
 77
     0
 78
     0
  0
ENDTAB
  0
TABLE
  2
LTYPE
 70
     2
  0
LTYPE
  2
CONTINUOUS
 70
     0
  3
Solid line
 72
    65
 73
     0
 40
0.0
  0
LTYPE
  2
PHANTOM2
 70
     0
  3
___ _ _ ___ _ _ ___ _ _ ___ _ _
 72
    65
 73
     6
 40
1.25
 49
0.625
 49
-0.125
 49
0.125
 49
-0.125
 49
0.125
 49
-0.125
  0
ENDTAB
  0
TABLE
  2
LAYER
 70
     2
  0
LAYER
  2
0
 70
     0
 62
   255
  6
CONTINUOUS
  0
LAYER
  2
DEFPOINTS
 70
     0
 62
     7
  6
CONTINUOUS
  0
ENDTAB
  0
TABLE
  2
STYLE
 70
     1
  0
STYLE
  2
STANDARD
 70
     0
 40
0.0
 41
0.8
 50
0.0
 71
     0
 42
0.2
  3
txt
  4

  0
ENDTAB
  0
TABLE
  2
VIEW
 70
     0
  0
ENDTAB
  0
TABLE
  2
UCS
 70
     0
  0
ENDTAB
  0
TABLE
  2
APPID
 70
    11
  0
APPID
  2
ACAD
 70
     0
  0
APPID
  2
ACAD_MLEADERVER
 70
     0
  0
APPID
  2
ACAD_EXEMPT_FROM_CAD_STANDARDS
 70
     0
  0
APPID
  2
ACAD_NAV_VCDISPLAY
 70
     0
  0
APPID
  2
ACAECLAYERSTANDARD
 70
     0
  0
APPID
  2
ACCMTRANSPARENCY
 70
     0
  0
APPID
  2
ACAD_DSTYLE_DIMJAG
 70
     0
  0
APPID
  2
ACAD_DSTYLE_DIMTALN
 70
     0
  0
APPID
  2
ACDBATTR
 70
     0
  0
APPID
  2
ACADANNOTATIVE
 70
     0
  0
APPID
  2
DCO15
 70
     0
  0
ENDTAB
  0
TABLE
  2
DIMSTYLE
 70
     1
  0
DIMSTYLE
  2
STANDARD
 70
     0
  3

  4

  5

  6

  7

 40
1.0
 41
0.1875
 42
0.0625
 43
0.38
 44
0.125
 45
0.0
 46
0.0
 47
0.01
 48
0.01
140
0.15625
141
0.09
142
0.0
143
25.3999999999999986
144
1.0
145
0.0
146
1.0
147
0.09
 71
     1
 72
     0
 73
     1
 74
     1
 75
     0
 76
     0
 77
     0
 78
     4
170
     0
171
     2
172
     0
173
     0
174
     0
175
     0
176
     0
177
     0
178
     0
  0
ENDTAB
  0
ENDSEC
  0
SECTION
  2
BLOCKS
  0
BLOCK
  8
0
  2
$MODEL_SPACE
 70
     0
 10
0.0
 20
0.0
 30
0.0
  3
$MODEL_SPACE
  1

  0
ENDBLK
  5
21
  8
0
  0
BLOCK
 67
     1
  8
0
  2
$PAPER_SPACE
 70
     0
 10
0.0
 20
0.0
 30
0.0
  3
$PAPER_SPACE
  1

  0
ENDBLK
  5
1D
 67
     1
  8
0
  0
ENDSEC
  0
SECTION
  2
ENTITIES
  0
ATTDEF
  5
194DB
  8
DEFPOINTS
 10
4510.1546437941105978
 20
448.0436636247912929
 30
0.0
 40
0.001
  1
P24933-BAF
  3

  2
MODELNUMBER
 70
     0
1001
ACDBATTR
1070
     0
1070
     1
  0
ATTDEF
  5
194DC
  8
DEFPOINTS
 10
4510.1546437941105978
 20
448.0419967844122198
 30
0.0
 40
0.001
  1
PINNA PALETTA
  3

  2
TRADENAME
 70
     0
1001
ACDBATTR
1070
     0
1070
     1
  0
ATTDEF
  5
194DD
  8
DEFPOINTS
 10
4510.1546437941105978
 20
448.0403302914580195
 30
0.0
 40
0.001
  1
TOWEL BAR
  3

  2
PRODUCT
 70
     0
1001
ACDBATTR
1070
     0
1070
     1
  0
LINE
  5
1993F
  8
0
 10
4520.1826317033128362
 20
448.0403299658121909
 30
0.0
 11
4518.1069624119290893
 21
448.0403299658121909
 31
0.0
  0
LINE
  5
19940
  8
0
 10
4520.2656631994123018
 20
448.0143299658121805
 30
0.0
 11
4518.0239309158314427
 21
448.0143299658121805
 31
0.0
  0
LINE
  5
19941
  8
0
 10
4520.1696633452493188
 20
447.62732996581218
 30
0.0
 11
4518.1199307699944256
 21
447.62732996581218
 31
0.0
  0
LINE
  5
19942
  8
0
 10
4519.9322726289456114
 20
447.430093745312206
 30
0.0
 11
4518.3573214862972236
 21
447.430093745312206
 31
0.0
  0
LINE
  5
19943
  8
0
 10
4518.6231392594982026
 20
445.4419048065121842
 30
0.0
 11
4517.8062143804263542
 21
445.4419048065121842
 31
0.0
  0
LINE
  5
19944
  8
0
 10
4519.4302258737689044
 20
444.6348181923121956
 30
0.0
 11
4517.8062143804263542
 21
444.6348181923121956
 31
0.0
  0
LINE
  5
19945
  8
0
 10
4517.7865293410213781
 20
445.4222197671011827
 30
0.0
 11
4517.7865293410213781
 21
444.6545032317231971
 31
0.0
  0
LINE
  5
19946
  8
0
 10
4519.5483403647212981
 20
444.7529326832644756
 30
0.0
 11
4519.5483403647212981
 21
445.5993851216019834
 31
0.0
  0
LINE
  5
19947
  8
0
 10
4519.5483403647212981
 20
445.6190701608123277
 30
0.0
 11
4518.7412537506206718
 21
445.6190701608123277
 31
0.0
  0
LINE
  5
19948
  8
0
 10
4520.2856631993217889
 20
447.994329965808106
 30
0.0
 11
4520.2856631993217889
 21
447.7346025602669215
 31
0.0
  0
LINE
  5
19949
  8
0
 10
4518.0039309159219556
 20
447.7346025602669215
 30
0.0
 11
4518.0039309159219556
 21
447.994329965808106
 31
0.0
  0
LINE
  5
1994A
  8
0
 10
4518.7412537506206718
 20
445.5993851216019834
 30
0.0
 11
4518.7412537506206718
 21
445.5600192976352218
 31
0.0
  0
LINE
  5
1994B
  8
0
 10
4520.2791166553215589
 20
447.7198037589121782
 30
0.0
 11
4520.1831168012213311
 21
447.6325311643121836
 31
0.0
  0
ARC
  5
1994C
  8
0
 10
4517.8062143804218067
 20
445.4222197671122103
 30
0.0
 40
0.0196850393999935
 50
89.9999999867118987
 51
180.0000000320347056
  0
ARC
  5
1994D
  8
0
 10
4518.62313925968283
 20
445.5600192974500828
 30
0.0
 40
0.1181144909379519
 50
269.9999999102661832
 51
0.0000000897533193
  0
ARC
  5
1994E
  8
0
 10
4519.4302258739544413
 20
444.7529326830795071
 30
0.0
 40
0.1181144907672387
 50
269.9999999102661832
 51
0.0000000897435487
  0
ARC
  5
1994F
  8
0
 10
4517.8062143804218067
 20
444.6545032317122264
 30
0.0
 40
0.0196850393999917
 50
179.9999999679652092
 51
270.0000000132881155
  0
ARC
  5
19950
  8
0
 10
4520.1826317033219311
 20
448.0203299658122091
 30
0.0
 40
0.0199999999999978
 50
359.9999999999836859
 51
90.0000000220947243
  0
LINE
  5
19951
  8
0
 10
4520.2026317033205487
 20
448.0203299658122091
 30
0.0
 11
4520.2026317033205487
 21
448.0143299658121805
 31
0.0
  0
ARC
  5
19952
  8
0
 10
4520.2656631994923373
 20
447.9943299659828995
 30
0.0
 40
0.0199999998292846
 50
359.999999499289288
 51
90.000000230744007
  0
ARC
  5
19953
  8
0
 10
4520.2656631996360375
 20
447.7346025602669215
 30
0.0
 40
0.0199999997850446
 50
312.273688811401712
 51
0.000000130122446
  0
ARC
  5
19954
  8
0
 10
4520.1696633452702372
 20
447.6473299660889893
 30
0.0
 40
0.0200000002767755
 50
269.9999999383015279
 51
312.2736885629345807
  0
ARC
  5
19955
  8
0
 10
4520.0392970576203879
 20
447.6073299658121982
 30
0.0
 40
0.0199999999999978
 50
90.0
 51
180.0000000000065086
  0
LINE
  5
19956
  8
0
 10
4520.0192970576208609
 20
447.6073299658121982
 30
0.0
 11
4520.0192970576208609
 21
447.5171181740607267
 31
0.0
  0
ARC
  5
19957
  8
0
 10
4519.9992970573766797
 20
447.5171181740607267
 30
0.0
 40
0.0200000002440268
 50
315.0000005985666007
 51
359.9999998609471845
  0
LINE
  5
19958
  8
0
 10
4520.0134391933215738
 20
447.5029760384122142
 30
0.0
 11
4519.9464147645212506
 21
447.4359516097122764
 31
0.0
  0
ARC
  5
19959
  8
0
 10
4519.9322726289656202
 20
447.4500937450918059
 30
0.0
 40
0.0199999997795537
 50
269.9999999467955263
 51
315.0000003577338248
  0
LINE
  5
1995A
  8
0
 10
4518.010477459921276
 20
447.7198037589121782
 30
0.0
 11
4518.1064773140205943
 21
447.6325311643121836
 31
0.0
  0
ARC
  5
1995B
  8
0
 10
4518.1069624119218133
 20
448.0203299658122091
 30
0.0
 40
0.019999999999996
 50
89.9999999779052757
 51
180.0000000000098055
  0
LINE
  5
1995C
  8
0
 10
4518.0869624119213768
 20
448.0203299658122091
 30
0.0
 11
4518.0869624119213768
 21
448.0143299658121805
 31
0.0
  0
ARC
  5
1995D
  8
0
 10
4518.0239309158223477
 20
447.9943299658121987
 30
0.0
 40
0.0199999999999978
 50
89.9999999718605039
 51
180.0000000000065086
  0
ARC
  5
1995E
  8
0
 10
4518.0239309156067975
 20
447.7346025602669215
 30
0.0
 40
0.0199999997850446
 50
179.999999869877513
 51
227.726311188598288
  0
ARC
  5
1995F
  8
0
 10
4518.1199307699725978
 20
447.6473299660889893
 30
0.0
 40
0.0200000002767839
 50
227.7263114371125994
 51
270.0000000616984721
  0
ARC
  5
19960
  8
0
 10
4518.250297057622447
 20
447.6073299658121982
 30
0.0
 40
0.0199999999999978
 50
359.9999999999935199
 51
90.0
  0
LINE
  5
19961
  8
0
 10
4518.2702970576219741
 20
447.6073299658121982
 30
0.0
 11
4518.2702970576219741
 21
447.5171181740607267
 31
0.0
  0
ARC
  5
19962
  8
0
 10
4518.2902970578652457
 20
447.5171181740607267
 30
0.0
 40
0.0200000002440268
 50
180.0000001390527871
 51
224.9999994014333993
  0
LINE
  5
19963
  8
0
 10
4518.2761549219212611
 20
447.5029760384122142
 30
0.0
 11
4518.3431793507206748
 21
447.4359516097122764
 31
0.0
  0
ARC
  5
19964
  8
0
 10
4518.3573214862781242
 20
447.4500937450918059
 30
0.0
 40
0.0199999997795547
 50
224.9999996422662036
 51
270.0000000532044737
  0
ARC
  5
19965
  8
0
 10
4519.5286553255218678
 20
445.5993851216019834
 30
0.0
 40
0.0196850391985143
 50
359.9999994473777747
 51
90.0
  0
ARC
  5
19966
  8
0
 10
4518.7609387898201021
 20
445.5993851216019834
 30
0.0
 40
0.0196850391985158
 50
90.0
 51
180.0000005526190137
  0
LINE
  5
19967
  8
0
 10
4518.2761549219212611
 20
447.5029760384122142
 30
0.0
 11
4520.0134391932206199
 21
447.5029760384122142
 31
0.0
  0
LINE
  5
19968
  8
0
 10
4520.279116655220605
 20
447.7198037589121782
 30
0.0
 11
4518.010477459921276
 21
447.7198037589121782
 31
0.0
  0
LINE
  5
19969
  8
0
 10
4517.7665275810459207
 20
445.4419048065121842
 30
0.0
 11
4502.542751573496389
 21
445.4419048065121842
 31
0.0
  0
LINE
  5
1996A
  8
0
 10
4517.7665275810459207
 20
444.6348181923121956
 30
0.0
 11
4502.542751573498208
 21
444.6348181923121956
 31
0.0
  0
ARC
  5
1996B
  8
0
 10
4517.7665275733197632
 20
445.4219004907643011
 30
0.0
 40
0.0200043157479142
 50
0.9145008292930284
 51
89.9999778725466371
  0
ARC
  5
1996C
  8
0
 10
4517.7665275733206727
 20
444.6548225080596239
 30
0.0
 40
0.0200043157474103
 50
270.0000221241704139
 51
359.0854991721561191
  0
LINE
  5
1996E
  8
0
 10
4519.5483403647212981
 20
445.6190701608123277
 30
0.0
 11
4519.5483403647212981
 21
447.430093745312206
 31
0.0
  0
LINE
  5
1996F
  8
0
 10
4518.7412537506206718
 20
447.430093745312206
 30
0.0
 11
4518.7412537506206718
 21
445.6190701608123277
 31
0.0
  0
ARC
  5
19970
  8
0
 10
4517.9991413806374112
 20
447.4164083200038249
 30
0.0
 40
1.1687936361751909
 50
350.338755632999721
 51
0.6708926238739752
  0
ARC
  5
19971
  8
0
 10
4514.7935263646004387
 20
447.9355500277292776
 30
0.0
 40
4.4404229169549758
 50
349.0773116197989907
 51
353.4638159436420892
  0
ARC
  5
19972
  8
0
 10
4516.2703678979632969
 20
447.6403484383562841
 30
0.0
 40
2.9699528829098769
 50
347.374812874351619
 51
355.9404097128979743
  0
ARC
  5
19973
  8
0
 10
4513.4447522943437434
 20
448.2643444601632723
 30
0.0
 40
5.8846643845975679
 50
346.3943140401148071
 51
351.849897084751376
  0
ARC
  5
19974
  8
0
 10
4511.9729089203647163
 20
448.3940527284632935
 30
0.0
 40
7.3863012857880062
 50
347.1006651538452843
 51
352.5011485434301903
  0
ARC
  5
19975
  8
0
 10
4513.5879858482812779
 20
448.2559285636741038
 30
0.0
 40
5.805254443173216
 50
344.296815457667492
 51
351.821562305684381
  0
ARC
  5
19976
  8
0
 10
4513.8511264255839706
 20
448.1438366738158834
 30
0.0
 40
5.5559833374761434
 50
343.5007300385335043
 51
352.619167752397118
  0
ARC
  5
19977
  8
0
 10
4514.3090583084376703
 20
448.0921956847399201
 30
0.0
 40
5.1267019616116682
 50
341.7363287213224226
 51
352.5796541087738092
  0
ARC
  5
19978
  8
0
 10
4514.4808747187089466
 20
447.9525422098012086
 30
0.0
 40
4.9579978499719317
 50
341.4814724809747872
 51
353.9512341579015811
  0
ARC
  5
19979
  8
0
 10
4514.7318941401117627
 20
447.9244040901377844
 30
0.0
 40
4.7334107206982718
 50
340.1066406221389116
 51
354.0056693710960758
  0
ARC
  5
1997A
  8
0
 10
4514.7330162747912254
 20
447.8437001634537182
 30
0.0
 40
4.7379114701188421
 50
339.8246131208525753
 51
354.9918639292462217
  0
ARC
  5
1997B
  8
0
 10
4514.6840125019270999
 20
447.8817328191531146
 30
0.0
 40
4.8133586520831528
 50
339.0971825176209222
 51
354.6159975455012159
  0
ARC
  5
1997C
  8
0
 10
4515.0091163243605479
 20
447.7447905578952145
 30
0.0
 40
4.4906017251193777
 50
338.0751421273935762
 51
355.9814761127126985
  0
ARC
  5
1997D
  8
0
 10
4515.2324444448177019
 20
447.6868288418364727
 30
0.0
 40
4.282436682288937
 50
337.0136820771318753
 51
356.5630167441620983
  0
ARC
  5
1997E
  8
0
 10
4515.7877581382335848
 20
447.5208630408425847
 30
0.0
 40
3.7309356231641759
 50
335.1087508570693103
 51
358.605923219502472
  0
ARC
  5
1997F
  8
0
 10
4515.7440536174281078
 20
447.488417345382004
 30
0.0
 40
3.7869859404818111
 50
334.510315463765096
 51
359.1175493384624815
  0
ARC
  5
19980
  8
0
 10
4513.5964868392111384
 20
447.6249768653937053
 30
0.0
 40
5.944763679989987
 50
353.1522314958741049
 51
358.1213750748767097
  0
ARC
  5
19981
  8
0
 10
4515.8909152682454078
 20
447.3494425412628743
 30
0.0
 40
3.6338502286177521
 50
344.2897741120298178
 51
353.1522314958741049
  0
ARC
  5
19982
  8
0
 10
4514.4720320428587002
 20
447.9295529829979046
 30
0.0
 40
5.1597496461656016
 50
335.2046592038287258
 51
342.3545216042696779
  0
ARC
  5
19983
  8
0
 10
4512.2110402439957397
 20
447.5187036236573022
 30
0.0
 40
7.3289197037972729
 50
355.0152330930534958
 51
359.3072518247423091
  0
ARC
  5
19984
  8
0
 10
4516.6388496162517185
 20
447.1325066936350936
 30
0.0
 40
2.8843000456272021
 50
339.9282803041148782
 51
355.0152330930534958
  0
ARC
  5
19985
  8
0
 10
4514.6562307003769092
 20
447.8569327463154082
 30
0.0
 40
4.9951223667583768
 50
334.2466533962432891
 51
339.9282803041148782
  0
ARC
  5
19986
  8
0
 10
4509.9481719415116459
 20
447.4950609830333974
 30
0.0
 40
9.5979718643911323
 50
356.6477425980435214
 51
359.6121704662293723
  0
ARC
  5
19987
  8
0
 10
4516.2369249182702333
 20
447.1266986509270964
 30
0.0
 40
3.2984397539577781
 50
343.5187971561265954
 51
356.6477425980435214
  0
ARC
  5
19988
  8
0
 10
4515.7439238923034281
 20
447.4216620209526809
 30
0.0
 40
3.8575167989772412
 50
332.1412564910531273
 51
341.3946345145711234
  0
ARC
  5
19989
  8
0
 10
4514.5415400511355983
 20
447.1870294838817017
 30
0.0
 40
4.9989985270783608
 50
351.5863560803808241
 51
359.6110103225169041
  0
ARC
  5
1998A
  8
0
 10
4517.6211580485642116
 20
446.7315216920125067
 30
0.0
 40
1.885875600090702
 50
337.0934094368666933
 51
351.5863560803808241
  0
ARC
  5
1998B
  8
0
 10
4515.1769694688946402
 20
447.657740503765126
 30
0.0
 40
4.4989003779230314
 50
333.0541258979878876
 51
338.3437981486629837
  0
ARC
  5
1998C
  8
0
 10
4510.3929075528722024
 20
447.2882263010200177
 30
0.0
 40
9.1575765433872167
 50
356.2018915032932114
 51
358.7602302867201729
  0
ARC
  5
1998D
  8
0
 10
4516.1209415367056863
 20
446.9160028729331771
 30
0.0
 40
3.4174762787077539
 50
348.224300854867522
 51
356.0673552168585161
  0
ARC
  5
1998E
  8
0
 10
4517.3490629391308175
 20
446.6941074351781253
 30
0.0
 40
2.1701744647529648
 50
330.3059107977607027
 51
347.3421760882133071
  0
ARC
  5
1998F
  8
0
 10
4516.3312983337718833
 20
446.8170518583086732
 30
0.0
 40
3.2098522580474209
 50
353.4175229066610768
 51
0.8831056020580849
  0
ARC
  5
19990
  8
0
 10
4512.9540874906888348
 20
447.2067618341167758
 30
0.0
 40
6.6094738463827536
 50
350.9117917600510168
 51
353.4175229066610768
  0
ARC
  5
19991
  8
0
 10
4517.510894808271587
 20
446.6093177640697718
 30
0.0
 40
2.019678921713838
 50
330.6397300299345829
 51
347.226252626774226
  0
ARC
  5
19992
  8
0
 10
4516.2896064256137834
 20
447.0280335533598191
 30
0.0
 40
3.3324104776234509
 50
334.9881261127874268
 51
339.9629481627654854
  0
ARC
  5
19993
  8
0
 10
4517.8833796693506883
 20
446.4467800662940249
 30
0.0
 40
1.6359527656020041
 50
339.9629481627654854
 51
351.1352535432698119
  0
ARC
  5
19994
  8
0
 10
4514.7436823736634324
 20
446.9364645341210007
 30
0.0
 40
4.8136075590894976
 50
351.1352535432698119
 51
354.6562511036744922
  0
ARC
  5
19995
  8
0
 10
4525.3516323676931279
 20
446.1974607600977265
 30
0.0
 40
5.8225247703694842
 50
175.3417535088499051
 51
177.1381331325846133
  0
ARC
  5
19996
  8
0
 10
4516.9732001281554403
 20
446.5147031861667983
 30
0.0
 40
2.5675998791980792
 50
348.7696791021144236
 51
358.9619875180114263
  0
ARC
  5
19997
  8
0
 10
4518.4203872509178836
 20
446.2273564592376829
 30
0.0
 40
1.0921613986883481
 50
326.1544261364597901
 51
348.7696791021144236
  0
ARC
  5
19998
  8
0
 10
4517.7143366817281276
 20
446.4736739887338786
 30
0.0
 40
1.863614643826937
 50
332.7049196732883729
 51
340.2182823270416065
  0
ARC
  5
19999
  8
0
 10
4517.6559679495640012
 20
446.361082261656918
 30
0.0
 40
1.8846304061732839
 50
344.0426552718050743
 51
355.2596482601056209
  0
ARC
  5
1999A
  8
0
 10
4513.7789400490437401
 20
446.643248005982116
 30
0.0
 40
5.7718480660500946
 50
355.6487657818768753
 51
358.3312968069820954
  0
ARC
  5
1999B
  8
0
 10
4518.3005415866164185
 20
446.1666853939893826
 30
0.0
 40
1.233737140529922
 50
333.6491259391311246
 51
357.2261830042090764
  0
ARC
  5
1999C
  8
0
 10
4516.4427622567945946
 20
446.3627313095033173
 30
0.0
 40
3.1006365397873168
 50
355.2686828666418251
 51
359.7800620133039047
  0
ARC
  5
1999D
  8
0
 10
4518.4378493702351989
 20
446.0840800164576763
 30
0.0
 40
1.1004213841485999
 50
335.0027757612352275
 51
350.6479294070023798
  0
ARC
  5
1999E
  8
0
 10
4517.4717680131579982
 20
446.2037465238954042
 30
0.0
 40
2.0734730671725421
 50
351.7232621385825269
 51
358.208305954472678
  0
ARC
  5
1999F
  8
0
 10
4509.8954897808243913
 20
446.5140385688378046
 30
0.0
 40
9.6560267572831684
 50
357.7735916781882111
 51
358.5303889583892101
  0
ARC
  5
199A0
  8
0
 10
4518.803742537569633
 20
445.9350897055505243
 30
0.0
 40
0.7306649767924942
 50
334.3730748624382727
 51
351.1169941348434804
  0
ARC
  5
199A1
  8
0
 10
4518.125307477737806
 20
446.0411236495046978
 30
0.0
 40
1.417336170070328
 50
351.1169941348434804
 51
1.831721089543203
  0
ARC
  5
199A2
  8
0
 10
4518.8996896424123406
 20
445.8675190203305192
 30
0.0
 40
0.6372239657394403
 50
337.0521879845059061
 51
350.1174121721264783
  0
ARC
  5
199A3
  8
0
 10
4518.0280064003472944
 20
446.0193791411155075
 30
0.0
 40
1.522036471744475
 50
350.1174121721264783
 51
357.2897453909135947
  0
ARC
  5
199A4
  8
0
 10
4518.3595186618704247
 20
445.8740547537379939
 30
0.0
 40
1.1872009719769621
 50
347.5974994548482755
 51
357.375169804177915
  0
ARC
  5
199A5
  8
0
 10
4509.1702823024361351
 20
446.2953261527339919
 30
0.0
 40
10.38608864718754
 50
357.375169804177915
 51
357.7467302108320268
  0
ARC
  5
199A6
  8
0
 10
4517.9742811458827418
 20
445.820525738390927
 30
0.0
 40
1.5762834636573639
 50
352.6572787521175769
 51
356.9558724487166046
  0
ARC
  5
199A7
  8
0
 10
4520.2904527346063333
 20
447.4164083200038249
 30
0.0
 40
1.1687936361751909
 50
179.3291073761228063
 51
189.6612443670003074
  0
ARC
  5
199A8
  8
0
 10
4523.4960677506423963
 20
447.9355500277292776
 30
0.0
 40
4.4404229169549758
 50
186.5361840563579108
 51
190.9226883802010093
  0
ARC
  5
199A9
  8
0
 10
4522.0192262172786286
 20
447.6403484383562841
 30
0.0
 40
2.9699528829098769
 50
184.0595902871019121
 51
192.6251871256484094
  0
ARC
  5
199AA
  8
0
 10
4524.8448418208990915
 20
448.2643444601632723
 30
0.0
 40
5.8846643845975679
 50
188.1501029152485103
 51
193.6056859598851929
  0
ARC
  5
199AB
  8
0
 10
4526.3166851948781186
 20
448.3940527284632935
 30
0.0
 40
7.3863012857880062
 50
187.4988514565698097
 51
192.899334846154602
  0
ARC
  5
199AC
  8
0
 10
4524.7016082669606476
 20
448.2559285636741038
 30
0.0
 40
5.805254443173216
 50
188.1784376943155905
 51
195.7031845423325933
  0
ARC
  5
199AD
  8
0
 10
4524.4384676896579549
 20
448.1438366738158834
 30
0.0
 40
5.5559833374761434
 50
187.3808322476029105
 51
196.4992699614664957
  0
ARC
  5
199AE
  8
0
 10
4523.9805358068051646
 20
448.0921956847399201
 30
0.0
 40
5.1267019616116682
 50
187.4203458912261056
 51
198.2636712786776059
  0
ARC
  5
199AF
  8
0
 10
4523.8087193965338884
 20
447.9525422098012086
 30
0.0
 40
4.9579978499719317
 50
186.0487658420983905
 51
198.5185275190252128
  0
ARC
  5
199B0
  8
0
 10
4523.5576999751301628
 20
447.9244040901377844
 30
0.0
 40
4.7334107206982718
 50
185.9943306289038105
 51
199.8933593778610884
  0
ARC
  5
199B1
  8
0
 10
4523.5565778404507
 20
447.8437001634537182
 30
0.0
 40
4.7379114701188421
 50
185.0081360707538067
 51
200.1753868791473963
  0
ARC
  5
199B2
  8
0
 10
4523.605581613315735
 20
447.8817328191531146
 30
0.0
 40
4.8133586520831528
 50
185.3840024544986989
 51
200.9028174823760935
  0
ARC
  5
199B3
  8
0
 10
4523.2804777908822871
 20
447.7447905578952145
 30
0.0
 40
4.4906017251193777
 50
184.0185238872873015
 51
201.9248578726063954
  0
ARC
  5
199B4
  8
0
 10
4523.0571496704242236
 20
447.6868288418364727
 30
0.0
 40
4.282436682288937
 50
183.436983255837788
 51
202.9863179228680963
  0
ARC
  5
199B5
  8
0
 10
4522.5018359770083407
 20
447.5208630408425847
 30
0.0
 40
3.7309356231641759
 50
181.3940767804974996
 51
204.8912491429306897
  0
ARC
  5
199B6
  8
0
 10
4522.5455404978147271
 20
447.488417345382004
 30
0.0
 40
3.7869859404818111
 50
180.8824506615374901
 51
205.489684536234904
  0
ARC
  5
199B7
  8
0
 10
4524.693107276030787
 20
447.6249768653937053
 30
0.0
 40
5.944763679989987
 50
181.8786249251232903
 51
186.8477685041258098
  0
ARC
  5
199B8
  8
0
 10
4522.3986788469974272
 20
447.3494425412628743
 30
0.0
 40
3.6338502286177521
 50
186.8477685041258098
 51
195.7102258879702106
  0
ARC
  5
199B9
  8
0
 10
4523.8175620723841348
 20
447.9295529829979046
 30
0.0
 40
5.1597496461656016
 50
197.6454783957302936
 51
204.7953407961713026
  0
ARC
  5
199BA
  8
0
 10
4526.0785538712461857
 20
447.5187036236573022
 30
0.0
 40
7.3289197037972729
 50
180.6927481752576909
 51
184.9847669069465042
  0
ARC
  5
199BB
  8
0
 10
4521.6507444989911164
 20
447.1325066936350936
 30
0.0
 40
2.8843000456272021
 50
184.9847669069465042
 51
200.0717196958821091
  0
ARC
  5
199BC
  8
0
 10
4523.6333634148650162
 20
447.8569327463154082
 30
0.0
 40
4.9951223667583768
 50
200.0717196958821091
 51
205.7533466037565972
  0
ARC
  5
199BD
  8
0
 10
4528.3414221737302796
 20
447.4950609830333974
 30
0.0
 40
9.5979718643911323
 50
180.3878295337705993
 51
183.3522574019565923
  0
ARC
  5
199BE
  8
0
 10
4522.0526691969744206
 20
447.1266986509270964
 30
0.0
 40
3.2984397539577781
 50
183.3522574019565923
 51
196.4812028438734046
  0
ARC
  5
199BF
  8
0
 10
4522.5456702229403163
 20
447.4216620209526809
 30
0.0
 40
3.8575167989772412
 50
198.605365485428905
 51
207.8587435089469011
  0
ARC
  5
199C0
  8
0
 10
4523.7480540641072366
 20
447.1870294838817017
 30
0.0
 40
4.9989985270783608
 50
180.3889896774830959
 51
188.4136439196192043
  0
ARC
  5
199C1
  8
0
 10
4520.6684360666777138
 20
446.7315216920125067
 30
0.0
 40
1.885875600090702
 50
188.4136439196192043
 51
202.9065905631333067
  0
ARC
  5
199C2
  8
0
 10
4523.1126246463472853
 20
447.657740503765126
 30
0.0
 40
4.4989003779230314
 50
201.6562018513369878
 51
206.9458741020121124
  0
ARC
  5
199C3
  8
0
 10
4527.8966865623697231
 20
447.2882263010200177
 30
0.0
 40
9.1575765433872167
 50
181.2397697132799124
 51
183.7981084967067886
  0
ARC
  5
199C4
  8
0
 10
4522.1686525785380582
 20
446.9160028729331771
 30
0.0
 40
3.4174762787077539
 50
183.9326447831415123
 51
191.7756991451325064
  0
ARC
  5
199C5
  8
0
 10
4520.9405311761111079
 20
446.6941074351781253
 30
0.0
 40
2.1701744647529648
 50
192.6578239117866929
 51
209.694089202239411
  0
ARC
  5
199C6
  8
0
 10
4521.9582957814718611
 20
446.8170518583086732
 30
0.0
 40
3.2098522580474209
 50
179.1168943979419055
 51
186.5824770933388095
  0
ARC
  5
199C7
  8
0
 10
4525.3355066245530907
 20
447.2067618341167758
 30
0.0
 40
6.6094738463827536
 50
186.5824770933388095
 51
189.0882082399488979
  0
ARC
  5
199C8
  8
0
 10
4520.7786993069703385
 20
446.6093177640697718
 30
0.0
 40
2.019678921713838
 50
192.7737473732258024
 51
209.3602699700653034
  0
ARC
  5
199C9
  8
0
 10
4521.9999876896281421
 20
447.0280335533598191
 30
0.0
 40
3.3324104776234509
 50
200.0370518372344861
 51
205.0118738872126016
  0
ARC
  5
199CA
  8
0
 10
4520.4062144458930561
 20
446.4467800662940249
 30
0.0
 40
1.6359527656020041
 50
188.8647464567301881
 51
200.0370518372344861
  0
ARC
  5
199CB
  8
0
 10
4523.5459117415794026
 20
446.9364645341210007
 30
0.0
 40
4.8136075590894976
 50
185.3437488963253941
 51
188.8647464567301881
  0
ARC
  5
199CC
  8
0
 10
4512.9379617475497071
 20
446.1974607600977265
 30
0.0
 40
5.8225247703694842
 50
2.8618668674154231
 51
4.65824649115011
  0
ARC
  5
199CD
  8
0
 10
4521.3163939870892136
 20
446.5147031861667983
 30
0.0
 40
2.5675998791980792
 50
181.0380124819884884
 51
191.2303208978856048
  0
ARC
  5
199CE
  8
0
 10
4519.8692068643258608
 20
446.2273564592376829
 30
0.0
 40
1.0921613986883481
 50
191.2303208978856048
 51
213.8455738635402099
  0
ARC
  5
199CF
  8
0
 10
4520.5752574335156169
 20
446.4736739887338786
 30
0.0
 40
1.863614643826937
 50
199.7817176729552955
 51
207.2950803267115987
  0
ARC
  5
199D0
  8
0
 10
4520.6336261656779243
 20
446.361082261656918
 30
0.0
 40
1.8846304061732839
 50
184.7403517398944075
 51
195.9573447281948972
  0
ARC
  5
199D1
  8
0
 10
4524.5106540661990948
 20
446.643248005982116
 30
0.0
 40
5.7718480660500946
 50
181.6687031930179046
 51
184.351234218123011
  0
ARC
  5
199D2
  8
0
 10
4519.9890525286264165
 20
446.1666853939893826
 30
0.0
 40
1.233737140529922
 50
182.7738169957908951
 51
206.3508740608689038
  0
ARC
  5
199D3
  8
0
 10
4521.8468318584482404
 20
446.3627313095033173
 30
0.0
 40
3.1006365397873168
 50
180.2199379866960101
 51
184.7313171333580897
  0
ARC
  5
199D4
  8
0
 10
4519.8517447450076361
 20
446.0840800164576763
 30
0.0
 40
1.1004213841485999
 50
189.3520705929975065
 51
204.9972242387648009
  0
ARC
  5
199D5
  8
0
 10
4520.8178261020848367
 20
446.2037465238954042
 30
0.0
 40
2.0734730671725421
 50
181.7916940455272083
 51
188.2767378614175016
  0
ARC
  5
199D6
  8
0
 10
4528.3941043344193531
 20
446.5140385688378046
 30
0.0
 40
9.6560267572831684
 50
181.4696110416107899
 51
182.2264083218117889
  0
ARC
  5
199D7
  8
0
 10
4519.4858515776741115
 20
445.9350897055505243
 30
0.0
 40
0.7306649767924942
 50
188.8830058651564059
 51
205.6269251375616989
  0
ARC
  5
199D8
  8
0
 10
4520.1642866375041194
 20
446.0411236495046978
 30
0.0
 40
1.417336170070328
 50
178.1682789104567917
 51
188.8830058651564059
  0
ARC
  5
199D9
  8
0
 10
4519.3899044728295848
 20
445.8675190203305192
 30
0.0
 40
0.6372239657394403
 50
189.8825878278734081
 51
202.9478120154940939
  0
ARC
  5
199DA
  8
0
 10
4520.2615877148964501
 20
446.0193791411155075
 30
0.0
 40
1.522036471744475
 50
182.7102546090864053
 51
189.8825878278734081
  0
ARC
  5
199DB
  8
0
 10
4519.9300754533742293
 20
445.8740547537379939
 30
0.0
 40
1.1872009719769621
 50
182.6248301958221134
 51
192.4025005451516108
  0
ARC
  5
199DC
  8
0
 10
4529.1193118128076094
 20
446.2953261527339919
 30
0.0
 40
10.38608864718754
 50
182.2532697891680016
 51
182.6248301958221134
  0
ARC
  5
199DD
  8
0
 10
4520.3153129693600931
 20
445.820525738390927
 30
0.0
 40
1.5762834636573639
 50
183.0441275512833101
 51
187.3427212478823094
  0
ARC
  5
199DE
  8
0
 10
4519.1447970576218722
 20
447.2209993847216083
 30
0.0
 40
0.0066029228424679
 50
186.4439099539588085
 51
353.5560900460412199
  0
ARC
  5
199DF
  8
0
 10
4519.1447970576218722
 20
447.0936790165353045
 30
0.0
 40
0.0087216983404442
 50
176.8404399079560108
 51
3.1595600920537219
  0
ARC
  5
199E0
  8
0
 10
4519.1447970576218722
 20
446.995272845316606
 30
0.0
 40
0.0240599216613606
 50
189.7478268259627043
 51
350.252173174037182
  0
ARC
  5
199E1
  8
0
 10
4519.1447970576218722
 20
446.8847847689827972
 30
0.0
 40
0.0200505805279063
 50
193.6752658814556867
 51
346.3247341185380037
  0
ARC
  5
199E2
  8
0
 10
4519.1447970576218722
 20
446.7552035772686736
 30
0.0
 40
0.0297625596514375
 50
199.755352651516688
 51
340.2446473484894796
  0
ARC
  5
199E3
  8
0
 10
4519.1447970576218722
 20
446.6918919817371147
 30
0.0
 40
0.0325728580369534
 50
192.7314848420820113
 51
347.2685151579178751
  0
ARC
  5
199E4
  8
0
 10
4519.1447970576218722
 20
446.5721160347960108
 30
0.0
 40
0.0341035195904982
 50
190.4677660596219937
 51
349.5322339403747947
  0
ARC
  5
199E5
  8
0
 10
4519.1447970576218722
 20
446.4921538304387809
 30
0.0
 40
0.0333651944335054
 50
191.4393652766642049
 51
348.5606347233357951
  0
ARC
  5
199E6
  8
0
 10
4519.1447970576218722
 20
446.3889301381665859
 30
0.0
 40
0.0389707758931349
 50
196.5548271011928136
 51
343.4451728988070727
  0
ARC
  5
199E7
  8
0
 10
4519.1447970576218722
 20
446.3302010135839737
 30
0.0
 40
0.041451987065474
 50
203.3619135362233123
 51
336.6380864637827131
  0
ARC
  5
199E8
  8
0
 10
4519.1447970576218722
 20
446.2202331026797992
 30
0.0
 40
0.036974913500995
 50
196.6835466655143989
 51
343.3164533344886991
  0
ARC
  5
199E9
  8
0
 10
4519.1447970576218722
 20
446.1782746425678283
 30
0.0
 40
0.0383859627549854
 50
201.1833027808721965
 51
338.8166972191307877
  0
ARC
  5
199EA
  8
0
 10
4519.1447970576218722
 20
446.079979790939376
 30
0.0
 40
0.0324131279525784
 50
201.6080781442734917
 51
338.3919218557264799
  0
ARC
  5
199EB
  8
0
 10
4519.1447970576218722
 20
446.0291028191880969
 30
0.0
 40
0.0334156382432009
 50
205.9341179384412044
 51
334.0658820615589093
  0
ARC
  5
199EC
  8
0
 10
4519.1447970576218722
 20
445.9556564964559016
 30
0.0
 40
0.0278019443204809
 50
190.6416953136825043
 51
349.3583046863175241
  0
ARC
  5
199ED
  8
0
 10
4519.1447970576218722
 20
445.8693042108358782
 30
0.0
 40
0.0205750188756607
 50
211.0455100210062938
 51
328.9544899789937062
  0
ARC
  5
199EE
  8
0
 10
4519.1447970576218722
 20
445.7704878150067884
 30
0.0
 40
0.0122999506766483
 50
203.0794599918257006
 51
336.9205400081742141
  0
ARC
  5
199EF
  8
0
 10
4519.1447970576218722
 20
445.6929166690904935
 30
0.0
 40
0.012191485952348
 50
211.4112814519199901
 51
328.5887185481266215
  0
LINE
  5
199F0
  8
0
 10
4500.126647451230383
 20
448.0403299658121909
 30
0.0
 11
4502.2023167426132204
 21
448.0403299658121909
 31
0.0
  0
LINE
  5
199F1
  8
0
 10
4500.0436159551318269
 20
448.0143299658121805
 30
0.0
 11
4502.2853482387117765
 21
448.0143299658121805
 31
0.0
  0
LINE
  5
199F2
  8
0
 10
4500.1396158092948099
 20
447.62732996581218
 30
0.0
 11
4502.1893483845487935
 21
447.62732996581218
 31
0.0
  0
LINE
  5
199F3
  8
0
 10
4500.3770065255966983
 20
447.430093745312206
 30
0.0
 11
4501.9519576682459956
 21
447.430093745312206
 31
0.0
  0
LINE
  5
199F4
  8
0
 10
4501.6861398950441071
 20
445.4419048065121842
 30
0.0
 11
4502.5030647741159555
 21
445.4419048065121842
 31
0.0
  0
LINE
  5
199F5
  8
0
 10
4500.8790532807734053
 20
444.6348181923121956
 30
0.0
 11
4502.5030647741159555
 21
444.6348181923121956
 31
0.0
  0
LINE
  5
199F6
  8
0
 10
4502.5227498135209316
 20
445.4222197671011827
 30
0.0
 11
4502.5227498135209316
 21
444.6545032317231971
 31
0.0
  0
LINE
  5
199F7
  8
0
 10
4500.7609387898219211
 20
444.7529326832644756
 30
0.0
 11
4500.7609387898219211
 21
445.5993851216019834
 31
0.0
  0
LINE
  5
199F8
  8
0
 10
4500.7609387898219211
 20
445.6190701608123277
 30
0.0
 11
4501.5680254039216379
 21
445.6190701608123277
 31
0.0
  0
LINE
  5
199F9
  8
0
 10
4500.0236159552214303
 20
447.994329965808106
 30
0.0
 11
4500.0236159552214303
 21
447.7346025602669215
 31
0.0
  0
LINE
  5
199FA
  8
0
 10
4502.3053482386203541
 20
447.7346025602669215
 30
0.0
 11
4502.3053482386203541
 21
447.994329965808106
 31
0.0
  0
LINE
  5
199FB
  8
0
 10
4501.5680254039216379
 20
445.5993851216019834
 30
0.0
 11
4501.5680254039216379
 21
445.5600192976352218
 31
0.0
  0
LINE
  5
199FC
  8
0
 10
4500.0301624992207508
 20
447.7198037589121782
 30
0.0
 11
4500.1261623533209786
 21
447.6325311643121836
 31
0.0
  0
ARC
  5
199FD
  8
0
 10
4502.5030647741214125
 20
445.4222197671122103
 30
0.0
 40
0.0196850393999935
 50
359.9999999679653229
 51
90.0000000132359901
  0
ARC
  5
199FE
  8
0
 10
4501.6861398948603892
 20
445.5600192974500828
 30
0.0
 40
0.1181144909379519
 50
179.9999999102466859
 51
270.0000000897337031
  0
ARC
  5
199FF
  8
0
 10
4500.8790532805887779
 20
444.7529326830795071
 30
0.0
 40
0.1181144907672387
 50
179.9999999102564061
 51
270.0000000897337031
  0
ARC
  5
19A00
  8
0
 10
4502.5030647741214125
 20
444.6545032317122264
 30
0.0
 40
0.0196850393999917
 50
269.9999999867118845
 51
0.0000000320347503
  0
ARC
  5
19A01
  8
0
 10
4500.1266474512212881
 20
448.0203299658122091
 30
0.0
 40
0.0199999999999978
 50
89.9999999779052757
 51
180.0000000000163141
  0
LINE
  5
19A02
  8
0
 10
4500.106647451221761
 20
448.0203299658122091
 30
0.0
 11
4500.106647451221761
 21
448.0143299658121805
 31
0.0
  0
ARC
  5
19A03
  8
0
 10
4500.0436159550508819
 20
447.9943299659828995
 30
0.0
 40
0.0199999998292846
 50
89.9999997692559788
 51
180.000000500710712
  0
ARC
  5
19A04
  8
0
 10
4500.0436159549062722
 20
447.7346025602669215
 30
0.0
 40
0.0199999997850446
 50
179.999999869877513
 51
227.726311188598288
  0
ARC
  5
19A05
  8
0
 10
4500.139615809272982
 20
447.6473299660889893
 30
0.0
 40
0.0200000002767755
 50
227.7263114370653057
 51
270.0000000616984721
  0
ARC
  5
19A06
  8
0
 10
4500.2699820969219218
 20
447.6073299658121982
 30
0.0
 40
0.0199999999999978
 50
359.9999999999935199
 51
90.0
  0
LINE
  5
19A07
  8
0
 10
4500.2899820969214488
 20
447.6073299658121982
 30
0.0
 11
4500.2899820969214488
 21
447.5171181740607267
 31
0.0
  0
ARC
  5
19A08
  8
0
 10
4500.3099820971647205
 20
447.5171181740607267
 30
0.0
 40
0.0200000002440268
 50
180.0000001390527871
 51
224.9999994014333993
  0
LINE
  5
19A09
  8
0
 10
4500.2958399612207359
 20
447.5029760384122142
 30
0.0
 11
4500.3628643900219686
 21
447.4359516097122764
 31
0.0
  0
ARC
  5
19A0A
  8
0
 10
4500.3770065255766895
 20
447.4500937450918059
 30
0.0
 40
0.0199999997795537
 50
224.9999996422662036
 51
270.0000000532044737
  0
LINE
  5
19A0B
  8
0
 10
4502.2988016946219432
 20
447.7198037589121782
 30
0.0
 11
4502.2028018405208059
 21
447.6325311643121836
 31
0.0
  0
ARC
  5
19A0C
  8
0
 10
4502.2023167426214059
 20
448.0203299658122091
 30
0.0
 40
0.019999999999996
 50
359.9999999999902229
 51
90.0000000220947243
  0
LINE
  5
19A0D
  8
0
 10
4502.2223167426218424
 20
448.0203299658122091
 30
0.0
 11
4502.2223167426218424
 21
448.0143299658121805
 31
0.0
  0
ARC
  5
19A0E
  8
0
 10
4502.2853482387208714
 20
447.9943299658121987
 30
0.0
 40
0.0199999999999978
 50
359.9999999999935199
 51
90.0000000281395103
  0
ARC
  5
19A0F
  8
0
 10
4502.2853482389364217
 20
447.7346025602669215
 30
0.0
 40
0.0199999997850446
 50
312.273688811401712
 51
0.000000130122446
  0
ARC
  5
19A10
  8
0
 10
4502.1893483845688024
 20
447.6473299660889893
 30
0.0
 40
0.0200000002767839
 50
269.9999999383015279
 51
312.2736885628872869
  0
ARC
  5
19A11
  8
0
 10
4502.0589820969207722
 20
447.6073299658121982
 30
0.0
 40
0.0199999999999978
 50
90.0
 51
180.0000000000065086
  0
LINE
  5
19A12
  8
0
 10
4502.0389820969212451
 20
447.6073299658121982
 30
0.0
 11
4502.0389820969212451
 21
447.5171181740607267
 31
0.0
  0
ARC
  5
19A13
  8
0
 10
4502.0189820966779735
 20
447.5171181740607267
 30
0.0
 40
0.0200000002440268
 50
315.0000005985666007
 51
359.9999998609471845
  0
LINE
  5
19A14
  8
0
 10
4502.0331242326219581
 20
447.5029760384122142
 30
0.0
 11
4501.9660998038216349
 21
447.4359516097122764
 31
0.0
  0
ARC
  5
19A15
  8
0
 10
4501.951957668265095
 20
447.4500937450918059
 30
0.0
 40
0.0199999997795547
 50
269.9999999467955263
 51
315.0000003577338248
  0
ARC
  5
19A16
  8
0
 10
4500.7806238290213514
 20
445.5993851216019834
 30
0.0
 40
0.0196850391985143
 50
90.0
 51
180.0000005526221969
  0
ARC
  5
19A17
  8
0
 10
4501.5483403647231171
 20
445.5993851216019834
 30
0.0
 40
0.0196850391985158
 50
359.9999994473810148
 51
90.0
  0
LINE
  5
19A18
  8
0
 10
4502.0331242326219581
 20
447.5029760384122142
 30
0.0
 11
4500.2958399613216898
 21
447.5029760384122142
 31
0.0
  0
LINE
  5
19A19
  8
0
 10
4500.0301624993217047
 20
447.7198037589121782
 30
0.0
 11
4502.2988016946219432
 21
447.7198037589121782
 31
0.0
  0
ARC
  5
19A1A
  8
0
 10
4502.5427515812225465
 20
445.4219004907643011
 30
0.0
 40
0.0200043157479142
 50
90.0000221274533772
 51
179.0854991707068962
  0
ARC
  5
19A1B
  8
0
 10
4502.542751581221637
 20
444.6548225080596239
 30
0.0
 40
0.0200043157474103
 50
180.9145008278439093
 51
269.9999778758295861
  0
LINE
  5
19A1C
  8
0
 10
4500.7609387898219211
 20
445.6190701608123277
 30
0.0
 11
4500.7609387898219211
 21
447.430093745312206
 31
0.0
  0
LINE
  5
19A1D
  8
0
 10
4501.5680254039216379
 20
447.430093745312206
 30
0.0
 11
4501.5680254039216379
 21
445.6190701608123277
 31
0.0
  0
ARC
  5
19A1E
  8
0
 10
4502.310137773905808
 20
447.4164083200038249
 30
0.0
 40
1.1687936361751909
 50
179.3291073761228063
 51
189.6612443670003074
  0
ARC
  5
19A1F
  8
0
 10
4505.5157527899427805
 20
447.9355500277292776
 30
0.0
 40
4.4404229169549758
 50
186.5361840563579108
 51
190.9226883802010093
  0
ARC
  5
19A20
  8
0
 10
4504.0389112565790128
 20
447.6403484383562841
 30
0.0
 40
2.9699528829098769
 50
184.0595902871019121
 51
192.6251871256484094
  0
ARC
  5
19A21
  8
0
 10
4506.8645268601976568
 20
448.2643444601632723
 30
0.0
 40
5.8846643845975679
 50
188.1501029152485103
 51
193.6056859598851929
  0
ARC
  5
19A22
  8
0
 10
4508.3363702341775934
 20
448.3940527284632935
 30
0.0
 40
7.3863012857880062
 50
187.4988514565698097
 51
192.899334846154602
  0
ARC
  5
19A23
  8
0
 10
4506.7212933062610318
 20
448.2559285636741038
 30
0.0
 40
5.805254443173216
 50
188.1784376943155905
 51
195.7031845423325933
  0
ARC
  5
19A24
  8
0
 10
4506.4581527289592486
 20
448.1438366738158834
 30
0.0
 40
5.5559833374761434
 50
187.3808322476029105
 51
196.4992699614664957
  0
ARC
  5
19A25
  8
0
 10
4506.0002208461046393
 20
448.0921956847399201
 30
0.0
 40
5.1267019616116682
 50
187.4203458912261056
 51
198.2636712786776059
  0
ARC
  5
19A26
  8
0
 10
4505.8284044358342726
 20
447.9525422098012086
 30
0.0
 40
4.9579978499719317
 50
186.0487658420983905
 51
198.5185275190252128
  0
ARC
  5
19A27
  8
0
 10
4505.5773850144296375
 20
447.9244040901377844
 30
0.0
 40
4.7334107206982718
 50
185.9943306289038105
 51
199.8933593778610884
  0
ARC
  5
19A28
  8
0
 10
4505.5762628797510843
 20
447.8437001634537182
 30
0.0
 40
4.7379114701188421
 50
185.0081360707538067
 51
200.1753868791473963
  0
ARC
  5
19A29
  8
0
 10
4505.6252666526161192
 20
447.8817328191531146
 30
0.0
 40
4.8133586520831528
 50
185.3840024544986989
 51
200.9028174823760935
  0
ARC
  5
19A2A
  8
0
 10
4505.3001628301817618
 20
447.7447905578952145
 30
0.0
 40
4.4906017251193777
 50
184.0185238872873015
 51
201.9248578726063954
  0
ARC
  5
19A2B
  8
0
 10
4505.0768347097246078
 20
447.6868288418364727
 30
0.0
 40
4.282436682288937
 50
183.436983255837788
 51
202.9863179228680963
  0
ARC
  5
19A2C
  8
0
 10
4504.5215210163078154
 20
447.5208630408425847
 30
0.0
 40
3.7309356231641759
 50
181.3940767804974996
 51
204.8912491429306897
  0
ARC
  5
19A2D
  8
0
 10
4504.5652255371151114
 20
447.488417345382004
 30
0.0
 40
3.7869859404818111
 50
180.8824506615374901
 51
205.489684536234904
  0
ARC
  5
19A2E
  8
0
 10
4506.7127923153320808
 20
447.6249768653937053
 30
0.0
 40
5.944763679989987
 50
181.8786249251232903
 51
186.8477685041258098
  0
ARC
  5
19A2F
  8
0
 10
4504.4183638862978114
 20
447.3494425412628743
 30
0.0
 40
3.6338502286177521
 50
186.8477685041258098
 51
195.7102258879702106
  0
ARC
  5
19A30
  8
0
 10
4505.8372471116836095
 20
447.9295529829979046
 30
0.0
 40
5.1597496461656016
 50
197.6454783957302936
 51
204.7953407961713026
  0
ARC
  5
19A31
  8
0
 10
4508.0982389105456605
 20
447.5187036236573022
 30
0.0
 40
7.3289197037972729
 50
180.6927481752576909
 51
184.9847669069465042
  0
ARC
  5
19A32
  8
0
 10
4503.6704295382896817
 20
447.1325066936350936
 30
0.0
 40
2.8843000456272021
 50
184.9847669069465042
 51
200.0717196958821091
  0
ARC
  5
19A33
  8
0
 10
4505.6530484541654005
 20
447.8569327463154082
 30
0.0
 40
4.9951223667583768
 50
200.0717196958821091
 51
205.7533466037565972
  0
ARC
  5
19A34
  8
0
 10
4510.3611072130297543
 20
447.4950609830333974
 30
0.0
 40
9.5979718643911323
 50
180.3878295337705993
 51
183.3522574019565923
  0
ARC
  5
19A35
  8
0
 10
4504.0723542362729859
 20
447.1266986509270964
 30
0.0
 40
3.2984397539577781
 50
183.3522574019565923
 51
196.4812028438734046
  0
ARC
  5
19A36
  8
0
 10
4504.5653552622388816
 20
447.4216620209526809
 30
0.0
 40
3.8575167989772412
 50
198.605365485428905
 51
207.8587435089469011
  0
ARC
  5
19A37
  8
0
 10
4505.7677391034067114
 20
447.1870294838817017
 30
0.0
 40
4.9989985270783608
 50
180.3889896774830959
 51
188.4136439196192043
  0
ARC
  5
19A38
  8
0
 10
4502.6881211059780981
 20
446.7315216920125067
 30
0.0
 40
1.885875600090702
 50
188.4136439196192043
 51
202.9065905631333067
  0
ARC
  5
19A39
  8
0
 10
4505.1323096856476695
 20
447.657740503765126
 30
0.0
 40
4.4989003779230314
 50
201.6562018513369878
 51
206.9458741020121124
  0
ARC
  5
19A3A
  8
0
 10
4509.9163716016710168
 20
447.2882263010200177
 30
0.0
 40
9.1575765433872167
 50
181.2397697132799124
 51
183.7981084967067886
  0
ARC
  5
19A3B
  8
0
 10
4504.1883376178366234
 20
446.9160028729331771
 30
0.0
 40
3.4174762787077539
 50
183.9326447831415123
 51
191.7756991451325064
  0
ARC
  5
19A3C
  8
0
 10
4502.9602162154105827
 20
446.6941074351781253
 30
0.0
 40
2.1701744647529648
 50
192.6578239117866929
 51
209.694089202239411
  0
ARC
  5
19A3D
  8
0
 10
4503.9779808207713359
 20
446.8170518583086732
 30
0.0
 40
3.2098522580474209
 50
179.1168943979419055
 51
186.5824770933388095
  0
ARC
  5
19A3E
  8
0
 10
4507.3551916638543844
 20
447.2067618341167758
 30
0.0
 40
6.6094738463827536
 50
186.5824770933388095
 51
189.0882082399488979
  0
ARC
  5
19A3F
  8
0
 10
4502.7983843462698132
 20
446.6093177640697718
 30
0.0
 40
2.019678921713838
 50
192.7737473732258024
 51
209.3602699700653034
  0
ARC
  5
19A40
  8
0
 10
4504.0196727289294358
 20
447.0280335533598191
 30
0.0
 40
3.3324104776234509
 50
200.0370518372344861
 51
205.0118738872126016
  0
ARC
  5
19A41
  8
0
 10
4502.4258994851916214
 20
446.4467800662940249
 30
0.0
 40
1.6359527656020041
 50
188.8647464567301881
 51
200.0370518372344861
  0
ARC
  5
19A42
  8
0
 10
4505.5655967808788773
 20
446.9364645341210007
 30
0.0
 40
4.8136075590894976
 50
185.3437488963253941
 51
188.8647464567301881
  0
ARC
  5
19A43
  8
0
 10
4494.9576467868500913
 20
446.1974607600977265
 30
0.0
 40
5.8225247703694842
 50
2.8618668674154231
 51
4.65824649115011
  0
ARC
  5
19A44
  8
0
 10
4503.3360790263877789
 20
446.5147031861667983
 30
0.0
 40
2.5675998791980792
 50
181.0380124819884884
 51
191.2303208978856048
  0
ARC
  5
19A45
  8
0
 10
4501.8888919036253355
 20
446.2273564592376829
 30
0.0
 40
1.0921613986883481
 50
191.2303208978856048
 51
213.8455738635402099
  0
ARC
  5
19A46
  8
0
 10
4502.5949424728150916
 20
446.4736739887338786
 30
0.0
 40
1.863614643826937
 50
199.7817176729552955
 51
207.2950803267115987
  0
ARC
  5
19A47
  8
0
 10
4502.6533112049783085
 20
446.361082261656918
 30
0.0
 40
1.8846304061732839
 50
184.7403517398944075
 51
195.9573447281948972
  0
ARC
  5
19A48
  8
0
 10
4506.5303391054985696
 20
446.643248005982116
 30
0.0
 40
5.7718480660500946
 50
181.6687031930179046
 51
184.351234218123011
  0
ARC
  5
19A49
  8
0
 10
4502.0087375679258912
 20
446.1666853939893826
 30
0.0
 40
1.233737140529922
 50
182.7738169957908951
 51
206.3508740608689038
  0
ARC
  5
19A4A
  8
0
 10
4503.8665168977477151
 20
446.3627313095033173
 30
0.0
 40
3.1006365397873168
 50
180.2199379866960101
 51
184.7313171333580897
  0
ARC
  5
19A4B
  8
0
 10
4501.8714297843080203
 20
446.0840800164576763
 30
0.0
 40
1.1004213841485999
 50
189.3520705929975065
 51
204.9972242387648009
  0
ARC
  5
19A4C
  8
0
 10
4502.837511141385221
 20
446.2037465238954042
 30
0.0
 40
2.0734730671725421
 50
181.7916940455272083
 51
188.2767378614175016
  0
ARC
  5
19A4D
  8
0
 10
4510.4137893737188278
 20
446.5140385688378046
 30
0.0
 40
9.6560267572831684
 50
181.4696110416107899
 51
182.2264083218117889
  0
ARC
  5
19A4E
  8
0
 10
4501.5055366169726767
 20
445.9350897055505243
 30
0.0
 40
0.7306649767924942
 50
188.8830058651564059
 51
205.6269251375616989
  0
ARC
  5
19A4F
  8
0
 10
4502.1839716768054132
 20
446.0411236495046978
 30
0.0
 40
1.417336170070328
 50
178.1682789104567917
 51
188.8830058651564059
  0
ARC
  5
19A50
  8
0
 10
4501.4095895121308786
 20
445.8675190203305192
 30
0.0
 40
0.6372239657394403
 50
189.8825878278734081
 51
202.9478120154940939
  0
ARC
  5
19A51
  8
0
 10
4502.2812727541959248
 20
446.0193791411155075
 30
0.0
 40
1.522036471744475
 50
182.7102546090864053
 51
189.8825878278734081
  0
ARC
  5
19A52
  8
0
 10
4501.9497604926727945
 20
445.8740547537379939
 30
0.0
 40
1.1872009719769621
 50
182.6248301958221134
 51
192.4025005451516108
  0
ARC
  5
19A53
  8
0
 10
4511.1389968521070841
 20
446.2953261527339919
 30
0.0
 40
10.38608864718754
 50
182.2532697891680016
 51
182.6248301958221134
  0
ARC
  5
19A54
  8
0
 10
4502.3349980086595679
 20
445.820525738390927
 30
0.0
 40
1.5762834636573639
 50
183.0441275512833101
 51
187.3427212478823094
  0
ARC
  5
19A55
  8
0
 10
4500.0188264199368859
 20
447.4164083200038249
 30
0.0
 40
1.1687936361751909
 50
350.338755632999721
 51
0.670892623877232
  0
ARC
  5
19A56
  8
0
 10
4496.8132114039008229
 20
447.9355500277292776
 30
0.0
 40
4.4404229169549758
 50
349.0773116197989907
 51
353.4638159436420892
  0
ARC
  5
19A57
  8
0
 10
4498.2900529372627716
 20
447.6403484383562841
 30
0.0
 40
2.9699528829098769
 50
347.374812874351619
 51
355.9404097128979743
  0
ARC
  5
19A58
  8
0
 10
4495.4644373336441276
 20
448.2643444601632723
 30
0.0
 40
5.8846643845975679
 50
346.3943140401148071
 51
351.849897084751376
  0
ARC
  5
19A59
  8
0
 10
4493.9925939596651006
 20
448.3940527284632935
 30
0.0
 40
7.3863012857880062
 50
347.1006651538452843
 51
352.5011485434301903
  0
ARC
  5
19A5A
  8
0
 10
4495.6076708875816621
 20
448.2559285636741038
 30
0.0
 40
5.805254443173216
 50
344.296815457667492
 51
351.821562305684381
  0
ARC
  5
19A5B
  8
0
 10
4495.8708114648843548
 20
448.1438366738158834
 30
0.0
 40
5.5559833374761434
 50
343.5007300385335043
 51
352.619167752397118
  0
ARC
  5
19A5C
  8
0
 10
4496.3287433477389641
 20
448.0921956847399201
 30
0.0
 40
5.1267019616116682
 50
341.7363287213224226
 51
352.5796541087738092
  0
ARC
  5
19A5D
  8
0
 10
4496.5005597580093308
 20
447.9525422098012086
 30
0.0
 40
4.9579978499719317
 50
341.4814724809747872
 51
353.9512341579015811
  0
ARC
  5
19A5E
  8
0
 10
4496.7515791794130564
 20
447.9244040901377844
 30
0.0
 40
4.7334107206982718
 50
340.1066406221389116
 51
354.0056693710960758
  0
ARC
  5
19A5F
  8
0
 10
4496.7527013140907002
 20
447.8437001634537182
 30
0.0
 40
4.7379114701188421
 50
339.8246131208525753
 51
354.9918639292462217
  0
ARC
  5
19A60
  8
0
 10
4496.7036975412256652
 20
447.8817328191531146
 30
0.0
 40
4.8133586520831528
 50
339.0971825176209222
 51
354.6159975455012159
  0
ARC
  5
19A61
  8
0
 10
4497.0288013636609321
 20
447.7447905578952145
 30
0.0
 40
4.4906017251193777
 50
338.0751421273935762
 51
355.9814761127126985
  0
ARC
  5
19A62
  8
0
 10
4497.2521294841189956
 20
447.6868288418364727
 30
0.0
 40
4.282436682288937
 50
337.0136820771318753
 51
356.5630167441620983
  0
ARC
  5
19A63
  8
0
 10
4497.807443177533969
 20
447.5208630408425847
 30
0.0
 40
3.7309356231641759
 50
335.1087508570693103
 51
358.605923219502472
  0
ARC
  5
19A64
  8
0
 10
4497.7637386567275826
 20
447.488417345382004
 30
0.0
 40
3.7869859404818111
 50
334.510315463765096
 51
359.1175493384624815
  0
ARC
  5
19A65
  8
0
 10
4495.6161718785124322
 20
447.6249768653937053
 30
0.0
 40
5.944763679989987
 50
353.1522314958741049
 51
358.1213750748767097
  0
ARC
  5
19A66
  8
0
 10
4497.9106003075448825
 20
447.3494425412628743
 30
0.0
 40
3.6338502286177521
 50
344.2897741120298178
 51
353.1522314958741049
  0
ARC
  5
19A67
  8
0
 10
4496.4917170821590844
 20
447.9295529829979046
 30
0.0
 40
5.1597496461656016
 50
335.2046592038287258
 51
342.3545216042696779
  0
ARC
  5
19A68
  8
0
 10
4494.2307252832970335
 20
447.5187036236573022
 30
0.0
 40
7.3289197037972729
 50
355.0152330930534958
 51
359.3072518247423091
  0
ARC
  5
19A69
  8
0
 10
4498.6585346555521028
 20
447.1325066936350936
 30
0.0
 40
2.8843000456272021
 50
339.9282803041148782
 51
355.0152330930534958
  0
ARC
  5
19A6A
  8
0
 10
4496.6759157396772935
 20
447.8569327463154082
 30
0.0
 40
4.9951223667583768
 50
334.2466533962432891
 51
339.9282803041148782
  0
ARC
  5
19A6B
  8
0
 10
4491.9678569808120301
 20
447.4950609830333974
 30
0.0
 40
9.5979718643911323
 50
356.6477425980435214
 51
359.6121704662293723
  0
ARC
  5
19A6C
  8
0
 10
4498.2566099575687986
 20
447.1266986509270964
 30
0.0
 40
3.2984397539577781
 50
343.5187971561265954
 51
356.6477425980435214
  0
ARC
  5
19A6D
  8
0
 10
4497.7636089316019934
 20
447.4216620209526809
 30
0.0
 40
3.8575167989772412
 50
332.1412564910531273
 51
341.3946345145711234
  0
ARC
  5
19A6E
  8
0
 10
4496.5612250904359826
 20
447.1870294838817017
 30
0.0
 40
4.9989985270783608
 50
351.5863560803808241
 51
359.6110103225169041
  0
ARC
  5
19A6F
  8
0
 10
4499.6408430878636864
 20
446.7315216920125067
 30
0.0
 40
1.885875600090702
 50
337.0934094368666933
 51
351.5863560803808241
  0
ARC
  5
19A70
  8
0
 10
4497.1966545081959339
 20
447.657740503765126
 30
0.0
 40
4.4989003779230314
 50
333.0541258979878876
 51
338.3437981486629837
  0
ARC
  5
19A71
  8
0
 10
4492.4125925921707676
 20
447.2882263010200177
 30
0.0
 40
9.1575765433872167
 50
356.2018915032932114
 51
358.7602302867201729
  0
ARC
  5
19A72
  8
0
 10
4498.140626576005161
 20
446.9160028729331771
 30
0.0
 40
3.4174762787077539
 50
348.224300854867522
 51
356.0673552168585161
  0
ARC
  5
19A73
  8
0
 10
4499.3687479784312018
 20
446.6941074351781253
 30
0.0
 40
2.1701744647529648
 50
330.3059107977607027
 51
347.3421760882133071
  0
ARC
  5
19A74
  8
0
 10
4498.3509833730713581
 20
446.8170518583086732
 30
0.0
 40
3.2098522580474209
 50
353.4175229066610768
 51
0.8831056020580849
  0
ARC
  5
19A75
  8
0
 10
4494.973772529989219
 20
447.2067618341167758
 30
0.0
 40
6.6094738463827536
 50
350.9117917600510168
 51
353.4175229066610768
  0
ARC
  5
19A76
  8
0
 10
4499.5305798475719712
 20
446.6093177640697718
 30
0.0
 40
2.019678921713838
 50
330.6397300299345829
 51
347.226252626774226
  0
ARC
  5
19A77
  8
0
 10
4498.3092914649141676
 20
447.0280335533598191
 30
0.0
 40
3.3324104776234509
 50
334.9881261127874268
 51
339.9629481627654854
  0
ARC
  5
19A78
  8
0
 10
4499.9030647086492536
 20
446.4467800662940249
 30
0.0
 40
1.6359527656020041
 50
339.9629481627654854
 51
351.1352535432698119
  0
ARC
  5
19A79
  8
0
 10
4496.7633674129629071
 20
446.9364645341210007
 30
0.0
 40
4.8136075590894976
 50
351.1352535432698119
 51
354.6562511036744922
  0
ARC
  5
19A7A
  8
0
 10
4507.3713174069944216
 20
446.1974607600977265
 30
0.0
 40
5.8225247703694842
 50
175.3417535088499051
 51
177.1381331325846133
  0
ARC
  5
19A7B
  8
0
 10
4498.9928851674540056
 20
446.5147031861667983
 30
0.0
 40
2.5675998791980792
 50
348.7696791021144236
 51
358.9619875180114263
  0
ARC
  5
19A7C
  8
0
 10
4500.4400722902173584
 20
446.2273564592376829
 30
0.0
 40
1.0921613986883481
 50
326.1544261364597901
 51
348.7696791021144236
  0
ARC
  5
19A7D
  8
0
 10
4499.7340217210266928
 20
446.4736739887338786
 30
0.0
 40
1.863614643826937
 50
332.7049196732883729
 51
340.2182823270416065
  0
ARC
  5
19A7E
  8
0
 10
4499.6756529888643854
 20
446.361082261656918
 30
0.0
 40
1.8846304061732839
 50
344.0426552718050743
 51
355.2596482601056209
  0
ARC
  5
19A7F
  8
0
 10
4495.7986250883441244
 20
446.643248005982116
 30
0.0
 40
5.7718480660500946
 50
355.6487657818768753
 51
358.3312968069820954
  0
ARC
  5
19A80
  8
0
 10
4500.3202266259158932
 20
446.1666853939893826
 30
0.0
 40
1.233737140529922
 50
333.6491259391311246
 51
357.2261830042090764
  0
ARC
  5
19A81
  8
0
 10
4498.4624472960940693
 20
446.3627313095033173
 30
0.0
 40
3.1006365397873168
 50
355.2686828666418251
 51
359.7800620133039047
  0
ARC
  5
19A82
  8
0
 10
4500.4575344095346736
 20
446.0840800164576763
 30
0.0
 40
1.1004213841485999
 50
335.0027757612352275
 51
350.6479294070023798
  0
ARC
  5
19A83
  8
0
 10
4499.4914530524565635
 20
446.2037465238954042
 30
0.0
 40
2.0734730671725421
 50
351.7232621385825269
 51
358.208305954472678
  0
ARC
  5
19A84
  8
0
 10
4491.9151748201238661
 20
446.5140385688378046
 30
0.0
 40
9.6560267572831684
 50
357.7735916781882111
 51
358.5303889583892101
  0
ARC
  5
19A85
  8
0
 10
4500.8234275768691077
 20
445.9350897055505243
 30
0.0
 40
0.7306649767924942
 50
334.3730748624382727
 51
351.1169941348434804
  0
ARC
  5
19A86
  8
0
 10
4500.1449925170381903
 20
446.0411236495046978
 30
0.0
 40
1.417336170070328
 50
351.1169941348434804
 51
1.831721089543203
  0
ARC
  5
19A87
  8
0
 10
4500.9193746817118154
 20
445.8675190203305192
 30
0.0
 40
0.6372239657394403
 50
337.0521879845059061
 51
350.1174121721264783
  0
ARC
  5
19A88
  8
0
 10
4500.0476914396458596
 20
446.0193791411155075
 30
0.0
 40
1.522036471744475
 50
350.1174121721264783
 51
357.2897453909135947
  0
ARC
  5
19A89
  8
0
 10
4500.3792037011689899
 20
445.8740547537379939
 30
0.0
 40
1.1872009719769621
 50
347.5974994548482755
 51
357.375169804177915
  0
ARC
  5
19A8A
  8
0
 10
4491.1899673417347003
 20
446.2953261527339919
 30
0.0
 40
10.38608864718754
 50
357.375169804177915
 51
357.7467302108320268
  0
ARC
  5
19A8B
  8
0
 10
4499.9939661851831261
 20
445.820525738390927
 30
0.0
 40
1.5762834636573639
 50
352.6572787521175769
 51
356.9558724487166046
  0
ARC
  5
19A8C
  8
0
 10
4501.164482096921347
 20
447.2209993847216083
 30
0.0
 40
0.0066029228424679
 50
186.4439099539588085
 51
353.5560900460412199
  0
ARC
  5
19A8D
  8
0
 10
4501.164482096921347
 20
447.0936790165353045
 30
0.0
 40
0.0087216983404442
 50
176.8404399079462053
 51
3.159560092043967
  0
ARC
  5
19A8E
  8
0
 10
4501.164482096921347
 20
446.995272845316606
 30
0.0
 40
0.0240599216613606
 50
189.7478268259627043
 51
350.252173174037182
  0
ARC
  5
19A8F
  8
0
 10
4501.164482096921347
 20
446.8847847689827972
 30
0.0
 40
0.0200505805279063
 50
193.6752658814619963
 51
346.3247341185443133
  0
ARC
  5
19A90
  8
0
 10
4501.164482096921347
 20
446.7552035772686736
 30
0.0
 40
0.0297625596514375
 50
199.755352651510492
 51
340.2446473484832836
  0
ARC
  5
19A91
  8
0
 10
4501.164482096921347
 20
446.6918919817371147
 30
0.0
 40
0.0325728580369534
 50
192.7314848420820113
 51
347.2685151579178751
  0
ARC
  5
19A92
  8
0
 10
4501.164482096921347
 20
446.5721160347960108
 30
0.0
 40
0.0341035195904982
 50
190.4677660596252906
 51
349.5322339403779779
  0
ARC
  5
19A93
  8
0
 10
4501.164482096921347
 20
446.4921538304387809
 30
0.0
 40
0.0333651944335054
 50
191.4393652766642049
 51
348.5606347233357951
  0
ARC
  5
19A94
  8
0
 10
4501.164482096921347
 20
446.3889301381665859
 30
0.0
 40
0.0389707758931349
 50
196.5548271011928136
 51
343.4451728988070727
  0
ARC
  5
19A95
  8
0
 10
4501.164482096921347
 20
446.3302010135839737
 30
0.0
 40
0.041451987065474
 50
203.3619135362172869
 51
336.6380864637766877
  0
ARC
  5
19A96
  8
0
 10
4501.164482096921347
 20
446.2202331026797992
 30
0.0
 40
0.036974913500995
 50
196.6835466655111873
 51
343.3164533344855727
  0
ARC
  5
19A97
  8
0
 10
4501.164482096921347
 20
446.1782746425678283
 30
0.0
 40
0.0383859627549854
 50
201.1833027808692123
 51
338.8166972191277182
  0
ARC
  5
19A98
  8
0
 10
4501.164482096921347
 20
446.079979790939376
 30
0.0
 40
0.0324131279525784
 50
201.6080781442734917
 51
338.3919218557264799
  0
ARC
  5
19A99
  8
0
 10
4501.164482096921347
 20
446.0291028191880969
 30
0.0
 40
0.0334156382432009
 50
205.9341179384412044
 51
334.0658820615589093
  0
ARC
  5
19A9A
  8
0
 10
4501.164482096921347
 20
445.9556564964559016
 30
0.0
 40
0.0278019443204809
 50
190.6416953136825043
 51
349.3583046863175241
  0
ARC
  5
19A9B
  8
0
 10
4501.164482096921347
 20
445.8693042108358782
 30
0.0
 40
0.0205750188756607
 50
211.0455100210062938
 51
328.9544899789937062
  0
ARC
  5
19A9C
  8
0
 10
4501.164482096921347
 20
445.7704878150067884
 30
0.0
 40
0.0122999506766483
 50
203.0794599918257006
 51
336.9205400081742141
  0
ARC
  5
19A9D
  8
0
 10
4501.164482096921347
 20
445.6929166690904935
 30
0.0
 40
0.012191485952348
 50
211.4112814518734069
 51
328.5887185480800099
  0
ENDSEC
  0
EOF
