  0
SECTION
  2
HEADER
  9
$ACADVER
  1
AC1009
  9
$INSBASE
 10
4510.1546395772721
 20
448.04032996581219
 30
0.0
  9
$EXTMIN
 10
4500.0236159551214
 20
444.6348181923122
 30
0.0
  9
$EXTMAX
 10
4520.2856631994209
 20
448.04466362479133
 30
0.0
  9
$LIMMIN
 10
0.0
 20
0.0
  9
$LIMMAX
 10
11.692913385800001
 20
8.2677165353999982
  9
$ORTHOMODE
 70
     0
  9
$REGENMODE
 70
     1
  9
$FILLMODE
 70
     1
  9
$QTEXTMODE
 70
     0
  9
$MIRRTEXT
 70
     0
  9
$DRAGMODE
 70
     2
  9
$LTSCALE
 40
0.6431102362
  9
$OSMODE
 70
    19
  9
$ATTMODE
 70
     1
  9
$TEXTSIZE
 40
0.2
  9
$TRACEWID
 40
0.05
  9
$TEXTSTYLE
  7
STANDARD
  9
$CLAYER
  8
0
  9
$CELTYPE
  6
BYLAYER
  9
$CECOLOR
 62
   256
  9
$DIMSCALE
 40
1.0
  9
$DIMASZ
 40
0.1875
  9
$DIMEXO
 40
0.0625
  9
$DIMDLI
 40
0.4443307087
  9
$DIMRND
 40
0.0
  9
$DIMDLE
 40
0.0
  9
$DIMEXE
 40
0.125
  9
$DIMTP
 40
0.01
  9
$DIMTM
 40
0.01
  9
$DIMTXT
 40
2.0
  9
$DIMCEN
 40
0.1052362205
  9
$DIMTSZ
 40
0.0
  9
$DIMTOL
 70
     1
  9
$DIMLIM
 70
     0
  9
$DIMTIH
 70
     1
  9
$DIMTOH
 70
     1
  9
$DIMSE1
 70
     0
  9
$DIMSE2
 70
     0
  9
$DIMTAD
 70
     0
  9
$DIMZIN
 70
     0
  9
$DIMBLK
  1

  9
$DIMASO
 70
     1
  9
$DIMSHO
 70
     1
  9
$DIMPOST
  1
\X
  9
$DIMAPOST
  1

  9
$DIMALT
 70
     1
  9
$DIMALTD
 70
     2
  9
$DIMALTF
 40
25.399999999999999
  9
$DIMLFAC
 40
1.0
  9
$DIMTOFL
 70
     0
  9
$DIMTVP
 40
0.0
  9
$DIMTIX
 70
     0
  9
$DIMSOXD
 70
     0
  9
$DIMSAH
 70
     0
  9
$DIMBLK1
  1

  9
$DIMBLK2
  1

  9
$DIMSTYLE
  2
STANDARD
  9
$DIMCLRD
 70
     0
  9
$DIMCLRE
 70
     0
  9
$DIMCLRT
 70
     0
  9
$DIMTFAC
 40
1.0
  9
$DIMGAP
 40
0.09
  9
$LUNITS
 70
     2
  9
$LUPREC
 70
     4
  9
$SKETCHINC
 40
0.1
  9
$FILLETRAD
 40
0.0
  9
$AUNITS
 70
     0
  9
$AUPREC
 70
     0
  9
$MENU
  1
.
  9
$ELEVATION
 40
0.0
  9
$PELEVATION
 40
0.0
  9
$THICKNESS
 40
0.0
  9
$LIMCHECK
 70
     0
  9
$BLIPMODE
 70
     0
  9
$CHAMFERA
 40
0.0
  9
$CHAMFERB
 40
0.0
  9
$SKPOLY
 70
     0
  9
$TDCREATE
 40
2458060.4683680669
  9
$TDUPDATE
 40
2459298.8959603128
  9
$TDINDWG
 40
1.5251857638999999
  9
$TDUSRTIMER
 40
1.5251857638999999
  9
$USRTIMER
 70
     1
  9
$ANGBASE
 50
0.0
  9
$ANGDIR
 70
     0
  9
$PDMODE
 70
     0
  9
$PDSIZE
 40
0.3125
  9
$PLINEWID
 40
0.0
  9
$COORDS
 70
     1
  9
$SPLFRAME
 70
     0
  9
$SPLINETYPE
 70
     6
  9
$SPLINESEGS
 70
     8
  9
$ATTDIA
 70
     1
  9
$ATTREQ
 70
     1
  9
$HANDLING
 70
     1
  9
$HANDSEED
  5
19B63
  9
$SURFTAB1
 70
     6
  9
$SURFTAB2
 70
     6
  9
$SURFTYPE
 70
     6
  9
$SURFU
 70
     6
  9
$SURFV
 70
     6
  9
$UCSNAME
  2

  9
$UCSORG
 10
0.0
 20
0.0
 30
0.0
  9
$UCSXDIR
 10
1.0
 20
0.0
 30
0.0
  9
$UCSYDIR
 10
0.0
 20
1.0
 30
0.0
  9
$PUCSNAME
  2

  9
$PUCSORG
 10
0.0
 20
0.0
 30
0.0
  9
$PUCSXDIR
 10
1.0
 20
0.0
 30
0.0
  9
$PUCSYDIR
 10
0.0
 20
1.0
 30
0.0
  9
$USERI1
 70
     0
  9
$USERI2
 70
     0
  9
$USERI3
 70
     0
  9
$USERI4
 70
     0
  9
$USERI5
 70
     0
  9
$USERR1
 40
0.0
  9
$USERR2
 40
0.0
  9
$USERR3
 40
0.0
  9
$USERR4
 40
0.0
  9
$USERR5
 40
0.0
  9
$WORLDVIEW
 70
     1
  9
$SHADEDGE
 70
     3
  9
$SHADEDIF
 70
    70
  9
$TILEMODE
 70
     1
  9
$MAXACTVP
 70
    64
  9
$PLIMCHECK
 70
     0
  9
$PEXTMIN
 10
1.0000000000000000E+020
 20
1.0000000000000000E+020
 30
1.0000000000000000E+020
  9
$PEXTMAX
 10
-1.0000000000000000E+020
 20
-1.0000000000000000E+020
 30
-1.0000000000000000E+020
  9
$PLIMMIN
 10
0.0
 20
0.0
  9
$PLIMMAX
 10
12.0
 20
9.0
  9
$UNITMODE
 70
     0
  9
$VISRETAIN
 70
     1
  9
$PLINEGEN
 70
     0
  9
$PSLTSCALE
 70
     1
  0
ENDSEC
  0
SECTION
  2
TABLES
  0
TABLE
  2
VPORT
 70
     1
  0
VPORT
  2
*ACTIVE
 70
     0
 10
0.0
 20
0.0
 11
1.0
 21
1.0
 12
598.89618893288377
 22
313.7706094635011
 13
0.0
 23
0.0
 14
1.0
 24
1.0
 15
0.0
 25
0.0
 16
0.0
 26
0.0
 36
60.496018696580158
 17
3911.365356445312
 27
132.57960510253901
 37
0.0
 40
10.56183439215827
 41
1.969162995594713
 42
50.0
 43
0.0
 44
0.0
 50
0.0
 51
0.0
 71
     0
 72
   100
 73
     1
 74
     1
 75
     0
 76
     0
 77
     0
 78
     0
  0
ENDTAB
  0
TABLE
  2
LTYPE
 70
     2
  0
LTYPE
  2
CONTINUOUS
 70
     0
  3
Solid line
 72
    65
 73
     0
 40
0.0
  0
LTYPE
  2
PHANTOM2
 70
     0
  3
___ _ _ ___ _ _ ___ _ _ ___ _ _
 72
    65
 73
     6
 40
1.25
 49
0.625
 49
-0.125
 49
0.125
 49
-0.125
 49
0.125
 49
-0.125
  0
ENDTAB
  0
TABLE
  2
LAYER
 70
     2
  0
LAYER
  2
0
 70
     0
 62
   255
  6
CONTINUOUS
  0
LAYER
  2
DEFPOINTS
 70
     0
 62
     7
  6
CONTINUOUS
  0
ENDTAB
  0
TABLE
  2
STYLE
 70
     1
  0
STYLE
  2
STANDARD
 70
     0
 40
0.0
 41
0.8
 50
0.0
 71
     0
 42
0.2
  3
txt
  4

  0
ENDTAB
  0
TABLE
  2
VIEW
 70
     0
  0
ENDTAB
  0
TABLE
  2
UCS
 70
     0
  0
ENDTAB
  0
TABLE
  2
APPID
 70
    11
  0
APPID
  2
ACAD
 70
     0
  0
APPID
  2
ACAD_MLEADERVER
 70
     0
  0
APPID
  2
ACAD_EXEMPT_FROM_CAD_STANDARDS
 70
     0
  0
APPID
  2
ACAD_NAV_VCDISPLAY
 70
     0
  0
APPID
  2
ACAECLAYERSTANDARD
 70
     0
  0
APPID
  2
ACCMTRANSPARENCY
 70
     0
  0
APPID
  2
ACAD_DSTYLE_DIMJAG
 70
     0
  0
APPID
  2
ACAD_DSTYLE_DIMTALN
 70
     0
  0
APPID
  2
ACDBATTR
 70
     0
  0
APPID
  2
ACADANNOTATIVE
 70
     0
  0
APPID
  2
DCO15
 70
     0
  0
ENDTAB
  0
TABLE
  2
DIMSTYLE
 70
     1
  0
DIMSTYLE
  2
STANDARD
 70
     0
  3

  4

  5

  6

  7

 40
1.0
 41
0.1875
 42
0.0625
 43
0.38
 44
0.125
 45
0.0
 46
0.0
 47
0.01
 48
0.01
140
0.15625
141
0.09
142
0.0
143
25.399999999999999
144
1.0
145
0.0
146
1.0
147
0.09
 71
     1
 72
     0
 73
     1
 74
     1
 75
     0
 76
     0
 77
     0
 78
     4
170
     0
171
     2
172
     0
173
     0
174
     0
175
     0
176
     0
177
     0
178
     0
  0
ENDTAB
  0
ENDSEC
  0
SECTION
  2
BLOCKS
  0
BLOCK
  8
0
  2
$MODEL_SPACE
 70
     0
 10
0.0
 20
0.0
 30
0.0
  3
$MODEL_SPACE
  1

  0
ENDBLK
  5
21
  8
0
  0
BLOCK
 67
     1
  8
0
  2
$PAPER_SPACE
 70
     0
 10
0.0
 20
0.0
 30
0.0
  3
$PAPER_SPACE
  1

  0
ENDBLK
  5
1D
 67
     1
  8
0
  0
ENDSEC
  0
SECTION
  2
ENTITIES
  0
ATTDEF
  5
194DB
  8
DEFPOINTS
 10
4510.1546437941106
 20
448.04366362479129
 30
0.0
 40
0.001
  1
P24933-SNW
  3

  2
MODELNUMBER
 70
     0
1001
ACDBATTR
1070
     0
1070
     1
  0
ATTDEF
  5
194DC
  8
DEFPOINTS
 10
4510.1546437941106
 20
448.04199678441222
 30
0.0
 40
0.001
  1
PINNA PALETTA
  3

  2
TRADENAME
 70
     0
1001
ACDBATTR
1070
     0
1070
     1
  0
ATTDEF
  5
194DD
  8
DEFPOINTS
 10
4510.1546437941106
 20
448.04033029145802
 30
0.0
 40
0.001
  1
TOWEL BAR
  3

  2
PRODUCT
 70
     0
1001
ACDBATTR
1070
     0
1070
     1
  0
LINE
  5
1993F
  8
0
 10
4520.1826317033128
 20
448.04032996581219
 30
0.0
 11
4518.1069624119291
 21
448.04032996581219
 31
0.0
  0
LINE
  5
19940
  8
0
 10
4520.2656631994123
 20
448.01432996581218
 30
0.0
 11
4518.0239309158314
 21
448.01432996581218
 31
0.0
  0
LINE
  5
19941
  8
0
 10
4520.1696633452493
 20
447.62732996581218
 30
0.0
 11
4518.1199307699944
 21
447.62732996581218
 31
0.0
  0
LINE
  5
19942
  8
0
 10
4519.9322726289456
 20
447.43009374531221
 30
0.0
 11
4518.3573214862972
 21
447.43009374531221
 31
0.0
  0
LINE
  5
19943
  8
0
 10
4518.6231392594982
 20
445.44190480651218
 30
0.0
 11
4517.8062143804264
 21
445.44190480651218
 31
0.0
  0
LINE
  5
19944
  8
0
 10
4519.4302258737689
 20
444.6348181923122
 30
0.0
 11
4517.8062143804264
 21
444.6348181923122
 31
0.0
  0
LINE
  5
19945
  8
0
 10
4517.7865293410214
 20
445.42221976710118
 30
0.0
 11
4517.7865293410214
 21
444.6545032317232
 31
0.0
  0
LINE
  5
19946
  8
0
 10
4519.5483403647213
 20
444.75293268326448
 30
0.0
 11
4519.5483403647213
 21
445.59938512160198
 31
0.0
  0
LINE
  5
19947
  8
0
 10
4519.5483403647213
 20
445.61907016081233
 30
0.0
 11
4518.7412537506207
 21
445.61907016081233
 31
0.0
  0
LINE
  5
19948
  8
0
 10
4520.2856631993218
 20
447.99432996580811
 30
0.0
 11
4520.2856631993218
 21
447.73460256026692
 31
0.0
  0
LINE
  5
19949
  8
0
 10
4518.003930915922
 20
447.73460256026692
 30
0.0
 11
4518.003930915922
 21
447.99432996580811
 31
0.0
  0
LINE
  5
1994A
  8
0
 10
4518.7412537506207
 20
445.59938512160198
 30
0.0
 11
4518.7412537506207
 21
445.56001929763522
 31
0.0
  0
LINE
  5
1994B
  8
0
 10
4520.2791166553216
 20
447.71980375891218
 30
0.0
 11
4520.1831168012213
 21
447.63253116431218
 31
0.0
  0
ARC
  5
1994C
  8
0
 10
4517.8062143804218
 20
445.42221976711221
 30
0.0
 40
0.0196850393999935
 50
89.999999986711899
 51
180.00000003203471
  0
ARC
  5
1994D
  8
0
 10
4518.6231392596828
 20
445.56001929745008
 30
0.0
 40
0.1181144909379519
 50
269.99999991026618
 51
0.0000000897533193
  0
ARC
  5
1994E
  8
0
 10
4519.4302258739544
 20
444.75293268307951
 30
0.0
 40
0.1181144907672387
 50
269.99999991026618
 51
0.0000000897435487
  0
ARC
  5
1994F
  8
0
 10
4517.8062143804218
 20
444.65450323171223
 30
0.0
 40
0.0196850393999917
 50
179.99999996796521
 51
270.00000001328812
  0
ARC
  5
19950
  8
0
 10
4520.1826317033219
 20
448.02032996581221
 30
0.0
 40
0.0199999999999978
 50
359.99999999998369
 51
90.000000022094724
  0
LINE
  5
19951
  8
0
 10
4520.2026317033205
 20
448.02032996581221
 30
0.0
 11
4520.2026317033205
 21
448.01432996581218
 31
0.0
  0
ARC
  5
19952
  8
0
 10
4520.2656631994923
 20
447.9943299659829
 30
0.0
 40
0.0199999998292846
 50
359.99999949928929
 51
90.000000230744007
  0
ARC
  5
19953
  8
0
 10
4520.265663199636
 20
447.73460256026692
 30
0.0
 40
0.0199999997850446
 50
312.27368881140171
 51
0.000000130122446
  0
ARC
  5
19954
  8
0
 10
4520.1696633452702
 20
447.64732996608899
 30
0.0
 40
0.0200000002767755
 50
269.99999993830153
 51
312.27368856293458
  0
ARC
  5
19955
  8
0
 10
4520.0392970576204
 20
447.6073299658122
 30
0.0
 40
0.0199999999999978
 50
90.0
 51
180.00000000000651
  0
LINE
  5
19956
  8
0
 10
4520.0192970576209
 20
447.6073299658122
 30
0.0
 11
4520.0192970576209
 21
447.51711817406073
 31
0.0
  0
ARC
  5
19957
  8
0
 10
4519.9992970573767
 20
447.51711817406073
 30
0.0
 40
0.0200000002440268
 50
315.0000005985666
 51
359.99999986094718
  0
LINE
  5
19958
  8
0
 10
4520.0134391933216
 20
447.50297603841221
 30
0.0
 11
4519.9464147645213
 21
447.43595160971228
 31
0.0
  0
ARC
  5
19959
  8
0
 10
4519.9322726289656
 20
447.45009374509181
 30
0.0
 40
0.0199999997795537
 50
269.99999994679553
 51
315.00000035773382
  0
LINE
  5
1995A
  8
0
 10
4518.0104774599213
 20
447.71980375891218
 30
0.0
 11
4518.1064773140206
 21
447.63253116431218
 31
0.0
  0
ARC
  5
1995B
  8
0
 10
4518.1069624119218
 20
448.02032996581221
 30
0.0
 40
0.019999999999996
 50
89.999999977905276
 51
180.00000000000981
  0
LINE
  5
1995C
  8
0
 10
4518.0869624119214
 20
448.02032996581221
 30
0.0
 11
4518.0869624119214
 21
448.01432996581218
 31
0.0
  0
ARC
  5
1995D
  8
0
 10
4518.0239309158223
 20
447.9943299658122
 30
0.0
 40
0.0199999999999978
 50
89.999999971860504
 51
180.00000000000651
  0
ARC
  5
1995E
  8
0
 10
4518.0239309156068
 20
447.73460256026692
 30
0.0
 40
0.0199999997850446
 50
179.99999986987751
 51
227.72631118859829
  0
ARC
  5
1995F
  8
0
 10
4518.1199307699726
 20
447.64732996608899
 30
0.0
 40
0.0200000002767839
 50
227.7263114371126
 51
270.00000006169847
  0
ARC
  5
19960
  8
0
 10
4518.2502970576224
 20
447.6073299658122
 30
0.0
 40
0.0199999999999978
 50
359.99999999999352
 51
90.0
  0
LINE
  5
19961
  8
0
 10
4518.270297057622
 20
447.6073299658122
 30
0.0
 11
4518.270297057622
 21
447.51711817406073
 31
0.0
  0
ARC
  5
19962
  8
0
 10
4518.2902970578652
 20
447.51711817406073
 30
0.0
 40
0.0200000002440268
 50
180.00000013905279
 51
224.9999994014334
  0
LINE
  5
19963
  8
0
 10
4518.2761549219213
 20
447.50297603841221
 30
0.0
 11
4518.3431793507207
 21
447.43595160971228
 31
0.0
  0
ARC
  5
19964
  8
0
 10
4518.3573214862781
 20
447.45009374509181
 30
0.0
 40
0.0199999997795547
 50
224.9999996422662
 51
270.00000005320447
  0
ARC
  5
19965
  8
0
 10
4519.5286553255219
 20
445.59938512160198
 30
0.0
 40
0.0196850391985143
 50
359.99999944737777
 51
90.0
  0
ARC
  5
19966
  8
0
 10
4518.7609387898201
 20
445.59938512160198
 30
0.0
 40
0.0196850391985158
 50
90.0
 51
180.00000055261901
  0
LINE
  5
19967
  8
0
 10
4518.2761549219213
 20
447.50297603841221
 30
0.0
 11
4520.0134391932206
 21
447.50297603841221
 31
0.0
  0
LINE
  5
19968
  8
0
 10
4520.2791166552206
 20
447.71980375891218
 30
0.0
 11
4518.0104774599213
 21
447.71980375891218
 31
0.0
  0
LINE
  5
19969
  8
0
 10
4517.7665275810459
 20
445.44190480651218
 30
0.0
 11
4502.5427515734964
 21
445.44190480651218
 31
0.0
  0
LINE
  5
1996A
  8
0
 10
4517.7665275810459
 20
444.6348181923122
 30
0.0
 11
4502.5427515734982
 21
444.6348181923122
 31
0.0
  0
ARC
  5
1996B
  8
0
 10
4517.7665275733198
 20
445.4219004907643
 30
0.0
 40
0.0200043157479142
 50
0.9145008292930285
 51
89.999977872546637
  0
ARC
  5
1996C
  8
0
 10
4517.7665275733207
 20
444.65482250805962
 30
0.0
 40
0.0200043157474103
 50
270.00002212417041
 51
359.08549917215612
  0
LINE
  5
1996E
  8
0
 10
4519.5483403647213
 20
445.61907016081233
 30
0.0
 11
4519.5483403647213
 21
447.43009374531221
 31
0.0
  0
LINE
  5
1996F
  8
0
 10
4518.7412537506207
 20
447.43009374531221
 30
0.0
 11
4518.7412537506207
 21
445.61907016081233
 31
0.0
  0
ARC
  5
19970
  8
0
 10
4517.9991413806374
 20
447.41640832000382
 30
0.0
 40
1.1687936361751909
 50
350.33875563299972
 51
0.6708926238739752
  0
ARC
  5
19971
  8
0
 10
4514.7935263646004
 20
447.93555002772928
 30
0.0
 40
4.4404229169549758
 50
349.07731161979899
 51
353.46381594364209
  0
ARC
  5
19972
  8
0
 10
4516.2703678979633
 20
447.64034843835628
 30
0.0
 40
2.9699528829098769
 50
347.37481287435162
 51
355.94040971289797
  0
ARC
  5
19973
  8
0
 10
4513.4447522943437
 20
448.26434446016327
 30
0.0
 40
5.8846643845975679
 50
346.39431404011481
 51
351.84989708475138
  0
ARC
  5
19974
  8
0
 10
4511.9729089203647
 20
448.39405272846329
 30
0.0
 40
7.3863012857880062
 50
347.10066515384528
 51
352.50114854343019
  0
ARC
  5
19975
  8
0
 10
4513.5879858482813
 20
448.2559285636741
 30
0.0
 40
5.805254443173216
 50
344.29681545766749
 51
351.82156230568438
  0
ARC
  5
19976
  8
0
 10
4513.851126425584
 20
448.14383667381588
 30
0.0
 40
5.5559833374761434
 50
343.5007300385335
 51
352.61916775239712
  0
ARC
  5
19977
  8
0
 10
4514.3090583084377
 20
448.09219568473992
 30
0.0
 40
5.1267019616116682
 50
341.73632872132242
 51
352.57965410877381
  0
ARC
  5
19978
  8
0
 10
4514.4808747187089
 20
447.95254220980121
 30
0.0
 40
4.9579978499719317
 50
341.48147248097479
 51
353.95123415790158
  0
ARC
  5
19979
  8
0
 10
4514.7318941401118
 20
447.92440409013778
 30
0.0
 40
4.7334107206982718
 50
340.10664062213891
 51
354.00566937109608
  0
ARC
  5
1997A
  8
0
 10
4514.7330162747912
 20
447.84370016345372
 30
0.0
 40
4.7379114701188421
 50
339.82461312085258
 51
354.99186392924622
  0
ARC
  5
1997B
  8
0
 10
4514.6840125019271
 20
447.88173281915311
 30
0.0
 40
4.8133586520831528
 50
339.09718251762092
 51
354.61599754550122
  0
ARC
  5
1997C
  8
0
 10
4515.0091163243605
 20
447.74479055789521
 30
0.0
 40
4.4906017251193777
 50
338.07514212739358
 51
355.9814761127127
  0
ARC
  5
1997D
  8
0
 10
4515.2324444448177
 20
447.68682884183647
 30
0.0
 40
4.282436682288937
 50
337.01368207713188
 51
356.5630167441621
  0
ARC
  5
1997E
  8
0
 10
4515.7877581382336
 20
447.52086304084258
 30
0.0
 40
3.7309356231641759
 50
335.10875085706931
 51
358.60592321950247
  0
ARC
  5
1997F
  8
0
 10
4515.7440536174281
 20
447.488417345382
 30
0.0
 40
3.7869859404818111
 50
334.5103154637651
 51
359.11754933846248
  0
ARC
  5
19980
  8
0
 10
4513.5964868392111
 20
447.62497686539371
 30
0.0
 40
5.944763679989987
 50
353.1522314958741
 51
358.12137507487671
  0
ARC
  5
19981
  8
0
 10
4515.8909152682454
 20
447.34944254126287
 30
0.0
 40
3.6338502286177521
 50
344.28977411202982
 51
353.1522314958741
  0
ARC
  5
19982
  8
0
 10
4514.4720320428587
 20
447.9295529829979
 30
0.0
 40
5.1597496461656016
 50
335.20465920382873
 51
342.35452160426968
  0
ARC
  5
19983
  8
0
 10
4512.2110402439957
 20
447.5187036236573
 30
0.0
 40
7.3289197037972729
 50
355.0152330930535
 51
359.30725182474231
  0
ARC
  5
19984
  8
0
 10
4516.6388496162517
 20
447.13250669363509
 30
0.0
 40
2.8843000456272021
 50
339.92828030411488
 51
355.0152330930535
  0
ARC
  5
19985
  8
0
 10
4514.6562307003769
 20
447.85693274631541
 30
0.0
 40
4.9951223667583768
 50
334.24665339624329
 51
339.92828030411488
  0
ARC
  5
19986
  8
0
 10
4509.9481719415116
 20
447.4950609830334
 30
0.0
 40
9.5979718643911323
 50
356.64774259804352
 51
359.61217046622937
  0
ARC
  5
19987
  8
0
 10
4516.2369249182702
 20
447.1266986509271
 30
0.0
 40
3.2984397539577781
 50
343.5187971561266
 51
356.64774259804352
  0
ARC
  5
19988
  8
0
 10
4515.7439238923034
 20
447.42166202095268
 30
0.0
 40
3.8575167989772412
 50
332.14125649105313
 51
341.39463451457112
  0
ARC
  5
19989
  8
0
 10
4514.5415400511356
 20
447.1870294838817
 30
0.0
 40
4.9989985270783608
 50
351.58635608038082
 51
359.6110103225169
  0
ARC
  5
1998A
  8
0
 10
4517.6211580485642
 20
446.73152169201251
 30
0.0
 40
1.885875600090702
 50
337.09340943686669
 51
351.58635608038082
  0
ARC
  5
1998B
  8
0
 10
4515.1769694688946
 20
447.65774050376513
 30
0.0
 40
4.4989003779230314
 50
333.05412589798789
 51
338.34379814866298
  0
ARC
  5
1998C
  8
0
 10
4510.3929075528722
 20
447.28822630102002
 30
0.0
 40
9.1575765433872167
 50
356.20189150329321
 51
358.76023028672017
  0
ARC
  5
1998D
  8
0
 10
4516.1209415367057
 20
446.91600287293318
 30
0.0
 40
3.4174762787077539
 50
348.22430085486752
 51
356.06735521685852
  0
ARC
  5
1998E
  8
0
 10
4517.3490629391308
 20
446.69410743517813
 30
0.0
 40
2.1701744647529648
 50
330.3059107977607
 51
347.34217608821331
  0
ARC
  5
1998F
  8
0
 10
4516.3312983337719
 20
446.81705185830867
 30
0.0
 40
3.2098522580474209
 50
353.41752290666108
 51
0.8831056020580849
  0
ARC
  5
19990
  8
0
 10
4512.9540874906888
 20
447.20676183411678
 30
0.0
 40
6.6094738463827536
 50
350.91179176005102
 51
353.41752290666108
  0
ARC
  5
19991
  8
0
 10
4517.5108948082716
 20
446.60931776406977
 30
0.0
 40
2.019678921713838
 50
330.63973002993458
 51
347.22625262677423
  0
ARC
  5
19992
  8
0
 10
4516.2896064256138
 20
447.02803355335982
 30
0.0
 40
3.3324104776234509
 50
334.98812611278743
 51
339.96294816276549
  0
ARC
  5
19993
  8
0
 10
4517.8833796693507
 20
446.44678006629402
 30
0.0
 40
1.6359527656020041
 50
339.96294816276549
 51
351.13525354326981
  0
ARC
  5
19994
  8
0
 10
4514.7436823736634
 20
446.936464534121
 30
0.0
 40
4.8136075590894976
 50
351.13525354326981
 51
354.65625110367449
  0
ARC
  5
19995
  8
0
 10
4525.3516323676931
 20
446.19746076009773
 30
0.0
 40
5.8225247703694842
 50
175.34175350884991
 51
177.13813313258461
  0
ARC
  5
19996
  8
0
 10
4516.9732001281554
 20
446.5147031861668
 30
0.0
 40
2.5675998791980792
 50
348.76967910211442
 51
358.96198751801143
  0
ARC
  5
19997
  8
0
 10
4518.4203872509179
 20
446.22735645923768
 30
0.0
 40
1.0921613986883481
 50
326.15442613645979
 51
348.76967910211442
  0
ARC
  5
19998
  8
0
 10
4517.7143366817281
 20
446.47367398873388
 30
0.0
 40
1.863614643826937
 50
332.70491967328837
 51
340.21828232704161
  0
ARC
  5
19999
  8
0
 10
4517.655967949564
 20
446.36108226165692
 30
0.0
 40
1.8846304061732839
 50
344.04265527180507
 51
355.25964826010562
  0
ARC
  5
1999A
  8
0
 10
4513.7789400490437
 20
446.64324800598212
 30
0.0
 40
5.7718480660500946
 50
355.64876578187688
 51
358.3312968069821
  0
ARC
  5
1999B
  8
0
 10
4518.3005415866164
 20
446.16668539398938
 30
0.0
 40
1.233737140529922
 50
333.64912593913112
 51
357.22618300420908
  0
ARC
  5
1999C
  8
0
 10
4516.4427622567946
 20
446.36273130950332
 30
0.0
 40
3.1006365397873168
 50
355.26868286664183
 51
359.7800620133039
  0
ARC
  5
1999D
  8
0
 10
4518.4378493702352
 20
446.08408001645768
 30
0.0
 40
1.1004213841485999
 50
335.00277576123523
 51
350.64792940700238
  0
ARC
  5
1999E
  8
0
 10
4517.471768013158
 20
446.2037465238954
 30
0.0
 40
2.0734730671725421
 50
351.72326213858253
 51
358.20830595447268
  0
ARC
  5
1999F
  8
0
 10
4509.8954897808244
 20
446.5140385688378
 30
0.0
 40
9.6560267572831684
 50
357.77359167818821
 51
358.53038895838921
  0
ARC
  5
199A0
  8
0
 10
4518.8037425375696
 20
445.93508970555052
 30
0.0
 40
0.7306649767924942
 50
334.37307486243827
 51
351.11699413484348
  0
ARC
  5
199A1
  8
0
 10
4518.1253074777378
 20
446.0411236495047
 30
0.0
 40
1.417336170070328
 50
351.11699413484348
 51
1.831721089543203
  0
ARC
  5
199A2
  8
0
 10
4518.8996896424123
 20
445.86751902033052
 30
0.0
 40
0.6372239657394403
 50
337.05218798450591
 51
350.11741217212648
  0
ARC
  5
199A3
  8
0
 10
4518.0280064003473
 20
446.01937914111551
 30
0.0
 40
1.522036471744475
 50
350.11741217212648
 51
357.28974539091359
  0
ARC
  5
199A4
  8
0
 10
4518.3595186618704
 20
445.87405475373799
 30
0.0
 40
1.1872009719769621
 50
347.59749945484828
 51
357.37516980417792
  0
ARC
  5
199A5
  8
0
 10
4509.1702823024361
 20
446.29532615273399
 30
0.0
 40
10.38608864718754
 50
357.37516980417792
 51
357.74673021083203
  0
ARC
  5
199A6
  8
0
 10
4517.9742811458827
 20
445.82052573839093
 30
0.0
 40
1.5762834636573639
 50
352.65727875211758
 51
356.9558724487166
  0
ARC
  5
199A7
  8
0
 10
4520.2904527346063
 20
447.41640832000382
 30
0.0
 40
1.1687936361751909
 50
179.32910737612281
 51
189.66124436700031
  0
ARC
  5
199A8
  8
0
 10
4523.4960677506424
 20
447.93555002772928
 30
0.0
 40
4.4404229169549758
 50
186.53618405635791
 51
190.92268838020101
  0
ARC
  5
199A9
  8
0
 10
4522.0192262172786
 20
447.64034843835628
 30
0.0
 40
2.9699528829098769
 50
184.05959028710191
 51
192.62518712564841
  0
ARC
  5
199AA
  8
0
 10
4524.8448418208991
 20
448.26434446016327
 30
0.0
 40
5.8846643845975679
 50
188.15010291524851
 51
193.60568595988519
  0
ARC
  5
199AB
  8
0
 10
4526.3166851948781
 20
448.39405272846329
 30
0.0
 40
7.3863012857880062
 50
187.49885145656981
 51
192.8993348461546
  0
ARC
  5
199AC
  8
0
 10
4524.7016082669606
 20
448.2559285636741
 30
0.0
 40
5.805254443173216
 50
188.17843769431559
 51
195.70318454233259
  0
ARC
  5
199AD
  8
0
 10
4524.438467689658
 20
448.14383667381588
 30
0.0
 40
5.5559833374761434
 50
187.38083224760291
 51
196.4992699614665
  0
ARC
  5
199AE
  8
0
 10
4523.9805358068052
 20
448.09219568473992
 30
0.0
 40
5.1267019616116682
 50
187.42034589122611
 51
198.26367127867761
  0
ARC
  5
199AF
  8
0
 10
4523.8087193965339
 20
447.95254220980121
 30
0.0
 40
4.9579978499719317
 50
186.04876584209839
 51
198.51852751902521
  0
ARC
  5
199B0
  8
0
 10
4523.5576999751302
 20
447.92440409013778
 30
0.0
 40
4.7334107206982718
 50
185.99433062890381
 51
199.89335937786109
  0
ARC
  5
199B1
  8
0
 10
4523.5565778404507
 20
447.84370016345372
 30
0.0
 40
4.7379114701188421
 50
185.00813607075381
 51
200.1753868791474
  0
ARC
  5
199B2
  8
0
 10
4523.6055816133157
 20
447.88173281915311
 30
0.0
 40
4.8133586520831528
 50
185.3840024544987
 51
200.90281748237609
  0
ARC
  5
199B3
  8
0
 10
4523.2804777908823
 20
447.74479055789521
 30
0.0
 40
4.4906017251193777
 50
184.0185238872873
 51
201.9248578726064
  0
ARC
  5
199B4
  8
0
 10
4523.0571496704242
 20
447.68682884183647
 30
0.0
 40
4.282436682288937
 50
183.43698325583779
 51
202.9863179228681
  0
ARC
  5
199B5
  8
0
 10
4522.5018359770083
 20
447.52086304084258
 30
0.0
 40
3.7309356231641759
 50
181.3940767804975
 51
204.89124914293069
  0
ARC
  5
199B6
  8
0
 10
4522.5455404978147
 20
447.488417345382
 30
0.0
 40
3.7869859404818111
 50
180.88245066153749
 51
205.4896845362349
  0
ARC
  5
199B7
  8
0
 10
4524.6931072760308
 20
447.62497686539371
 30
0.0
 40
5.944763679989987
 50
181.87862492512329
 51
186.84776850412581
  0
ARC
  5
199B8
  8
0
 10
4522.3986788469974
 20
447.34944254126287
 30
0.0
 40
3.6338502286177521
 50
186.84776850412581
 51
195.71022588797021
  0
ARC
  5
199B9
  8
0
 10
4523.8175620723841
 20
447.9295529829979
 30
0.0
 40
5.1597496461656016
 50
197.64547839573029
 51
204.7953407961713
  0
ARC
  5
199BA
  8
0
 10
4526.0785538712462
 20
447.5187036236573
 30
0.0
 40
7.3289197037972729
 50
180.69274817525769
 51
184.9847669069465
  0
ARC
  5
199BB
  8
0
 10
4521.6507444989911
 20
447.13250669363509
 30
0.0
 40
2.8843000456272021
 50
184.9847669069465
 51
200.07171969588211
  0
ARC
  5
199BC
  8
0
 10
4523.633363414865
 20
447.85693274631541
 30
0.0
 40
4.9951223667583768
 50
200.07171969588211
 51
205.7533466037566
  0
ARC
  5
199BD
  8
0
 10
4528.3414221737303
 20
447.4950609830334
 30
0.0
 40
9.5979718643911323
 50
180.3878295337706
 51
183.35225740195659
  0
ARC
  5
199BE
  8
0
 10
4522.0526691969744
 20
447.1266986509271
 30
0.0
 40
3.2984397539577781
 50
183.35225740195659
 51
196.4812028438734
  0
ARC
  5
199BF
  8
0
 10
4522.5456702229403
 20
447.42166202095268
 30
0.0
 40
3.8575167989772412
 50
198.60536548542891
 51
207.8587435089469
  0
ARC
  5
199C0
  8
0
 10
4523.7480540641072
 20
447.1870294838817
 30
0.0
 40
4.9989985270783608
 50
180.3889896774831
 51
188.4136439196192
  0
ARC
  5
199C1
  8
0
 10
4520.6684360666777
 20
446.73152169201251
 30
0.0
 40
1.885875600090702
 50
188.4136439196192
 51
202.90659056313331
  0
ARC
  5
199C2
  8
0
 10
4523.1126246463473
 20
447.65774050376513
 30
0.0
 40
4.4989003779230314
 50
201.65620185133699
 51
206.94587410201211
  0
ARC
  5
199C3
  8
0
 10
4527.8966865623697
 20
447.28822630102002
 30
0.0
 40
9.1575765433872167
 50
181.23976971327991
 51
183.79810849670679
  0
ARC
  5
199C4
  8
0
 10
4522.1686525785381
 20
446.91600287293318
 30
0.0
 40
3.4174762787077539
 50
183.93264478314151
 51
191.77569914513251
  0
ARC
  5
199C5
  8
0
 10
4520.9405311761111
 20
446.69410743517813
 30
0.0
 40
2.1701744647529648
 50
192.65782391178669
 51
209.69408920223941
  0
ARC
  5
199C6
  8
0
 10
4521.9582957814719
 20
446.81705185830867
 30
0.0
 40
3.2098522580474209
 50
179.11689439794191
 51
186.58247709333881
  0
ARC
  5
199C7
  8
0
 10
4525.3355066245531
 20
447.20676183411678
 30
0.0
 40
6.6094738463827536
 50
186.58247709333881
 51
189.0882082399489
  0
ARC
  5
199C8
  8
0
 10
4520.7786993069703
 20
446.60931776406977
 30
0.0
 40
2.019678921713838
 50
192.7737473732258
 51
209.3602699700653
  0
ARC
  5
199C9
  8
0
 10
4521.9999876896281
 20
447.02803355335982
 30
0.0
 40
3.3324104776234509
 50
200.03705183723449
 51
205.0118738872126
  0
ARC
  5
199CA
  8
0
 10
4520.4062144458931
 20
446.44678006629402
 30
0.0
 40
1.6359527656020041
 50
188.86474645673019
 51
200.03705183723449
  0
ARC
  5
199CB
  8
0
 10
4523.5459117415794
 20
446.936464534121
 30
0.0
 40
4.8136075590894976
 50
185.34374889632539
 51
188.86474645673019
  0
ARC
  5
199CC
  8
0
 10
4512.9379617475497
 20
446.19746076009773
 30
0.0
 40
5.8225247703694842
 50
2.8618668674154231
 51
4.65824649115011
  0
ARC
  5
199CD
  8
0
 10
4521.3163939870892
 20
446.5147031861668
 30
0.0
 40
2.5675998791980792
 50
181.03801248198849
 51
191.2303208978856
  0
ARC
  5
199CE
  8
0
 10
4519.8692068643259
 20
446.22735645923768
 30
0.0
 40
1.0921613986883481
 50
191.2303208978856
 51
213.84557386354021
  0
ARC
  5
199CF
  8
0
 10
4520.5752574335156
 20
446.47367398873388
 30
0.0
 40
1.863614643826937
 50
199.7817176729553
 51
207.2950803267116
  0
ARC
  5
199D0
  8
0
 10
4520.6336261656779
 20
446.36108226165692
 30
0.0
 40
1.8846304061732839
 50
184.74035173989441
 51
195.9573447281949
  0
ARC
  5
199D1
  8
0
 10
4524.5106540661991
 20
446.64324800598212
 30
0.0
 40
5.7718480660500946
 50
181.6687031930179
 51
184.35123421812301
  0
ARC
  5
199D2
  8
0
 10
4519.9890525286264
 20
446.16668539398938
 30
0.0
 40
1.233737140529922
 50
182.7738169957909
 51
206.3508740608689
  0
ARC
  5
199D3
  8
0
 10
4521.8468318584482
 20
446.36273130950332
 30
0.0
 40
3.1006365397873168
 50
180.21993798669601
 51
184.73131713335809
  0
ARC
  5
199D4
  8
0
 10
4519.8517447450076
 20
446.08408001645768
 30
0.0
 40
1.1004213841485999
 50
189.35207059299751
 51
204.9972242387648
  0
ARC
  5
199D5
  8
0
 10
4520.8178261020848
 20
446.2037465238954
 30
0.0
 40
2.0734730671725421
 50
181.79169404552721
 51
188.2767378614175
  0
ARC
  5
199D6
  8
0
 10
4528.3941043344194
 20
446.5140385688378
 30
0.0
 40
9.6560267572831684
 50
181.46961104161079
 51
182.22640832181179
  0
ARC
  5
199D7
  8
0
 10
4519.4858515776741
 20
445.93508970555052
 30
0.0
 40
0.7306649767924942
 50
188.88300586515641
 51
205.6269251375617
  0
ARC
  5
199D8
  8
0
 10
4520.1642866375041
 20
446.0411236495047
 30
0.0
 40
1.417336170070328
 50
178.16827891045679
 51
188.88300586515641
  0
ARC
  5
199D9
  8
0
 10
4519.3899044728296
 20
445.86751902033052
 30
0.0
 40
0.6372239657394403
 50
189.88258782787341
 51
202.94781201549409
  0
ARC
  5
199DA
  8
0
 10
4520.2615877148965
 20
446.01937914111551
 30
0.0
 40
1.522036471744475
 50
182.71025460908641
 51
189.88258782787341
  0
ARC
  5
199DB
  8
0
 10
4519.9300754533742
 20
445.87405475373799
 30
0.0
 40
1.1872009719769621
 50
182.62483019582211
 51
192.40250054515161
  0
ARC
  5
199DC
  8
0
 10
4529.1193118128076
 20
446.29532615273399
 30
0.0
 40
10.38608864718754
 50
182.253269789168
 51
182.62483019582211
  0
ARC
  5
199DD
  8
0
 10
4520.3153129693601
 20
445.82052573839093
 30
0.0
 40
1.5762834636573639
 50
183.04412755128331
 51
187.34272124788231
  0
ARC
  5
199DE
  8
0
 10
4519.1447970576219
 20
447.22099938472161
 30
0.0
 40
0.0066029228424679
 50
186.44390995395881
 51
353.55609004604122
  0
ARC
  5
199DF
  8
0
 10
4519.1447970576219
 20
447.0936790165353
 30
0.0
 40
0.0087216983404442
 50
176.84043990795601
 51
3.1595600920537219
  0
ARC
  5
199E0
  8
0
 10
4519.1447970576219
 20
446.99527284531661
 30
0.0
 40
0.0240599216613606
 50
189.7478268259627
 51
350.25217317403718
  0
ARC
  5
199E1
  8
0
 10
4519.1447970576219
 20
446.8847847689828
 30
0.0
 40
0.0200505805279063
 50
193.67526588145569
 51
346.324734118538
  0
ARC
  5
199E2
  8
0
 10
4519.1447970576219
 20
446.75520357726867
 30
0.0
 40
0.0297625596514375
 50
199.75535265151669
 51
340.24464734848948
  0
ARC
  5
199E3
  8
0
 10
4519.1447970576219
 20
446.69189198173711
 30
0.0
 40
0.0325728580369534
 50
192.73148484208201
 51
347.26851515791788
  0
ARC
  5
199E4
  8
0
 10
4519.1447970576219
 20
446.57211603479601
 30
0.0
 40
0.0341035195904982
 50
190.46776605962199
 51
349.53223394037479
  0
ARC
  5
199E5
  8
0
 10
4519.1447970576219
 20
446.49215383043878
 30
0.0
 40
0.0333651944335054
 50
191.4393652766642
 51
348.5606347233358
  0
ARC
  5
199E6
  8
0
 10
4519.1447970576219
 20
446.38893013816659
 30
0.0
 40
0.0389707758931349
 50
196.55482710119281
 51
343.44517289880707
  0
ARC
  5
199E7
  8
0
 10
4519.1447970576219
 20
446.33020101358397
 30
0.0
 40
0.041451987065474
 50
203.36191353622331
 51
336.63808646378271
  0
ARC
  5
199E8
  8
0
 10
4519.1447970576219
 20
446.2202331026798
 30
0.0
 40
0.036974913500995
 50
196.6835466655144
 51
343.3164533344887
  0
ARC
  5
199E9
  8
0
 10
4519.1447970576219
 20
446.17827464256783
 30
0.0
 40
0.0383859627549854
 50
201.1833027808722
 51
338.81669721913079
  0
ARC
  5
199EA
  8
0
 10
4519.1447970576219
 20
446.07997979093938
 30
0.0
 40
0.0324131279525784
 50
201.60807814427349
 51
338.39192185572648
  0
ARC
  5
199EB
  8
0
 10
4519.1447970576219
 20
446.0291028191881
 30
0.0
 40
0.0334156382432009
 50
205.9341179384412
 51
334.06588206155891
  0
ARC
  5
199EC
  8
0
 10
4519.1447970576219
 20
445.9556564964559
 30
0.0
 40
0.0278019443204809
 50
190.6416953136825
 51
349.35830468631752
  0
ARC
  5
199ED
  8
0
 10
4519.1447970576219
 20
445.86930421083588
 30
0.0
 40
0.0205750188756607
 50
211.04551002100629
 51
328.95448997899371
  0
ARC
  5
199EE
  8
0
 10
4519.1447970576219
 20
445.77048781500679
 30
0.0
 40
0.0122999506766483
 50
203.0794599918257
 51
336.92054000817421
  0
ARC
  5
199EF
  8
0
 10
4519.1447970576219
 20
445.69291666909049
 30
0.0
 40
0.012191485952348
 50
211.41128145191999
 51
328.58871854812662
  0
LINE
  5
199F0
  8
0
 10
4500.1266474512304
 20
448.04032996581219
 30
0.0
 11
4502.2023167426132
 21
448.04032996581219
 31
0.0
  0
LINE
  5
199F1
  8
0
 10
4500.0436159551318
 20
448.01432996581218
 30
0.0
 11
4502.2853482387118
 21
448.01432996581218
 31
0.0
  0
LINE
  5
199F2
  8
0
 10
4500.1396158092948
 20
447.62732996581218
 30
0.0
 11
4502.1893483845488
 21
447.62732996581218
 31
0.0
  0
LINE
  5
199F3
  8
0
 10
4500.3770065255967
 20
447.43009374531221
 30
0.0
 11
4501.951957668246
 21
447.43009374531221
 31
0.0
  0
LINE
  5
199F4
  8
0
 10
4501.6861398950441
 20
445.44190480651218
 30
0.0
 11
4502.503064774116
 21
445.44190480651218
 31
0.0
  0
LINE
  5
199F5
  8
0
 10
4500.8790532807734
 20
444.6348181923122
 30
0.0
 11
4502.503064774116
 21
444.6348181923122
 31
0.0
  0
LINE
  5
199F6
  8
0
 10
4502.5227498135209
 20
445.42221976710118
 30
0.0
 11
4502.5227498135209
 21
444.6545032317232
 31
0.0
  0
LINE
  5
199F7
  8
0
 10
4500.7609387898219
 20
444.75293268326448
 30
0.0
 11
4500.7609387898219
 21
445.59938512160198
 31
0.0
  0
LINE
  5
199F8
  8
0
 10
4500.7609387898219
 20
445.61907016081233
 30
0.0
 11
4501.5680254039216
 21
445.61907016081233
 31
0.0
  0
LINE
  5
199F9
  8
0
 10
4500.0236159552214
 20
447.99432996580811
 30
0.0
 11
4500.0236159552214
 21
447.73460256026692
 31
0.0
  0
LINE
  5
199FA
  8
0
 10
4502.3053482386204
 20
447.73460256026692
 30
0.0
 11
4502.3053482386204
 21
447.99432996580811
 31
0.0
  0
LINE
  5
199FB
  8
0
 10
4501.5680254039216
 20
445.59938512160198
 30
0.0
 11
4501.5680254039216
 21
445.56001929763522
 31
0.0
  0
LINE
  5
199FC
  8
0
 10
4500.0301624992208
 20
447.71980375891218
 30
0.0
 11
4500.126162353321
 21
447.63253116431218
 31
0.0
  0
ARC
  5
199FD
  8
0
 10
4502.5030647741214
 20
445.42221976711221
 30
0.0
 40
0.0196850393999935
 50
359.99999996796532
 51
90.00000001323599
  0
ARC
  5
199FE
  8
0
 10
4501.6861398948604
 20
445.56001929745008
 30
0.0
 40
0.1181144909379519
 50
179.99999991024669
 51
270.0000000897337
  0
ARC
  5
199FF
  8
0
 10
4500.8790532805888
 20
444.75293268307951
 30
0.0
 40
0.1181144907672387
 50
179.99999991025641
 51
270.0000000897337
  0
ARC
  5
19A00
  8
0
 10
4502.5030647741214
 20
444.65450323171223
 30
0.0
 40
0.0196850393999917
 50
269.99999998671188
 51
0.0000000320347503
  0
ARC
  5
19A01
  8
0
 10
4500.1266474512213
 20
448.02032996581221
 30
0.0
 40
0.0199999999999978
 50
89.999999977905276
 51
180.00000000001631
  0
LINE
  5
19A02
  8
0
 10
4500.1066474512218
 20
448.02032996581221
 30
0.0
 11
4500.1066474512218
 21
448.01432996581218
 31
0.0
  0
ARC
  5
19A03
  8
0
 10
4500.0436159550509
 20
447.9943299659829
 30
0.0
 40
0.0199999998292846
 50
89.999999769255979
 51
180.00000050071071
  0
ARC
  5
19A04
  8
0
 10
4500.0436159549063
 20
447.73460256026692
 30
0.0
 40
0.0199999997850446
 50
179.99999986987751
 51
227.72631118859829
  0
ARC
  5
19A05
  8
0
 10
4500.139615809273
 20
447.64732996608899
 30
0.0
 40
0.0200000002767755
 50
227.72631143706531
 51
270.00000006169847
  0
ARC
  5
19A06
  8
0
 10
4500.2699820969219
 20
447.6073299658122
 30
0.0
 40
0.0199999999999978
 50
359.99999999999352
 51
90.0
  0
LINE
  5
19A07
  8
0
 10
4500.2899820969214
 20
447.6073299658122
 30
0.0
 11
4500.2899820969214
 21
447.51711817406073
 31
0.0
  0
ARC
  5
19A08
  8
0
 10
4500.3099820971647
 20
447.51711817406073
 30
0.0
 40
0.0200000002440268
 50
180.00000013905279
 51
224.9999994014334
  0
LINE
  5
19A09
  8
0
 10
4500.2958399612207
 20
447.50297603841221
 30
0.0
 11
4500.362864390022
 21
447.43595160971228
 31
0.0
  0
ARC
  5
19A0A
  8
0
 10
4500.3770065255767
 20
447.45009374509181
 30
0.0
 40
0.0199999997795537
 50
224.9999996422662
 51
270.00000005320447
  0
LINE
  5
19A0B
  8
0
 10
4502.2988016946219
 20
447.71980375891218
 30
0.0
 11
4502.2028018405208
 21
447.63253116431218
 31
0.0
  0
ARC
  5
19A0C
  8
0
 10
4502.2023167426214
 20
448.02032996581221
 30
0.0
 40
0.019999999999996
 50
359.99999999999022
 51
90.000000022094724
  0
LINE
  5
19A0D
  8
0
 10
4502.2223167426218
 20
448.02032996581221
 30
0.0
 11
4502.2223167426218
 21
448.01432996581218
 31
0.0
  0
ARC
  5
19A0E
  8
0
 10
4502.2853482387209
 20
447.9943299658122
 30
0.0
 40
0.0199999999999978
 50
359.99999999999352
 51
90.00000002813951
  0
ARC
  5
19A0F
  8
0
 10
4502.2853482389364
 20
447.73460256026692
 30
0.0
 40
0.0199999997850446
 50
312.27368881140171
 51
0.000000130122446
  0
ARC
  5
19A10
  8
0
 10
4502.1893483845688
 20
447.64732996608899
 30
0.0
 40
0.0200000002767839
 50
269.99999993830153
 51
312.27368856288729
  0
ARC
  5
19A11
  8
0
 10
4502.0589820969208
 20
447.6073299658122
 30
0.0
 40
0.0199999999999978
 50
90.0
 51
180.00000000000651
  0
LINE
  5
19A12
  8
0
 10
4502.0389820969212
 20
447.6073299658122
 30
0.0
 11
4502.0389820969212
 21
447.51711817406073
 31
0.0
  0
ARC
  5
19A13
  8
0
 10
4502.018982096678
 20
447.51711817406073
 30
0.0
 40
0.0200000002440268
 50
315.0000005985666
 51
359.99999986094718
  0
LINE
  5
19A14
  8
0
 10
4502.033124232622
 20
447.50297603841221
 30
0.0
 11
4501.9660998038216
 21
447.43595160971228
 31
0.0
  0
ARC
  5
19A15
  8
0
 10
4501.9519576682651
 20
447.45009374509181
 30
0.0
 40
0.0199999997795547
 50
269.99999994679553
 51
315.00000035773382
  0
ARC
  5
19A16
  8
0
 10
4500.7806238290214
 20
445.59938512160198
 30
0.0
 40
0.0196850391985143
 50
90.0
 51
180.0000005526222
  0
ARC
  5
19A17
  8
0
 10
4501.5483403647231
 20
445.59938512160198
 30
0.0
 40
0.0196850391985158
 50
359.99999944738101
 51
90.0
  0
LINE
  5
19A18
  8
0
 10
4502.033124232622
 20
447.50297603841221
 30
0.0
 11
4500.2958399613217
 21
447.50297603841221
 31
0.0
  0
LINE
  5
19A19
  8
0
 10
4500.0301624993217
 20
447.71980375891218
 30
0.0
 11
4502.2988016946219
 21
447.71980375891218
 31
0.0
  0
ARC
  5
19A1A
  8
0
 10
4502.5427515812225
 20
445.4219004907643
 30
0.0
 40
0.0200043157479142
 50
90.000022127453377
 51
179.0854991707069
  0
ARC
  5
19A1B
  8
0
 10
4502.5427515812216
 20
444.65482250805962
 30
0.0
 40
0.0200043157474103
 50
180.91450082784391
 51
269.99997787582959
  0
LINE
  5
19A1C
  8
0
 10
4500.7609387898219
 20
445.61907016081233
 30
0.0
 11
4500.7609387898219
 21
447.43009374531221
 31
0.0
  0
LINE
  5
19A1D
  8
0
 10
4501.5680254039216
 20
447.43009374531221
 30
0.0
 11
4501.5680254039216
 21
445.61907016081233
 31
0.0
  0
ARC
  5
19A1E
  8
0
 10
4502.3101377739058
 20
447.41640832000382
 30
0.0
 40
1.1687936361751909
 50
179.32910737612281
 51
189.66124436700031
  0
ARC
  5
19A1F
  8
0
 10
4505.5157527899428
 20
447.93555002772928
 30
0.0
 40
4.4404229169549758
 50
186.53618405635791
 51
190.92268838020101
  0
ARC
  5
19A20
  8
0
 10
4504.038911256579
 20
447.64034843835628
 30
0.0
 40
2.9699528829098769
 50
184.05959028710191
 51
192.62518712564841
  0
ARC
  5
19A21
  8
0
 10
4506.8645268601977
 20
448.26434446016327
 30
0.0
 40
5.8846643845975679
 50
188.15010291524851
 51
193.60568595988519
  0
ARC
  5
19A22
  8
0
 10
4508.3363702341776
 20
448.39405272846329
 30
0.0
 40
7.3863012857880062
 50
187.49885145656981
 51
192.8993348461546
  0
ARC
  5
19A23
  8
0
 10
4506.721293306261
 20
448.2559285636741
 30
0.0
 40
5.805254443173216
 50
188.17843769431559
 51
195.70318454233259
  0
ARC
  5
19A24
  8
0
 10
4506.4581527289592
 20
448.14383667381588
 30
0.0
 40
5.5559833374761434
 50
187.38083224760291
 51
196.4992699614665
  0
ARC
  5
19A25
  8
0
 10
4506.0002208461046
 20
448.09219568473992
 30
0.0
 40
5.1267019616116682
 50
187.42034589122611
 51
198.26367127867761
  0
ARC
  5
19A26
  8
0
 10
4505.8284044358343
 20
447.95254220980121
 30
0.0
 40
4.9579978499719317
 50
186.04876584209839
 51
198.51852751902521
  0
ARC
  5
19A27
  8
0
 10
4505.5773850144296
 20
447.92440409013778
 30
0.0
 40
4.7334107206982718
 50
185.99433062890381
 51
199.89335937786109
  0
ARC
  5
19A28
  8
0
 10
4505.5762628797511
 20
447.84370016345372
 30
0.0
 40
4.7379114701188421
 50
185.00813607075381
 51
200.1753868791474
  0
ARC
  5
19A29
  8
0
 10
4505.6252666526161
 20
447.88173281915311
 30
0.0
 40
4.8133586520831528
 50
185.3840024544987
 51
200.90281748237609
  0
ARC
  5
19A2A
  8
0
 10
4505.3001628301818
 20
447.74479055789521
 30
0.0
 40
4.4906017251193777
 50
184.0185238872873
 51
201.9248578726064
  0
ARC
  5
19A2B
  8
0
 10
4505.0768347097246
 20
447.68682884183647
 30
0.0
 40
4.282436682288937
 50
183.43698325583779
 51
202.9863179228681
  0
ARC
  5
19A2C
  8
0
 10
4504.5215210163078
 20
447.52086304084258
 30
0.0
 40
3.7309356231641759
 50
181.3940767804975
 51
204.89124914293069
  0
ARC
  5
19A2D
  8
0
 10
4504.5652255371151
 20
447.488417345382
 30
0.0
 40
3.7869859404818111
 50
180.88245066153749
 51
205.4896845362349
  0
ARC
  5
19A2E
  8
0
 10
4506.7127923153321
 20
447.62497686539371
 30
0.0
 40
5.944763679989987
 50
181.87862492512329
 51
186.84776850412581
  0
ARC
  5
19A2F
  8
0
 10
4504.4183638862978
 20
447.34944254126287
 30
0.0
 40
3.6338502286177521
 50
186.84776850412581
 51
195.71022588797021
  0
ARC
  5
19A30
  8
0
 10
4505.8372471116836
 20
447.9295529829979
 30
0.0
 40
5.1597496461656016
 50
197.64547839573029
 51
204.7953407961713
  0
ARC
  5
19A31
  8
0
 10
4508.0982389105457
 20
447.5187036236573
 30
0.0
 40
7.3289197037972729
 50
180.69274817525769
 51
184.9847669069465
  0
ARC
  5
19A32
  8
0
 10
4503.6704295382897
 20
447.13250669363509
 30
0.0
 40
2.8843000456272021
 50
184.9847669069465
 51
200.07171969588211
  0
ARC
  5
19A33
  8
0
 10
4505.6530484541654
 20
447.85693274631541
 30
0.0
 40
4.9951223667583768
 50
200.07171969588211
 51
205.7533466037566
  0
ARC
  5
19A34
  8
0
 10
4510.3611072130298
 20
447.4950609830334
 30
0.0
 40
9.5979718643911323
 50
180.3878295337706
 51
183.35225740195659
  0
ARC
  5
19A35
  8
0
 10
4504.072354236273
 20
447.1266986509271
 30
0.0
 40
3.2984397539577781
 50
183.35225740195659
 51
196.4812028438734
  0
ARC
  5
19A36
  8
0
 10
4504.5653552622389
 20
447.42166202095268
 30
0.0
 40
3.8575167989772412
 50
198.60536548542891
 51
207.8587435089469
  0
ARC
  5
19A37
  8
0
 10
4505.7677391034067
 20
447.1870294838817
 30
0.0
 40
4.9989985270783608
 50
180.3889896774831
 51
188.4136439196192
  0
ARC
  5
19A38
  8
0
 10
4502.6881211059781
 20
446.73152169201251
 30
0.0
 40
1.885875600090702
 50
188.4136439196192
 51
202.90659056313331
  0
ARC
  5
19A39
  8
0
 10
4505.1323096856477
 20
447.65774050376513
 30
0.0
 40
4.4989003779230314
 50
201.65620185133699
 51
206.94587410201211
  0
ARC
  5
19A3A
  8
0
 10
4509.916371601671
 20
447.28822630102002
 30
0.0
 40
9.1575765433872167
 50
181.23976971327991
 51
183.79810849670679
  0
ARC
  5
19A3B
  8
0
 10
4504.1883376178366
 20
446.91600287293318
 30
0.0
 40
3.4174762787077539
 50
183.93264478314151
 51
191.77569914513251
  0
ARC
  5
19A3C
  8
0
 10
4502.9602162154106
 20
446.69410743517813
 30
0.0
 40
2.1701744647529648
 50
192.65782391178669
 51
209.69408920223941
  0
ARC
  5
19A3D
  8
0
 10
4503.9779808207713
 20
446.81705185830867
 30
0.0
 40
3.2098522580474209
 50
179.11689439794191
 51
186.58247709333881
  0
ARC
  5
19A3E
  8
0
 10
4507.3551916638544
 20
447.20676183411678
 30
0.0
 40
6.6094738463827536
 50
186.58247709333881
 51
189.0882082399489
  0
ARC
  5
19A3F
  8
0
 10
4502.7983843462698
 20
446.60931776406977
 30
0.0
 40
2.019678921713838
 50
192.7737473732258
 51
209.3602699700653
  0
ARC
  5
19A40
  8
0
 10
4504.0196727289294
 20
447.02803355335982
 30
0.0
 40
3.3324104776234509
 50
200.03705183723449
 51
205.0118738872126
  0
ARC
  5
19A41
  8
0
 10
4502.4258994851916
 20
446.44678006629402
 30
0.0
 40
1.6359527656020041
 50
188.86474645673019
 51
200.03705183723449
  0
ARC
  5
19A42
  8
0
 10
4505.5655967808789
 20
446.936464534121
 30
0.0
 40
4.8136075590894976
 50
185.34374889632539
 51
188.86474645673019
  0
ARC
  5
19A43
  8
0
 10
4494.9576467868501
 20
446.19746076009773
 30
0.0
 40
5.8225247703694842
 50
2.8618668674154231
 51
4.65824649115011
  0
ARC
  5
19A44
  8
0
 10
4503.3360790263878
 20
446.5147031861668
 30
0.0
 40
2.5675998791980792
 50
181.03801248198849
 51
191.2303208978856
  0
ARC
  5
19A45
  8
0
 10
4501.8888919036253
 20
446.22735645923768
 30
0.0
 40
1.0921613986883481
 50
191.2303208978856
 51
213.84557386354021
  0
ARC
  5
19A46
  8
0
 10
4502.5949424728151
 20
446.47367398873388
 30
0.0
 40
1.863614643826937
 50
199.7817176729553
 51
207.2950803267116
  0
ARC
  5
19A47
  8
0
 10
4502.6533112049783
 20
446.36108226165692
 30
0.0
 40
1.8846304061732839
 50
184.74035173989441
 51
195.9573447281949
  0
ARC
  5
19A48
  8
0
 10
4506.5303391054986
 20
446.64324800598212
 30
0.0
 40
5.7718480660500946
 50
181.6687031930179
 51
184.35123421812301
  0
ARC
  5
19A49
  8
0
 10
4502.0087375679259
 20
446.16668539398938
 30
0.0
 40
1.233737140529922
 50
182.7738169957909
 51
206.3508740608689
  0
ARC
  5
19A4A
  8
0
 10
4503.8665168977477
 20
446.36273130950332
 30
0.0
 40
3.1006365397873168
 50
180.21993798669601
 51
184.73131713335809
  0
ARC
  5
19A4B
  8
0
 10
4501.871429784308
 20
446.08408001645768
 30
0.0
 40
1.1004213841485999
 50
189.35207059299751
 51
204.9972242387648
  0
ARC
  5
19A4C
  8
0
 10
4502.8375111413852
 20
446.2037465238954
 30
0.0
 40
2.0734730671725421
 50
181.79169404552721
 51
188.2767378614175
  0
ARC
  5
19A4D
  8
0
 10
4510.4137893737188
 20
446.5140385688378
 30
0.0
 40
9.6560267572831684
 50
181.46961104161079
 51
182.22640832181179
  0
ARC
  5
19A4E
  8
0
 10
4501.5055366169727
 20
445.93508970555052
 30
0.0
 40
0.7306649767924942
 50
188.88300586515641
 51
205.6269251375617
  0
ARC
  5
19A4F
  8
0
 10
4502.1839716768054
 20
446.0411236495047
 30
0.0
 40
1.417336170070328
 50
178.16827891045679
 51
188.88300586515641
  0
ARC
  5
19A50
  8
0
 10
4501.4095895121309
 20
445.86751902033052
 30
0.0
 40
0.6372239657394403
 50
189.88258782787341
 51
202.94781201549409
  0
ARC
  5
19A51
  8
0
 10
4502.2812727541959
 20
446.01937914111551
 30
0.0
 40
1.522036471744475
 50
182.71025460908641
 51
189.88258782787341
  0
ARC
  5
19A52
  8
0
 10
4501.9497604926728
 20
445.87405475373799
 30
0.0
 40
1.1872009719769621
 50
182.62483019582211
 51
192.40250054515161
  0
ARC
  5
19A53
  8
0
 10
4511.1389968521071
 20
446.29532615273399
 30
0.0
 40
10.38608864718754
 50
182.253269789168
 51
182.62483019582211
  0
ARC
  5
19A54
  8
0
 10
4502.3349980086596
 20
445.82052573839093
 30
0.0
 40
1.5762834636573639
 50
183.04412755128331
 51
187.34272124788231
  0
ARC
  5
19A55
  8
0
 10
4500.0188264199369
 20
447.41640832000382
 30
0.0
 40
1.1687936361751909
 50
350.33875563299972
 51
0.670892623877232
  0
ARC
  5
19A56
  8
0
 10
4496.8132114039008
 20
447.93555002772928
 30
0.0
 40
4.4404229169549758
 50
349.07731161979899
 51
353.46381594364209
  0
ARC
  5
19A57
  8
0
 10
4498.2900529372628
 20
447.64034843835628
 30
0.0
 40
2.9699528829098769
 50
347.37481287435162
 51
355.94040971289797
  0
ARC
  5
19A58
  8
0
 10
4495.4644373336441
 20
448.26434446016327
 30
0.0
 40
5.8846643845975679
 50
346.39431404011481
 51
351.84989708475138
  0
ARC
  5
19A59
  8
0
 10
4493.9925939596651
 20
448.39405272846329
 30
0.0
 40
7.3863012857880062
 50
347.10066515384528
 51
352.50114854343019
  0
ARC
  5
19A5A
  8
0
 10
4495.6076708875817
 20
448.2559285636741
 30
0.0
 40
5.805254443173216
 50
344.29681545766749
 51
351.82156230568438
  0
ARC
  5
19A5B
  8
0
 10
4495.8708114648844
 20
448.14383667381588
 30
0.0
 40
5.5559833374761434
 50
343.5007300385335
 51
352.61916775239712
  0
ARC
  5
19A5C
  8
0
 10
4496.328743347739
 20
448.09219568473992
 30
0.0
 40
5.1267019616116682
 50
341.73632872132242
 51
352.57965410877381
  0
ARC
  5
19A5D
  8
0
 10
4496.5005597580093
 20
447.95254220980121
 30
0.0
 40
4.9579978499719317
 50
341.48147248097479
 51
353.95123415790158
  0
ARC
  5
19A5E
  8
0
 10
4496.7515791794131
 20
447.92440409013778
 30
0.0
 40
4.7334107206982718
 50
340.10664062213891
 51
354.00566937109608
  0
ARC
  5
19A5F
  8
0
 10
4496.7527013140907
 20
447.84370016345372
 30
0.0
 40
4.7379114701188421
 50
339.82461312085258
 51
354.99186392924622
  0
ARC
  5
19A60
  8
0
 10
4496.7036975412257
 20
447.88173281915311
 30
0.0
 40
4.8133586520831528
 50
339.09718251762092
 51
354.61599754550122
  0
ARC
  5
19A61
  8
0
 10
4497.0288013636609
 20
447.74479055789521
 30
0.0
 40
4.4906017251193777
 50
338.07514212739358
 51
355.9814761127127
  0
ARC
  5
19A62
  8
0
 10
4497.252129484119
 20
447.68682884183647
 30
0.0
 40
4.282436682288937
 50
337.01368207713188
 51
356.5630167441621
  0
ARC
  5
19A63
  8
0
 10
4497.807443177534
 20
447.52086304084258
 30
0.0
 40
3.7309356231641759
 50
335.10875085706931
 51
358.60592321950247
  0
ARC
  5
19A64
  8
0
 10
4497.7637386567276
 20
447.488417345382
 30
0.0
 40
3.7869859404818111
 50
334.5103154637651
 51
359.11754933846248
  0
ARC
  5
19A65
  8
0
 10
4495.6161718785124
 20
447.62497686539371
 30
0.0
 40
5.944763679989987
 50
353.1522314958741
 51
358.12137507487671
  0
ARC
  5
19A66
  8
0
 10
4497.9106003075449
 20
447.34944254126287
 30
0.0
 40
3.6338502286177521
 50
344.28977411202982
 51
353.1522314958741
  0
ARC
  5
19A67
  8
0
 10
4496.4917170821591
 20
447.9295529829979
 30
0.0
 40
5.1597496461656016
 50
335.20465920382873
 51
342.35452160426968
  0
ARC
  5
19A68
  8
0
 10
4494.230725283297
 20
447.5187036236573
 30
0.0
 40
7.3289197037972729
 50
355.0152330930535
 51
359.30725182474231
  0
ARC
  5
19A69
  8
0
 10
4498.6585346555521
 20
447.13250669363509
 30
0.0
 40
2.8843000456272021
 50
339.92828030411488
 51
355.0152330930535
  0
ARC
  5
19A6A
  8
0
 10
4496.6759157396773
 20
447.85693274631541
 30
0.0
 40
4.9951223667583768
 50
334.24665339624329
 51
339.92828030411488
  0
ARC
  5
19A6B
  8
0
 10
4491.967856980812
 20
447.4950609830334
 30
0.0
 40
9.5979718643911323
 50
356.64774259804352
 51
359.61217046622937
  0
ARC
  5
19A6C
  8
0
 10
4498.2566099575688
 20
447.1266986509271
 30
0.0
 40
3.2984397539577781
 50
343.5187971561266
 51
356.64774259804352
  0
ARC
  5
19A6D
  8
0
 10
4497.763608931602
 20
447.42166202095268
 30
0.0
 40
3.8575167989772412
 50
332.14125649105313
 51
341.39463451457112
  0
ARC
  5
19A6E
  8
0
 10
4496.561225090436
 20
447.1870294838817
 30
0.0
 40
4.9989985270783608
 50
351.58635608038082
 51
359.6110103225169
  0
ARC
  5
19A6F
  8
0
 10
4499.6408430878637
 20
446.73152169201251
 30
0.0
 40
1.885875600090702
 50
337.09340943686669
 51
351.58635608038082
  0
ARC
  5
19A70
  8
0
 10
4497.1966545081959
 20
447.65774050376513
 30
0.0
 40
4.4989003779230314
 50
333.05412589798789
 51
338.34379814866298
  0
ARC
  5
19A71
  8
0
 10
4492.4125925921708
 20
447.28822630102002
 30
0.0
 40
9.1575765433872167
 50
356.20189150329321
 51
358.76023028672017
  0
ARC
  5
19A72
  8
0
 10
4498.1406265760052
 20
446.91600287293318
 30
0.0
 40
3.4174762787077539
 50
348.22430085486752
 51
356.06735521685852
  0
ARC
  5
19A73
  8
0
 10
4499.3687479784312
 20
446.69410743517813
 30
0.0
 40
2.1701744647529648
 50
330.3059107977607
 51
347.34217608821331
  0
ARC
  5
19A74
  8
0
 10
4498.3509833730714
 20
446.81705185830867
 30
0.0
 40
3.2098522580474209
 50
353.41752290666108
 51
0.8831056020580849
  0
ARC
  5
19A75
  8
0
 10
4494.9737725299892
 20
447.20676183411678
 30
0.0
 40
6.6094738463827536
 50
350.91179176005102
 51
353.41752290666108
  0
ARC
  5
19A76
  8
0
 10
4499.530579847572
 20
446.60931776406977
 30
0.0
 40
2.019678921713838
 50
330.63973002993458
 51
347.22625262677423
  0
ARC
  5
19A77
  8
0
 10
4498.3092914649142
 20
447.02803355335982
 30
0.0
 40
3.3324104776234509
 50
334.98812611278743
 51
339.96294816276549
  0
ARC
  5
19A78
  8
0
 10
4499.9030647086493
 20
446.44678006629402
 30
0.0
 40
1.6359527656020041
 50
339.96294816276549
 51
351.13525354326981
  0
ARC
  5
19A79
  8
0
 10
4496.7633674129629
 20
446.936464534121
 30
0.0
 40
4.8136075590894976
 50
351.13525354326981
 51
354.65625110367449
  0
ARC
  5
19A7A
  8
0
 10
4507.3713174069944
 20
446.19746076009773
 30
0.0
 40
5.8225247703694842
 50
175.34175350884991
 51
177.13813313258461
  0
ARC
  5
19A7B
  8
0
 10
4498.992885167454
 20
446.5147031861668
 30
0.0
 40
2.5675998791980792
 50
348.76967910211442
 51
358.96198751801143
  0
ARC
  5
19A7C
  8
0
 10
4500.4400722902174
 20
446.22735645923768
 30
0.0
 40
1.0921613986883481
 50
326.15442613645979
 51
348.76967910211442
  0
ARC
  5
19A7D
  8
0
 10
4499.7340217210267
 20
446.47367398873388
 30
0.0
 40
1.863614643826937
 50
332.70491967328837
 51
340.21828232704161
  0
ARC
  5
19A7E
  8
0
 10
4499.6756529888644
 20
446.36108226165692
 30
0.0
 40
1.8846304061732839
 50
344.04265527180507
 51
355.25964826010562
  0
ARC
  5
19A7F
  8
0
 10
4495.7986250883441
 20
446.64324800598212
 30
0.0
 40
5.7718480660500946
 50
355.64876578187688
 51
358.3312968069821
  0
ARC
  5
19A80
  8
0
 10
4500.3202266259159
 20
446.16668539398938
 30
0.0
 40
1.233737140529922
 50
333.64912593913112
 51
357.22618300420908
  0
ARC
  5
19A81
  8
0
 10
4498.4624472960941
 20
446.36273130950332
 30
0.0
 40
3.1006365397873168
 50
355.26868286664183
 51
359.7800620133039
  0
ARC
  5
19A82
  8
0
 10
4500.4575344095347
 20
446.08408001645768
 30
0.0
 40
1.1004213841485999
 50
335.00277576123523
 51
350.64792940700238
  0
ARC
  5
19A83
  8
0
 10
4499.4914530524566
 20
446.2037465238954
 30
0.0
 40
2.0734730671725421
 50
351.72326213858253
 51
358.20830595447268
  0
ARC
  5
19A84
  8
0
 10
4491.9151748201239
 20
446.5140385688378
 30
0.0
 40
9.6560267572831684
 50
357.77359167818821
 51
358.53038895838921
  0
ARC
  5
19A85
  8
0
 10
4500.8234275768691
 20
445.93508970555052
 30
0.0
 40
0.7306649767924942
 50
334.37307486243827
 51
351.11699413484348
  0
ARC
  5
19A86
  8
0
 10
4500.1449925170382
 20
446.0411236495047
 30
0.0
 40
1.417336170070328
 50
351.11699413484348
 51
1.831721089543203
  0
ARC
  5
19A87
  8
0
 10
4500.9193746817118
 20
445.86751902033052
 30
0.0
 40
0.6372239657394403
 50
337.05218798450591
 51
350.11741217212648
  0
ARC
  5
19A88
  8
0
 10
4500.0476914396459
 20
446.01937914111551
 30
0.0
 40
1.522036471744475
 50
350.11741217212648
 51
357.28974539091359
  0
ARC
  5
19A89
  8
0
 10
4500.379203701169
 20
445.87405475373799
 30
0.0
 40
1.1872009719769621
 50
347.59749945484828
 51
357.37516980417792
  0
ARC
  5
19A8A
  8
0
 10
4491.1899673417347
 20
446.29532615273399
 30
0.0
 40
10.38608864718754
 50
357.37516980417792
 51
357.74673021083203
  0
ARC
  5
19A8B
  8
0
 10
4499.9939661851831
 20
445.82052573839093
 30
0.0
 40
1.5762834636573639
 50
352.65727875211758
 51
356.9558724487166
  0
ARC
  5
19A8C
  8
0
 10
4501.1644820969213
 20
447.22099938472161
 30
0.0
 40
0.0066029228424679
 50
186.44390995395881
 51
353.55609004604122
  0
ARC
  5
19A8D
  8
0
 10
4501.1644820969213
 20
447.0936790165353
 30
0.0
 40
0.0087216983404442
 50
176.84043990794621
 51
3.159560092043967
  0
ARC
  5
19A8E
  8
0
 10
4501.1644820969213
 20
446.99527284531661
 30
0.0
 40
0.0240599216613606
 50
189.7478268259627
 51
350.25217317403718
  0
ARC
  5
19A8F
  8
0
 10
4501.1644820969213
 20
446.8847847689828
 30
0.0
 40
0.0200505805279063
 50
193.675265881462
 51
346.32473411854431
  0
ARC
  5
19A90
  8
0
 10
4501.1644820969213
 20
446.75520357726867
 30
0.0
 40
0.0297625596514375
 50
199.75535265151049
 51
340.24464734848328
  0
ARC
  5
19A91
  8
0
 10
4501.1644820969213
 20
446.69189198173711
 30
0.0
 40
0.0325728580369534
 50
192.73148484208201
 51
347.26851515791788
  0
ARC
  5
19A92
  8
0
 10
4501.1644820969213
 20
446.57211603479601
 30
0.0
 40
0.0341035195904982
 50
190.46776605962529
 51
349.53223394037798
  0
ARC
  5
19A93
  8
0
 10
4501.1644820969213
 20
446.49215383043878
 30
0.0
 40
0.0333651944335054
 50
191.4393652766642
 51
348.5606347233358
  0
ARC
  5
19A94
  8
0
 10
4501.1644820969213
 20
446.38893013816659
 30
0.0
 40
0.0389707758931349
 50
196.55482710119281
 51
343.44517289880707
  0
ARC
  5
19A95
  8
0
 10
4501.1644820969213
 20
446.33020101358397
 30
0.0
 40
0.041451987065474
 50
203.36191353621729
 51
336.63808646377669
  0
ARC
  5
19A96
  8
0
 10
4501.1644820969213
 20
446.2202331026798
 30
0.0
 40
0.036974913500995
 50
196.68354666551119
 51
343.31645333448557
  0
ARC
  5
19A97
  8
0
 10
4501.1644820969213
 20
446.17827464256783
 30
0.0
 40
0.0383859627549854
 50
201.18330278086921
 51
338.81669721912772
  0
ARC
  5
19A98
  8
0
 10
4501.1644820969213
 20
446.07997979093938
 30
0.0
 40
0.0324131279525784
 50
201.60807814427349
 51
338.39192185572648
  0
ARC
  5
19A99
  8
0
 10
4501.1644820969213
 20
446.0291028191881
 30
0.0
 40
0.0334156382432009
 50
205.9341179384412
 51
334.06588206155891
  0
ARC
  5
19A9A
  8
0
 10
4501.1644820969213
 20
445.9556564964559
 30
0.0
 40
0.0278019443204809
 50
190.6416953136825
 51
349.35830468631752
  0
ARC
  5
19A9B
  8
0
 10
4501.1644820969213
 20
445.86930421083588
 30
0.0
 40
0.0205750188756607
 50
211.04551002100629
 51
328.95448997899371
  0
ARC
  5
19A9C
  8
0
 10
4501.1644820969213
 20
445.77048781500679
 30
0.0
 40
0.0122999506766483
 50
203.0794599918257
 51
336.92054000817421
  0
ARC
  5
19A9D
  8
0
 10
4501.1644820969213
 20
445.69291666909049
 30
0.0
 40
0.012191485952348
 50
211.41128145187341
 51
328.58871854808001
  0
ENDSEC
  0
EOF
