  0
SECTION
  2
HEADER
  9
$ACADVER
  1
AC1009
  9
$INSBASE
 10
4525.6728517314559
 20
460.55626985433099
 30
0.0
  9
$EXTMIN
 10
4523.3005131487553
 20
459.41540371253092
 30
0.0
  9
$EXTMAX
 10
4525.6835251598386
 20
461.98426985435287
 30
0.0
  9
$LIMMIN
 10
0.0
 20
0.0
  9
$LIMMAX
 10
11.692913385800001
 20
8.2677165353999982
  9
$ORTHOMODE
 70
     0
  9
$REGENMODE
 70
     1
  9
$FILLMODE
 70
     1
  9
$QTEXTMODE
 70
     0
  9
$MIRRTEXT
 70
     0
  9
$DRAGMODE
 70
     2
  9
$LTSCALE
 40
0.6431102362
  9
$OSMODE
 70
    19
  9
$ATTMODE
 70
     1
  9
$TEXTSIZE
 40
0.2
  9
$TRACEWID
 40
0.05
  9
$TEXTSTYLE
  7
STANDARD
  9
$CLAYER
  8
0
  9
$CELTYPE
  6
BYLAYER
  9
$CECOLOR
 62
   256
  9
$DIMSCALE
 40
1.0
  9
$DIMASZ
 40
0.1875
  9
$DIMEXO
 40
0.0625
  9
$DIMDLI
 40
0.4443307087
  9
$DIMRND
 40
0.0
  9
$DIMDLE
 40
0.0
  9
$DIMEXE
 40
0.125
  9
$DIMTP
 40
0.01
  9
$DIMTM
 40
0.01
  9
$DIMTXT
 40
2.0
  9
$DIMCEN
 40
0.1052362205
  9
$DIMTSZ
 40
0.0
  9
$DIMTOL
 70
     1
  9
$DIMLIM
 70
     0
  9
$DIMTIH
 70
     1
  9
$DIMTOH
 70
     1
  9
$DIMSE1
 70
     0
  9
$DIMSE2
 70
     0
  9
$DIMTAD
 70
     0
  9
$DIMZIN
 70
     0
  9
$DIMBLK
  1

  9
$DIMASO
 70
     1
  9
$DIMSHO
 70
     1
  9
$DIMPOST
  1
\X
  9
$DIMAPOST
  1

  9
$DIMALT
 70
     1
  9
$DIMALTD
 70
     2
  9
$DIMALTF
 40
25.399999999999999
  9
$DIMLFAC
 40
1.0
  9
$DIMTOFL
 70
     0
  9
$DIMTVP
 40
0.0
  9
$DIMTIX
 70
     0
  9
$DIMSOXD
 70
     0
  9
$DIMSAH
 70
     0
  9
$DIMBLK1
  1

  9
$DIMBLK2
  1

  9
$DIMSTYLE
  2
STANDARD
  9
$DIMCLRD
 70
     0
  9
$DIMCLRE
 70
     0
  9
$DIMCLRT
 70
     0
  9
$DIMTFAC
 40
1.0
  9
$DIMGAP
 40
0.09
  9
$LUNITS
 70
     2
  9
$LUPREC
 70
     4
  9
$SKETCHINC
 40
0.1
  9
$FILLETRAD
 40
0.0
  9
$AUNITS
 70
     0
  9
$AUPREC
 70
     0
  9
$MENU
  1
.
  9
$ELEVATION
 40
0.0
  9
$PELEVATION
 40
0.0
  9
$THICKNESS
 40
0.0
  9
$LIMCHECK
 70
     0
  9
$BLIPMODE
 70
     0
  9
$CHAMFERA
 40
0.0
  9
$CHAMFERB
 40
0.0
  9
$SKPOLY
 70
     0
  9
$TDCREATE
 40
2458060.4683680669
  9
$TDUPDATE
 40
2459298.9188279398
  9
$TDINDWG
 40
1.5328665972
  9
$TDUSRTIMER
 40
1.5328665972
  9
$USRTIMER
 70
     1
  9
$ANGBASE
 50
0.0
  9
$ANGDIR
 70
     0
  9
$PDMODE
 70
     0
  9
$PDSIZE
 40
0.3125
  9
$PLINEWID
 40
0.0
  9
$COORDS
 70
     1
  9
$SPLFRAME
 70
     0
  9
$SPLINETYPE
 70
     6
  9
$SPLINESEGS
 70
     8
  9
$ATTDIA
 70
     1
  9
$ATTREQ
 70
     1
  9
$HANDLING
 70
     1
  9
$HANDSEED
  5
19C01
  9
$SURFTAB1
 70
     6
  9
$SURFTAB2
 70
     6
  9
$SURFTYPE
 70
     6
  9
$SURFU
 70
     6
  9
$SURFV
 70
     6
  9
$UCSNAME
  2

  9
$UCSORG
 10
0.0
 20
0.0
 30
0.0
  9
$UCSXDIR
 10
1.0
 20
0.0
 30
0.0
  9
$UCSYDIR
 10
0.0
 20
1.0
 30
0.0
  9
$PUCSNAME
  2

  9
$PUCSORG
 10
0.0
 20
0.0
 30
0.0
  9
$PUCSXDIR
 10
1.0
 20
0.0
 30
0.0
  9
$PUCSYDIR
 10
0.0
 20
1.0
 30
0.0
  9
$USERI1
 70
     0
  9
$USERI2
 70
     0
  9
$USERI3
 70
     0
  9
$USERI4
 70
     0
  9
$USERI5
 70
     0
  9
$USERR1
 40
0.0
  9
$USERR2
 40
0.0
  9
$USERR3
 40
0.0
  9
$USERR4
 40
0.0
  9
$USERR5
 40
0.0
  9
$WORLDVIEW
 70
     1
  9
$SHADEDGE
 70
     3
  9
$SHADEDIF
 70
    70
  9
$TILEMODE
 70
     1
  9
$MAXACTVP
 70
    64
  9
$PLIMCHECK
 70
     0
  9
$PEXTMIN
 10
1.0000000000000000E+020
 20
1.0000000000000000E+020
 30
1.0000000000000000E+020
  9
$PEXTMAX
 10
-1.0000000000000000E+020
 20
-1.0000000000000000E+020
 30
-1.0000000000000000E+020
  9
$PLIMMIN
 10
0.0
 20
0.0
  9
$PLIMMAX
 10
12.0
 20
9.0
  9
$UNITMODE
 70
     0
  9
$VISRETAIN
 70
     1
  9
$PLINEGEN
 70
     0
  9
$PSLTSCALE
 70
     1
  0
ENDSEC
  0
SECTION
  2
TABLES
  0
TABLE
  2
VPORT
 70
     1
  0
VPORT
  2
*ACTIVE
 70
     0
 10
0.0
 20
0.0
 11
1.0
 21
1.0
 12
613.12666270898444
 22
328.12023168090292
 13
0.0
 23
0.0
 14
1.0
 24
1.0
 15
0.0
 25
0.0
 16
0.0
 26
0.0
 36
60.496018696580158
 17
3911.365356445312
 27
132.57960510253901
 37
0.0
 40
2.5974338527647989
 41
2.4075403949730689
 42
50.0
 43
0.0
 44
0.0
 50
0.0
 51
0.0
 71
     0
 72
   100
 73
     1
 74
     1
 75
     0
 76
     0
 77
     0
 78
     0
  0
ENDTAB
  0
TABLE
  2
LTYPE
 70
     2
  0
LTYPE
  2
CONTINUOUS
 70
     0
  3
Solid line
 72
    65
 73
     0
 40
0.0
  0
LTYPE
  2
PHANTOM2
 70
     0
  3
___ _ _ ___ _ _ ___ _ _ ___ _ _
 72
    65
 73
     6
 40
1.25
 49
0.625
 49
-0.125
 49
0.125
 49
-0.125
 49
0.125
 49
-0.125
  0
ENDTAB
  0
TABLE
  2
LAYER
 70
     2
  0
LAYER
  2
0
 70
     0
 62
   255
  6
CONTINUOUS
  0
LAYER
  2
DEFPOINTS
 70
     0
 62
     7
  6
CONTINUOUS
  0
ENDTAB
  0
TABLE
  2
STYLE
 70
     1
  0
STYLE
  2
STANDARD
 70
     0
 40
0.0
 41
0.8
 50
0.0
 71
     0
 42
0.2
  3
txt
  4

  0
ENDTAB
  0
TABLE
  2
VIEW
 70
     0
  0
ENDTAB
  0
TABLE
  2
UCS
 70
     0
  0
ENDTAB
  0
TABLE
  2
APPID
 70
    11
  0
APPID
  2
ACAD
 70
     0
  0
APPID
  2
ACAD_MLEADERVER
 70
     0
  0
APPID
  2
ACAD_EXEMPT_FROM_CAD_STANDARDS
 70
     0
  0
APPID
  2
ACAD_NAV_VCDISPLAY
 70
     0
  0
APPID
  2
ACAECLAYERSTANDARD
 70
     0
  0
APPID
  2
ACCMTRANSPARENCY
 70
     0
  0
APPID
  2
ACAD_DSTYLE_DIMJAG
 70
     0
  0
APPID
  2
ACAD_DSTYLE_DIMTALN
 70
     0
  0
APPID
  2
ACDBATTR
 70
     0
  0
APPID
  2
ACADANNOTATIVE
 70
     0
  0
APPID
  2
DCO15
 70
     0
  0
ENDTAB
  0
TABLE
  2
DIMSTYLE
 70
     1
  0
DIMSTYLE
  2
STANDARD
 70
     0
  3

  4

  5

  6

  7

 40
1.0
 41
0.1875
 42
0.0625
 43
0.38
 44
0.125
 45
0.0
 46
0.0
 47
0.01
 48
0.01
140
0.15625
141
0.09
142
0.0
143
25.399999999999999
144
1.0
145
0.0
146
1.0
147
0.09
 71
     1
 72
     0
 73
     1
 74
     1
 75
     0
 76
     0
 77
     0
 78
     4
170
     0
171
     2
172
     0
173
     0
174
     0
175
     0
176
     0
177
     0
178
     0
  0
ENDTAB
  0
ENDSEC
  0
SECTION
  2
BLOCKS
  0
BLOCK
  8
0
  2
$MODEL_SPACE
 70
     0
 10
0.0
 20
0.0
 30
0.0
  3
$MODEL_SPACE
  1

  0
ENDBLK
  5
21
  8
0
  0
BLOCK
 67
     1
  8
0
  2
$PAPER_SPACE
 70
     0
 10
0.0
 20
0.0
 30
0.0
  3
$PAPER_SPACE
  1

  0
ENDBLK
  5
1D
 67
     1
  8
0
  0
ENDSEC
  0
SECTION
  2
ENTITIES
  0
ATTDEF
  5
194DB
  8
DEFPOINTS
 10
4525.6728584931698
 20
460.55960591067378
 30
0.0
 40
0.001
  1
P24936-SNW
  3

  2
MODELNUMBER
 70
     0
1001
ACDBATTR
1070
     0
1070
     1
  0
ATTDEF
  5
194DC
  8
DEFPOINTS
 10
4525.6728584931698
 20
460.55793907029459
 30
0.0
 40
0.001
  1
PINNA PALETTA
  3

  2
TRADENAME
 70
     0
1001
ACDBATTR
1070
     0
1070
     1
  0
ATTDEF
  5
194DD
  8
DEFPOINTS
 10
4525.6728584931698
 20
460.55627257734039
 30
0.0
 40
0.001
  1
VALVE TRIM
  3

  2
PRODUCT
 70
     0
1001
ACDBATTR
1070
     0
1070
     1
  0
LINE
  5
19AB8
  8
0
 10
4525.4014237438387
 20
459.41540371263102
 30
0.0
 11
4525.3671243261024
 21
459.41540371263102
 31
0.0
  0
LINE
  5
19AB9
  8
0
 10
4525.6079632558731
 20
459.41540371263102
 30
0.0
 11
4525.6268537314563
 21
459.41540371263102
 31
0.0
  0
LINE
  5
19ABA
  8
0
 10
4524.0203154915262
 20
461.98426985433088
 30
0.0
 11
4523.387797420105
 21
461.98426985433088
 31
0.0
  0
LINE
  5
19ABB
  8
0
 10
4525.6468517314561
 20
459.4354037125309
 30
0.0
 11
4525.6468517314561
 21
461.67713599612108
 31
0.0
  0
LINE
  5
19ABC
  8
0
 10
4524.1017418985548
 20
461.91112771863101
 30
0.0
 11
4523.3063710131082
 21
461.91112771863101
 31
0.0
  0
LINE
  5
19ABD
  8
0
 10
4524.2850564558548
 20
460.15272654723088
 30
0.0
 11
4525.0626155109558
 21
460.15272654723088
 31
0.0
  0
LINE
  5
19ABE
  8
0
 10
4524.2650564558562
 20
460.15272654723088
 30
0.0
 11
4523.4186276397086
 21
460.15272654723088
 31
0.0
  0
LINE
  5
19ABF
  8
0
 10
4525.626851731452
 20
461.69713599603091
 30
0.0
 11
4525.3671243261024
 21
461.69713599603091
 31
0.0
  0
LINE
  5
19AC0
  8
0
 10
4525.2598517314573
 20
461.58113614206042
 30
0.0
 11
4525.2598517314573
 21
459.53140356660163
 31
0.0
  0
LINE
  5
19AC1
  8
0
 10
4525.0626155109558
 20
461.34374542565621
 30
0.0
 11
4525.0626155109558
 21
459.76879428300572
 31
0.0
  0
LINE
  5
19AC2
  8
0
 10
4525.1354978041563
 20
461.42491199003098
 30
0.0
 11
4525.1354978041563
 21
459.68762771863101
 31
0.0
  0
LINE
  5
19AC3
  8
0
 10
4525.3523255245564
 20
461.69058945203091
 30
0.0
 11
4525.3523255245564
 21
459.42195025663102
 31
0.0
  0
LINE
  5
19AC4
  8
0
 10
4525.2398517314559
 20
461.430769854331
 30
0.0
 11
4525.1496399398047
 21
461.430769854331
 31
0.0
  0
ARC
  5
19AC5
  8
0
 10
4525.626851731452
 20
461.67713599612108
 30
0.0
 40
0.0200000000098175
 50
0.0
 51
89.999999988379415
  0
ARC
  5
19AC6
  8
0
 10
4525.3671243261024
 20
461.67713599591309
 30
0.0
 40
0.0200000002178156
 50
90.000000131838846
 51
137.72631064015869
  0
LINE
  5
19AC7
  8
0
 10
4525.3523255245564
 20
461.69058945203091
 30
0.0
 11
4525.2650529300563
 21
461.59458959793091
 31
0.0
  0
ARC
  5
19AC8
  8
0
 10
4525.2798517312176
 20
461.58113614206042
 30
0.0
 40
0.0199999997671586
 50
137.7263104236566
 51
179.99999999999349
  0
ARC
  5
19AC9
  8
0
 10
4525.2398517314559
 20
461.45076985433087
 30
0.0
 40
0.019999999999996
 50
270.0
 51
0.0000000000065138
  0
ARC
  5
19ACA
  8
0
 10
4525.1496399398047
 20
461.41076985408688
 30
0.0
 40
0.0200000002440408
 50
90.000000139082147
 51
134.99999940139881
  0
LINE
  5
19ACB
  8
0
 10
4525.1354978041563
 20
461.42491199003098
 30
0.0
 11
4525.0684733753551
 21
461.357887561231
 31
0.0
  0
ARC
  5
19ACC
  8
0
 10
4525.0826155107352
 20
461.3437454256748
 30
0.0
 40
0.0199999997795302
 50
134.9999996422271
 51
180.00000005324361
  0
LINE
  5
19ACD
  8
0
 10
4525.2398517314559
 20
459.68176985433098
 30
0.0
 11
4525.1496399398047
 21
459.68176985433098
 31
0.0
  0
ARC
  5
19ACE
  8
0
 10
4525.6268517314547
 20
459.4354037125309
 30
0.0
 40
0.019999999999996
 50
270.0
 51
0.0000000281492829
  0
ARC
  5
19ACF
  8
0
 10
4525.3671243261024
 20
459.43540371274872
 30
0.0
 40
0.0200000002178156
 50
222.2736893598412
 51
269.99999986816118
  0
LINE
  5
19AD0
  8
0
 10
4525.3523255245564
 20
459.42195025663102
 30
0.0
 11
4525.2650529300563
 21
459.51795011073091
 31
0.0
  0
ARC
  5
19AD1
  8
0
 10
4525.279851731183
 20
459.53140356658002
 30
0.0
 40
0.0199999997268581
 50
179.99999985401649
 51
222.27368959787981
  0
ARC
  5
19AD2
  8
0
 10
4525.2398517314559
 20
459.661769854331
 30
0.0
 40
0.019999999999996
 50
359.99999999999352
 51
90.0
  0
ARC
  5
19AD3
  8
0
 10
4525.1496399398047
 20
459.70176985457499
 30
0.0
 40
0.0200000002440408
 50
225.00000059860119
 51
269.9999998609178
  0
LINE
  5
19AD4
  8
0
 10
4525.1354978041563
 20
459.68762771863101
 30
0.0
 11
4525.0684733753551
 21
459.75465214743099
 31
0.0
  0
ARC
  5
19AD5
  8
0
 10
4525.0826155107352
 20
459.76879428298707
 30
0.0
 40
0.0199999997795128
 50
179.9999995878571
 51
225.0000003577845
  0
LINE
  5
19AD6
  8
0
 10
4524.2650564558562
 20
460.95981316133089
 30
0.0
 11
4524.2257142540793
 21
460.95981316133089
 31
0.0
  0
LINE
  5
19AD7
  8
0
 10
4524.2850564558548
 20
460.95981316133089
 30
0.0
 11
4525.0626155109558
 21
460.95981316133089
 31
0.0
  0
LINE
  5
19AD8
  8
0
 10
4523.3005131487571
 20
461.89698558303093
 30
0.0
 11
4523.3005131487571
 21
460.27084103818322
 31
0.0
  0
LINE
  5
19AD9
  8
0
 10
4524.107599762955
 20
461.07792765245398
 30
0.0
 11
4524.107599762955
 21
461.89698558307481
 31
0.0
  0
ARC
  5
19ADA
  8
0
 10
4523.387797420105
 20
461.96426985408698
 30
0.0
 40
0.0200000002440204
 50
90.000000139030035
 51
134.99999980656909
  0
LINE
  5
19ADB
  8
0
 10
4523.3736552843548
 20
461.97841198993098
 30
0.0
 11
4523.3063710131319
 21
461.91112771865443
 31
0.0
  0
ARC
  5
19ADC
  8
0
 10
4523.3205131487557
 20
461.89698558303093
 30
0.0
 40
0.0200000000000051
 50
135.00000000141631
 51
180.00000000000651
  0
ARC
  5
19ADD
  8
0
 10
4524.0203154915262
 20
461.96426985396488
 30
0.0
 40
0.020000000388002
 50
45.000000275464863
 51
90.0
  0
LINE
  5
19ADE
  8
0
 10
4524.0344576273556
 20
461.97841198993098
 30
0.0
 11
4524.1017418985548
 21
461.91112771863101
 31
0.0
  0
ARC
  5
19ADF
  8
0
 10
4524.0875997631756
 20
461.89698558307481
 30
0.0
 40
0.0199999997795685
 50
359.9999998743819
 51
45.000000357703833
  0
ARC
  5
19AE0
  8
0
 10
4524.2257142538929
 20
461.07792765226901
 30
0.0
 40
0.1181144909379554
 50
179.99999991025319
 51
270.0000000897337
  0
LINE
  5
19AE1
  8
0
 10
4524.2850564558548
 20
460.95981316133089
 30
0.0
 11
4524.2850564558548
 21
460.15272654723088
 31
0.0
  0
ARC
  5
19AE2
  8
0
 10
4524.2650564558562
 20
460.93981316133102
 30
0.0
 40
0.0199999999999978
 50
0.0
 51
90.0
  0
ARC
  5
19AE3
  8
0
 10
4524.2650564558562
 20
460.17272654723098
 30
0.0
 40
0.0200000000000023
 50
270.0
 51
0.0
  0
ARC
  5
19AE4
  8
0
 10
4523.4186276395221
 20
460.2708410379982
 30
0.0
 40
0.118114490767244
 50
179.99999991025641
 51
270.0000000897337
  0
ARC
  5
19AE5
  8
0
 10
4525.5046934998572
 20
458.29676595605611
 30
0.0
 40
1.123394442278641
 50
84.725551116647509
 51
95.274448883352463
  0
ARC
  5
19AE7
  8
0
 10
4524.8364754616641
 20
453.99090556504279
 30
0.0
 40
6.9693193129959887
 50
88.140543638987026
 51
89.377206842416612
  0
ARC
  5
19AE8
  8
0
 10
4524.7565567208076
 20
454.06893786143769
 30
0.0
 40
6.886859478919618
 50
87.452880463639886
 51
90.022982233923386
  0
ARC
  5
19AE9
  8
0
 10
4524.5988281961527
 20
454.99406722823142
 30
0.0
 40
5.9637432720836738
 50
85.539728559730818
 51
88.511018593778545
  0
ARC
  5
19AEA
  8
0
 10
4524.2661952795388
 20
442.19728443722209
 30
0.0
 40
18.76484847661537
 50
88.511018593778545
 51
89.099071346211005
  0
ARC
  5
19AEB
  8
0
 10
4524.6194012206342
 20
456.66991519391371
 30
0.0
 40
4.2787299223516753
 50
84.054323902704766
 51
86.961821446126109
  0
ARC
  5
19AEC
  8
0
 10
4524.4328739409311
 20
453.15557029466038
 30
0.0
 40
7.7980213989107474
 50
86.961821446126109
 51
88.344368467983159
  0
ARC
  5
19AED
  8
0
 10
4524.2849628312333
 20
448.03829433638009
 30
0.0
 40
12.917434541993201
 50
88.344368467983159
 51
89.258058550974681
  0
ARC
  5
19AEE
  8
0
 10
4524.6869837678523
 20
479.08227424911968
 30
0.0
 40
18.129148356227081
 50
268.72963555024148
 51
269.25805855097468
  0
ARC
  5
19AEF
  8
0
 10
4524.5465463126739
 20
457.07200566659441
 30
0.0
 40
3.8762613806752122
 50
82.349163404939503
 51
86.764952613945852
  0
ARC
  5
19AF0
  8
0
 10
4524.2263061569984
 20
451.40627503644191
 30
0.0
 40
9.5510351498007875
 50
86.764952613945852
 51
88.649118576008945
  0
ARC
  5
19AF1
  8
0
 10
4524.229456228154
 20
455.27279858230281
 30
0.0
 40
5.6788469467470311
 50
81.563526336806518
 51
89.439021809332758
  0
ARC
  5
19AF2
  8
0
 10
4523.9692199203182
 20
453.82365981046661
 30
0.0
 40
7.1354538555365714
 50
81.185599796213566
 51
84.613219746797824
  0
ARC
  5
19AF3
  8
0
 10
4524.0173294913684
 20
453.38892860601248
 30
0.0
 40
7.5642688563723199
 50
85.285164580514746
 51
87.971670506836858
  0
ARC
  5
19AF4
  8
0
 10
4524.098425887657
 20
455.78280274578981
 30
0.0
 40
5.159615977690974
 50
79.229685218562281
 51
87.92707886165816
  0
ARC
  5
19AF5
  8
0
 10
4524.0785232153767
 20
456.46375370869328
 30
0.0
 40
4.468830761229178
 50
77.278486849905462
 51
87.351052137230567
  0
ARC
  5
19AF6
  8
0
 10
4524.0004198486467
 20
456.7144826054892
 30
0.0
 40
4.2126802594382431
 50
75.39567039022792
 51
86.125765651634666
  0
ARC
  5
19AF7
  8
0
 10
4524.1582821585162
 20
457.7629774517394
 30
0.0
 40
3.1388904475829089
 50
73.25539761677922
 51
87.685294051123805
  0
ARC
  5
19AF8
  8
0
 10
4524.0778678525303
 20
457.84378466616488
 30
0.0
 40
3.046516108889088
 50
71.14118316774929
 51
86.100397283433566
  0
ARC
  5
19AF9
  8
0
 10
4524.1650526868416
 20
458.41796023786429
 30
0.0
 40
2.4487694673772449
 50
68.497842058110734
 51
87.191052634816103
  0
ARC
  5
19AFA
  8
0
 10
4524.0752359475036
 20
458.33133565589412
 30
0.0
 40
2.5278438806436019
 50
67.008069521176154
 51
85.238757836322748
  0
ARC
  5
19AFB
  8
0
 10
4524.0579377350514
 20
458.39129912810961
 30
0.0
 40
2.4417375689705372
 50
65.703406013038503
 51
84.662906430550407
  0
ARC
  5
19AFC
  8
0
 10
4523.9770404484898
 20
458.32860097067447
 30
0.0
 40
2.4945602906676778
 50
64.203447934914976
 51
82.907298460671527
  0
ARC
  5
19AFD
  8
0
 10
4523.9625430452079
 20
458.28266826071041
 30
0.0
 40
2.510530150701932
 50
64.907738727011164
 51
82.619142926053769
  0
ARC
  5
19AFE
  8
0
 10
4523.9581363294383
 20
458.46973285256638
 30
0.0
 40
2.2952001667741091
 50
65.379507085328655
 51
81.811143208095274
  0
ARC
  5
19AFF
  8
0
 10
4524.008802690757
 20
458.4620840390001
 30
0.0
 40
2.2635502355254
 50
67.695140194223654
 51
82.989891126791704
  0
ARC
  5
19B00
  8
0
 10
4523.9429967263504
 20
458.38182546057169
 30
0.0
 40
2.3206139727555462
 50
69.555755805897547
 51
81.523686617182975
  0
ARC
  5
19B01
  8
0
 10
4523.9652158858271
 20
458.53330823508969
 30
0.0
 40
2.1459890383000202
 50
70.505064566154985
 51
81.428638914597315
  0
ARC
  5
19B02
  8
0
 10
4524.2165584708737
 20
459.55824043038717
 30
0.0
 40
1.062462110875565
 50
69.943569232204496
 51
86.303520562109568
  0
ARC
  5
19B03
  8
0
 10
4524.3292060585663
 20
459.95687691565968
 30
0.0
 40
0.6240422043458979
 50
74.321471607405158
 51
94.056938542215633
  0
ARC
  5
19B04
  8
0
 10
4524.8364754616641
 20
467.12163414361908
 30
0.0
 40
6.9693193129959887
 50
270.62279315758337
 51
271.85945636101297
  0
ARC
  5
19B05
  8
0
 10
4524.7565567208076
 20
467.04360184722418
 30
0.0
 40
6.886859478919618
 50
269.97701776607659
 51
272.54711953636013
  0
ARC
  5
19B06
  8
0
 10
4524.5988281961527
 20
466.11847248043051
 30
0.0
 40
5.9637432720836738
 50
271.48898140622151
 51
274.4602714402692
  0
ARC
  5
19B07
  8
0
 10
4524.2661952795388
 20
478.91525527143978
 30
0.0
 40
18.76484847661537
 50
270.90092865378898
 51
271.48898140622151
  0
ARC
  5
19B08
  8
0
 10
4524.6194012206342
 20
464.44262451474822
 30
0.0
 40
4.2787299223516753
 50
273.03817855387388
 51
275.94567609729518
  0
ARC
  5
19B09
  8
0
 10
4524.4328739409311
 20
467.95696941400161
 30
0.0
 40
7.7980213989107474
 50
271.6556315320168
 51
273.03817855387388
  0
ARC
  5
19B0A
  8
0
 10
4524.2849628312333
 20
473.07424537228178
 30
0.0
 40
12.917434541993201
 50
270.74194144902532
 51
271.6556315320168
  0
ARC
  5
19B0B
  8
0
 10
4524.6869837678523
 20
442.03026545954208
 30
0.0
 40
18.129148356227081
 50
90.741941449025305
 51
91.270364449758475
  0
ARC
  5
19B0C
  8
0
 10
4524.5465463126739
 20
464.04053404206752
 30
0.0
 40
3.8762613806752122
 50
273.23504738605408
 51
277.65083659506053
  0
ARC
  5
19B0D
  8
0
 10
4524.2263061569984
 20
469.70626467222002
 30
0.0
 40
9.5510351498007875
 50
271.3508814239911
 51
273.23504738605408
  0
ARC
  5
19B0E
  8
0
 10
4524.229456228154
 20
465.83974112635912
 30
0.0
 40
5.6788469467470311
 50
270.5609781906673
 51
278.43647366319351
  0
ARC
  5
19B0F
  8
0
 10
4523.9692199203182
 20
467.2888798981952
 30
0.0
 40
7.1354538555365714
 50
275.38678025320218
 51
278.81440020378642
  0
ARC
  5
19B10
  8
0
 10
4524.0173294913684
 20
467.72361110264939
 30
0.0
 40
7.5642688563723199
 50
272.02832949316308
 51
274.71483541948521
  0
ARC
  5
19B11
  8
0
 10
4524.098425887657
 20
465.32973696287212
 30
0.0
 40
5.159615977690974
 50
272.07292113834188
 51
280.77031478143772
  0
ARC
  5
19B12
  8
0
 10
4524.0785232153767
 20
464.64878599996871
 30
0.0
 40
4.468830761229178
 50
272.64894786276938
 51
282.72151315009449
  0
ARC
  5
19B13
  8
0
 10
4524.0004198486467
 20
464.39805710317268
 30
0.0
 40
4.2126802594382431
 50
273.87423434836541
 51
284.60432960977209
  0
ARC
  5
19B14
  8
0
 10
4524.1582821585162
 20
463.34956225692258
 30
0.0
 40
3.1388904475829089
 50
272.31470594887622
 51
286.74460238322081
  0
ARC
  5
19B15
  8
0
 10
4524.0778678525303
 20
463.26875504249699
 30
0.0
 40
3.046516108889088
 50
273.89960271656639
 51
288.85881683225068
  0
ARC
  5
19B16
  8
0
 10
4524.1650526868416
 20
462.69457947079758
 30
0.0
 40
2.4487694673772449
 50
272.80894736518388
 51
291.50215794188932
  0
ARC
  5
19B17
  8
0
 10
4524.0752359475036
 20
462.78120405276781
 30
0.0
 40
2.5278438806436019
 50
274.76124216367731
 51
292.99193047882392
  0
ARC
  5
19B18
  8
0
 10
4524.0579377350514
 20
462.72124058055221
 30
0.0
 40
2.4417375689705372
 50
275.33709356944962
 51
294.29659398696151
  0
ARC
  5
19B19
  8
0
 10
4523.9770404484898
 20
462.78393873798728
 30
0.0
 40
2.4945602906676778
 50
277.09270153932852
 51
295.796552065085
  0
ARC
  5
19B1A
  8
0
 10
4523.9625430452079
 20
462.82987144795152
 30
0.0
 40
2.510530150701932
 50
277.38085707394617
 51
295.09226127298888
  0
ARC
  5
19B1B
  8
0
 10
4523.9581363294383
 20
462.64280685609538
 30
0.0
 40
2.2952001667741091
 50
278.18885679190481
 51
294.62049291467127
  0
ARC
  5
19B1C
  8
0
 10
4524.008802690757
 20
462.65045566966182
 30
0.0
 40
2.2635502355254
 50
277.01010887320831
 51
292.30485980577629
  0
ARC
  5
19B1D
  8
0
 10
4523.9429967263504
 20
462.73071424809018
 30
0.0
 40
2.3206139727555462
 50
278.47631338281701
 51
290.4442441941024
  0
ARC
  5
19B1E
  8
0
 10
4523.9652158858271
 20
462.57923147357229
 30
0.0
 40
2.1459890383000202
 50
278.57136108540271
 51
289.494935433845
  0
ARC
  5
19B1F
  8
0
 10
4524.2165584708737
 20
461.55429927827481
 30
0.0
 40
1.062462110875565
 50
273.69647943789039
 51
290.05643076779552
  0
ARC
  5
19B20
  8
0
 10
4524.3292060585663
 20
461.15566279300208
 30
0.0
 40
0.6240422043458979
 50
265.94306145778438
 51
285.67852839259479
  0
ARC
  5
19B21
  8
0
 10
4524.4976154204933
 20
460.55626985433099
 30
0.0
 40
0.0014492055640631
 50
279.19556460961928
 51
80.804435390381229
  0
LINE
  5
19B22
  8
0
 10
4525.6728517314559
 20
461.59410433323092
 30
0.0
 11
4525.6728517314559
 21
459.51843520863099
 31
0.0
  0
LINE
  5
19B23
  8
0
 10
4525.6468517314561
 20
459.49843520863101
 30
0.0
 11
4525.6528517314564
 21
459.49843520863101
 31
0.0
  0
LINE
  5
19B24
  8
0
 10
4525.6468517314561
 20
461.61410449993087
 30
0.0
 11
4525.6528517314564
 21
461.61410449993087
 31
0.0
  0
ARC
  5
19B25
  8
0
 10
4525.6528517314564
 20
461.5941044999297
 30
0.0
 40
0.0200000000011853
 50
359.99952244307042
 51
89.999999998593026
  0
ARC
  5
19B26
  8
0
 10
4525.6528517314564
 20
459.51843520863099
 30
0.0
 40
0.0199999999999978
 50
270.0
 51
0.0000000000065138
  0
ENDSEC
  0
EOF
